ISO-10303-21;
HEADER;
FILE_DESCRIPTION(('STEP AP214'),'1');
FILE_NAME('HALDERN_EH_25160_0715.stp','2020-02-28T09:42:46',('TraceParts'),('TraceParts S.A.'),'Spatial InterOp 3D',' ',' ');
FILE_SCHEMA(('AUTOMOTIVE_DESIGN { 1 0 10303 214 1 1 1 1 }'));
ENDSEC;
DATA;
#1=MECHANICAL_DESIGN_GEOMETRIC_PRESENTATION_REPRESENTATION(' ',(#10,#11,#12,#13,#14,#15,#16,#17,#18,#19,#20,#21,#22,#23,#24,#25,#26,#27),#6);
#2=PRODUCT_DEFINITION_CONTEXT('',#28,'design');
#3=APPLICATION_PROTOCOL_DEFINITION('INTERNATIONAL STANDARD','automotive_design',1994,#28);
#4=PRODUCT_CATEGORY_RELATIONSHIP('NONE','NONE',#29,#30);
#5=SHAPE_DEFINITION_REPRESENTATION(#31,#32);
#6= (GEOMETRIC_REPRESENTATION_CONTEXT(3)GLOBAL_UNCERTAINTY_ASSIGNED_CONTEXT((#35))GLOBAL_UNIT_ASSIGNED_CONTEXT((#37,#38,#39))REPRESENTATION_CONTEXT('NONE','WORKSPACE'));
#10=STYLED_ITEM('',(#41),#42);
#11=STYLED_ITEM('',(#43),#44);
#12=STYLED_ITEM('',(#45),#46);
#13=STYLED_ITEM('',(#47),#48);
#14=STYLED_ITEM('',(#49),#50);
#15=STYLED_ITEM('',(#51),#52);
#16=STYLED_ITEM('',(#53),#54);
#17=STYLED_ITEM('',(#55),#56);
#18=STYLED_ITEM('',(#57),#58);
#19=STYLED_ITEM('',(#59),#60);
#20=STYLED_ITEM('',(#61),#62);
#21=STYLED_ITEM('',(#63),#64);
#22=STYLED_ITEM('',(#65),#66);
#23=STYLED_ITEM('',(#67),#68);
#24=STYLED_ITEM('',(#69),#70);
#25=STYLED_ITEM('',(#71),#72);
#26=STYLED_ITEM('',(#73),#74);
#27=STYLED_ITEM('',(#75),#76);
#28=APPLICATION_CONTEXT(' ');
#29=PRODUCT_CATEGORY('part','NONE');
#30=PRODUCT_RELATED_PRODUCT_CATEGORY('detail',' ',(#77));
#31=PRODUCT_DEFINITION_SHAPE('NONE','NONE',#78);
#32=ADVANCED_BREP_SHAPE_REPRESENTATION('HALDERN_EH_25160_0715',(#79,#80),#6);
#35=UNCERTAINTY_MEASURE_WITH_UNIT(LENGTH_MEASURE(1.0E-06),#37,'','');
#37= (CONVERSION_BASED_UNIT('MILLIMETRE',#83)LENGTH_UNIT()NAMED_UNIT(#86));
#38= (NAMED_UNIT(#88)PLANE_ANGLE_UNIT()SI_UNIT($,.RADIAN.));
#39= (NAMED_UNIT(#88)SOLID_ANGLE_UNIT()SI_UNIT($,.STERADIAN.));
#41=PRESENTATION_STYLE_ASSIGNMENT((#94));
#42=ADVANCED_FACE('',(#95),#96,.F.);
#43=PRESENTATION_STYLE_ASSIGNMENT((#97));
#44=ADVANCED_FACE('',(#98),#99,.F.);
#45=PRESENTATION_STYLE_ASSIGNMENT((#100));
#46=ADVANCED_FACE('',(#101),#102,.F.);
#47=PRESENTATION_STYLE_ASSIGNMENT((#103));
#48=ADVANCED_FACE('',(#104),#105,.F.);
#49=PRESENTATION_STYLE_ASSIGNMENT((#106));
#50=ADVANCED_FACE('',(#107),#108,.F.);
#51=PRESENTATION_STYLE_ASSIGNMENT((#109));
#52=ADVANCED_FACE('',(#110),#111,.F.);
#53=PRESENTATION_STYLE_ASSIGNMENT((#112));
#54=ADVANCED_FACE('',(#113),#114,.F.);
#55=PRESENTATION_STYLE_ASSIGNMENT((#115));
#56=ADVANCED_FACE('',(#116),#117,.F.);
#57=PRESENTATION_STYLE_ASSIGNMENT((#118));
#58=ADVANCED_FACE('',(#119),#120,.F.);
#59=PRESENTATION_STYLE_ASSIGNMENT((#121));
#60=ADVANCED_FACE('',(#122),#123,.F.);
#61=PRESENTATION_STYLE_ASSIGNMENT((#124));
#62=ADVANCED_FACE('',(#125),#126,.F.);
#63=PRESENTATION_STYLE_ASSIGNMENT((#127));
#64=ADVANCED_FACE('',(#128),#129,.F.);
#65=PRESENTATION_STYLE_ASSIGNMENT((#130));
#66=ADVANCED_FACE('',(#131),#132,.T.);
#67=PRESENTATION_STYLE_ASSIGNMENT((#133));
#68=ADVANCED_FACE('',(#134),#135,.F.);
#69=PRESENTATION_STYLE_ASSIGNMENT((#136));
#70=ADVANCED_FACE('',(#137,#138,#139),#140,.F.);
#71=PRESENTATION_STYLE_ASSIGNMENT((#141));
#72=ADVANCED_FACE('',(#142),#143,.F.);
#73=PRESENTATION_STYLE_ASSIGNMENT((#144));
#74=ADVANCED_FACE('',(#145,#146,#147),#148,.F.);
#75=PRESENTATION_STYLE_ASSIGNMENT((#149));
#76=ADVANCED_FACE('',(#150),#151,.F.);
#77=PRODUCT('HALDERN_EH_25160_0715','HALDERN_EH_25160_0715','PART-HALDERN_EH_25160_0715-DESC',(#152));
#78=PRODUCT_DEFINITION('','NONE',#153,#2);
#79=MANIFOLD_SOLID_BREP('HALDERN_EH_25160_0715',#154);
#80=AXIS2_PLACEMENT_3D('',#155,#156,#157);
#83=LENGTH_MEASURE_WITH_UNIT(LENGTH_MEASURE(1.0),#158);
#86=DIMENSIONAL_EXPONENTS(1.0,0.0,0.0,0.0,0.0,0.0,0.0);
#88=DIMENSIONAL_EXPONENTS(0.0,0.0,0.0,0.0,0.0,0.0,0.0);
#94=SURFACE_STYLE_USAGE(.BOTH.,#159);
#95=FACE_OUTER_BOUND('',#160,.T.);
#96=CONICAL_SURFACE('',#161,2.729375,0.785398163397448);
#97=SURFACE_STYLE_USAGE(.BOTH.,#162);
#98=FACE_OUTER_BOUND('',#163,.T.);
#99=CYLINDRICAL_SURFACE('',#164,2.45875);
#100=SURFACE_STYLE_USAGE(.BOTH.,#165);
#101=FACE_OUTER_BOUND('',#166,.T.);
#102=CONICAL_SURFACE('',#167,2.729375,0.785398163397448);
#103=SURFACE_STYLE_USAGE(.BOTH.,#168);
#104=FACE_OUTER_BOUND('',#169,.T.);
#105=CONICAL_SURFACE('',#170,2.729375,0.785398163397448);
#106=SURFACE_STYLE_USAGE(.BOTH.,#171);
#107=FACE_OUTER_BOUND('',#172,.T.);
#108=CYLINDRICAL_SURFACE('',#173,2.45875);
#109=SURFACE_STYLE_USAGE(.BOTH.,#174);
#110=FACE_OUTER_BOUND('',#175,.T.);
#111=CONICAL_SURFACE('',#176,2.729375,0.785398163397448);
#112=SURFACE_STYLE_USAGE(.BOTH.,#177);
#113=FACE_OUTER_BOUND('',#178,.T.);
#114=CONICAL_SURFACE('',#179,2.729375,0.785398163397448);
#115=SURFACE_STYLE_USAGE(.BOTH.,#180);
#116=FACE_OUTER_BOUND('',#181,.T.);
#117=CYLINDRICAL_SURFACE('',#182,2.45875);
#118=SURFACE_STYLE_USAGE(.BOTH.,#183);
#119=FACE_OUTER_BOUND('',#184,.T.);
#120=CONICAL_SURFACE('',#185,2.729375,0.785398163397448);
#121=SURFACE_STYLE_USAGE(.BOTH.,#186);
#122=FACE_OUTER_BOUND('',#187,.T.);
#123=CONICAL_SURFACE('',#188,2.729375,0.785398163397448);
#124=SURFACE_STYLE_USAGE(.BOTH.,#189);
#125=FACE_OUTER_BOUND('',#190,.T.);
#126=CYLINDRICAL_SURFACE('',#191,2.45875);
#127=SURFACE_STYLE_USAGE(.BOTH.,#192);
#128=FACE_OUTER_BOUND('',#193,.T.);
#129=CONICAL_SURFACE('',#194,2.729375,0.785398163397448);
#130=SURFACE_STYLE_USAGE(.BOTH.,#195);
#131=FACE_OUTER_BOUND('',#196,.T.);
#132=PLANE('',#197);
#133=SURFACE_STYLE_USAGE(.BOTH.,#198);
#134=FACE_OUTER_BOUND('',#199,.T.);
#135=PLANE('',#200);
#136=SURFACE_STYLE_USAGE(.BOTH.,#201);
#137=FACE_BOUND('',#202,.T.);
#138=FACE_BOUND('',#203,.T.);
#139=FACE_OUTER_BOUND('',#204,.T.);
#140=PLANE('',#205);
#141=SURFACE_STYLE_USAGE(.BOTH.,#206);
#142=FACE_OUTER_BOUND('',#207,.T.);
#143=PLANE('',#208);
#144=SURFACE_STYLE_USAGE(.BOTH.,#209);
#145=FACE_BOUND('',#210,.T.);
#146=FACE_BOUND('',#211,.T.);
#147=FACE_OUTER_BOUND('',#212,.T.);
#148=PLANE('',#213);
#149=SURFACE_STYLE_USAGE(.BOTH.,#214);
#150=FACE_OUTER_BOUND('',#215,.T.);
#151=PLANE('',#216);
#152=PRODUCT_CONTEXT('',#28,'mechanical');
#153=PRODUCT_DEFINITION_FORMATION_WITH_SPECIFIED_SOURCE(' ','NONE',#77,.NOT_KNOWN.);
#154=CLOSED_SHELL('',(#42,#44,#46,#48,#50,#52,#54,#56,#58,#60,#62,#64,#66,#68,#70,#72,#74,#76));
#155=CARTESIAN_POINT('',(0.0,0.0,0.0));
#156=DIRECTION('',(0.0,0.0,1.0));
#157=DIRECTION('',(1.0,0.0,0.0));
#158= (NAMED_UNIT(#86)LENGTH_UNIT()SI_UNIT(.MILLI.,.METRE.));
#159=SURFACE_SIDE_STYLE('',(#218));
#160=EDGE_LOOP('',(#219,#220,#221,#222));
#161=AXIS2_PLACEMENT_3D('',#223,#224,#225);
#162=SURFACE_SIDE_STYLE('',(#226));
#163=EDGE_LOOP('',(#227,#228,#229,#230));
#164=AXIS2_PLACEMENT_3D('',#231,#232,#233);
#165=SURFACE_SIDE_STYLE('',(#234));
#166=EDGE_LOOP('',(#235,#236,#237,#238));
#167=AXIS2_PLACEMENT_3D('',#239,#240,#241);
#168=SURFACE_SIDE_STYLE('',(#242));
#169=EDGE_LOOP('',(#243,#244,#245,#246));
#170=AXIS2_PLACEMENT_3D('',#247,#248,#249);
#171=SURFACE_SIDE_STYLE('',(#250));
#172=EDGE_LOOP('',(#251,#252,#253,#254));
#173=AXIS2_PLACEMENT_3D('',#255,#256,#257);
#174=SURFACE_SIDE_STYLE('',(#258));
#175=EDGE_LOOP('',(#259,#260,#261,#262));
#176=AXIS2_PLACEMENT_3D('',#263,#264,#265);
#177=SURFACE_SIDE_STYLE('',(#266));
#178=EDGE_LOOP('',(#267,#268,#269,#270));
#179=AXIS2_PLACEMENT_3D('',#271,#272,#273);
#180=SURFACE_SIDE_STYLE('',(#274));
#181=EDGE_LOOP('',(#275,#276,#277,#278));
#182=AXIS2_PLACEMENT_3D('',#279,#280,#281);
#183=SURFACE_SIDE_STYLE('',(#282));
#184=EDGE_LOOP('',(#283,#284,#285,#286));
#185=AXIS2_PLACEMENT_3D('',#287,#288,#289);
#186=SURFACE_SIDE_STYLE('',(#290));
#187=EDGE_LOOP('',(#291,#292,#293,#294));
#188=AXIS2_PLACEMENT_3D('',#295,#296,#297);
#189=SURFACE_SIDE_STYLE('',(#298));
#190=EDGE_LOOP('',(#299,#300,#301,#302));
#191=AXIS2_PLACEMENT_3D('',#303,#304,#305);
#192=SURFACE_SIDE_STYLE('',(#306));
#193=EDGE_LOOP('',(#307,#308,#309,#310));
#194=AXIS2_PLACEMENT_3D('',#311,#312,#313);
#195=SURFACE_SIDE_STYLE('',(#314));
#196=EDGE_LOOP('',(#315,#316,#317,#318));
#197=AXIS2_PLACEMENT_3D('',#319,#320,#321);
#198=SURFACE_SIDE_STYLE('',(#322));
#199=EDGE_LOOP('',(#323,#324,#325,#326));
#200=AXIS2_PLACEMENT_3D('',#327,#328,#329);
#201=SURFACE_SIDE_STYLE('',(#330));
#202=EDGE_LOOP('',(#331,#332));
#203=EDGE_LOOP('',(#333,#334));
#204=EDGE_LOOP('',(#335,#336,#337,#338));
#205=AXIS2_PLACEMENT_3D('',#339,#340,#341);
#206=SURFACE_SIDE_STYLE('',(#342));
#207=EDGE_LOOP('',(#343,#344,#345,#346));
#208=AXIS2_PLACEMENT_3D('',#347,#348,#349);
#209=SURFACE_SIDE_STYLE('',(#350));
#210=EDGE_LOOP('',(#351,#352));
#211=EDGE_LOOP('',(#353,#354));
#212=EDGE_LOOP('',(#355,#356,#357,#358));
#213=AXIS2_PLACEMENT_3D('',#359,#360,#361);
#214=SURFACE_SIDE_STYLE('',(#362));
#215=EDGE_LOOP('',(#363,#364,#365,#366));
#216=AXIS2_PLACEMENT_3D('',#367,#368,#369);
#218=SURFACE_STYLE_FILL_AREA(#370);
#219=ORIENTED_EDGE('',*,*,#371,.F.);
#220=ORIENTED_EDGE('',*,*,#372,.F.);
#221=ORIENTED_EDGE('',*,*,#373,.F.);
#222=ORIENTED_EDGE('',*,*,#374,.F.);
#223=CARTESIAN_POINT('',(0.0,0.270625,0.0));
#224=DIRECTION('',(6.12303176911189E-17,-1.0,0.0));
#225=DIRECTION('',(1.0,6.12303176911189E-17,0.0));
#226=SURFACE_STYLE_FILL_AREA(#375);
#227=ORIENTED_EDGE('',*,*,#376,.F.);
#228=ORIENTED_EDGE('',*,*,#374,.T.);
#229=ORIENTED_EDGE('',*,*,#377,.F.);
#230=ORIENTED_EDGE('',*,*,#378,.F.);
#231=CARTESIAN_POINT('',(0.0,2.0,0.0));
#232=DIRECTION('',(6.12303176911189E-17,-1.0,0.0));
#233=DIRECTION('',(1.0,6.12303176911189E-17,0.0));
#234=SURFACE_STYLE_FILL_AREA(#379);
#235=ORIENTED_EDGE('',*,*,#380,.F.);
#236=ORIENTED_EDGE('',*,*,#378,.T.);
#237=ORIENTED_EDGE('',*,*,#381,.F.);
#238=ORIENTED_EDGE('',*,*,#382,.F.);
#239=CARTESIAN_POINT('',(0.0,3.729375,0.0));
#240=DIRECTION('',(-6.12303176911189E-17,1.0,-0.0));
#241=DIRECTION('',(1.0,6.12303176911189E-17,0.0));
#242=SURFACE_STYLE_FILL_AREA(#383);
#243=ORIENTED_EDGE('',*,*,#384,.F.);
#244=ORIENTED_EDGE('',*,*,#385,.F.);
#245=ORIENTED_EDGE('',*,*,#386,.F.);
#246=ORIENTED_EDGE('',*,*,#387,.F.);
#247=CARTESIAN_POINT('',(0.0,0.270625,30.0));
#248=DIRECTION('',(6.12303176911189E-17,-1.0,0.0));
#249=DIRECTION('',(1.0,6.12303176911189E-17,0.0));
#250=SURFACE_STYLE_FILL_AREA(#388);
#251=ORIENTED_EDGE('',*,*,#389,.F.);
#252=ORIENTED_EDGE('',*,*,#387,.T.);
#253=ORIENTED_EDGE('',*,*,#390,.F.);
#254=ORIENTED_EDGE('',*,*,#391,.F.);
#255=CARTESIAN_POINT('',(0.0,2.0,30.0));
#256=DIRECTION('',(6.12303176911189E-17,-1.0,0.0));
#257=DIRECTION('',(1.0,6.12303176911189E-17,0.0));
#258=SURFACE_STYLE_FILL_AREA(#392);
#259=ORIENTED_EDGE('',*,*,#393,.F.);
#260=ORIENTED_EDGE('',*,*,#391,.T.);
#261=ORIENTED_EDGE('',*,*,#394,.F.);
#262=ORIENTED_EDGE('',*,*,#395,.F.);
#263=CARTESIAN_POINT('',(0.0,3.729375,30.0));
#264=DIRECTION('',(-6.12303176911189E-17,1.0,-0.0));
#265=DIRECTION('',(1.0,6.12303176911189E-17,0.0));
#266=SURFACE_STYLE_FILL_AREA(#396);
#267=ORIENTED_EDGE('',*,*,#393,.T.);
#268=ORIENTED_EDGE('',*,*,#397,.F.);
#269=ORIENTED_EDGE('',*,*,#394,.T.);
#270=ORIENTED_EDGE('',*,*,#398,.T.);
#271=CARTESIAN_POINT('',(0.0,3.729375,30.0));
#272=DIRECTION('',(-6.12303176911189E-17,1.0,-0.0));
#273=DIRECTION('',(1.0,6.12303176911189E-17,0.0));
#274=SURFACE_STYLE_FILL_AREA(#399);
#275=ORIENTED_EDGE('',*,*,#389,.T.);
#276=ORIENTED_EDGE('',*,*,#398,.F.);
#277=ORIENTED_EDGE('',*,*,#390,.T.);
#278=ORIENTED_EDGE('',*,*,#400,.T.);
#279=CARTESIAN_POINT('',(0.0,2.0,30.0));
#280=DIRECTION('',(6.12303176911189E-17,-1.0,0.0));
#281=DIRECTION('',(1.0,6.12303176911189E-17,0.0));
#282=SURFACE_STYLE_FILL_AREA(#401);
#283=ORIENTED_EDGE('',*,*,#384,.T.);
#284=ORIENTED_EDGE('',*,*,#400,.F.);
#285=ORIENTED_EDGE('',*,*,#386,.T.);
#286=ORIENTED_EDGE('',*,*,#402,.F.);
#287=CARTESIAN_POINT('',(0.0,0.270625,30.0));
#288=DIRECTION('',(6.12303176911189E-17,-1.0,0.0));
#289=DIRECTION('',(1.0,6.12303176911189E-17,0.0));
#290=SURFACE_STYLE_FILL_AREA(#403);
#291=ORIENTED_EDGE('',*,*,#380,.T.);
#292=ORIENTED_EDGE('',*,*,#404,.F.);
#293=ORIENTED_EDGE('',*,*,#381,.T.);
#294=ORIENTED_EDGE('',*,*,#405,.T.);
#295=CARTESIAN_POINT('',(0.0,3.729375,0.0));
#296=DIRECTION('',(-6.12303176911189E-17,1.0,-0.0));
#297=DIRECTION('',(1.0,6.12303176911189E-17,0.0));
#298=SURFACE_STYLE_FILL_AREA(#406);
#299=ORIENTED_EDGE('',*,*,#376,.T.);
#300=ORIENTED_EDGE('',*,*,#405,.F.);
#301=ORIENTED_EDGE('',*,*,#377,.T.);
#302=ORIENTED_EDGE('',*,*,#407,.T.);
#303=CARTESIAN_POINT('',(0.0,2.0,0.0));
#304=DIRECTION('',(6.12303176911189E-17,-1.0,0.0));
#305=DIRECTION('',(1.0,6.12303176911189E-17,0.0));
#306=SURFACE_STYLE_FILL_AREA(#408);
#307=ORIENTED_EDGE('',*,*,#371,.T.);
#308=ORIENTED_EDGE('',*,*,#407,.F.);
#309=ORIENTED_EDGE('',*,*,#373,.T.);
#310=ORIENTED_EDGE('',*,*,#409,.F.);
#311=CARTESIAN_POINT('',(0.0,0.270625,0.0));
#312=DIRECTION('',(6.12303176911189E-17,-1.0,0.0));
#313=DIRECTION('',(1.0,6.12303176911189E-17,0.0));
#314=SURFACE_STYLE_FILL_AREA(#410);
#315=ORIENTED_EDGE('',*,*,#411,.T.);
#316=ORIENTED_EDGE('',*,*,#412,.T.);
#317=ORIENTED_EDGE('',*,*,#413,.T.);
#318=ORIENTED_EDGE('',*,*,#414,.T.);
#319=CARTESIAN_POINT('',(0.0,2.0,40.0));
#320=DIRECTION('',(0.0,0.0,1.0));
#321=DIRECTION('',(1.0,0.0,0.0));
#322=SURFACE_STYLE_FILL_AREA(#415);
#323=ORIENTED_EDGE('',*,*,#416,.T.);
#324=ORIENTED_EDGE('',*,*,#417,.T.);
#325=ORIENTED_EDGE('',*,*,#418,.T.);
#326=ORIENTED_EDGE('',*,*,#419,.T.);
#327=CARTESIAN_POINT('',(0.0,2.0,-10.0));
#328=DIRECTION('',(0.0,0.0,1.0));
#329=DIRECTION('',(1.0,0.0,0.0));
#330=SURFACE_STYLE_FILL_AREA(#420);
#331=ORIENTED_EDGE('',*,*,#402,.T.);
#332=ORIENTED_EDGE('',*,*,#385,.T.);
#333=ORIENTED_EDGE('',*,*,#409,.T.);
#334=ORIENTED_EDGE('',*,*,#372,.T.);
#335=ORIENTED_EDGE('',*,*,#421,.T.);
#336=ORIENTED_EDGE('',*,*,#417,.F.);
#337=ORIENTED_EDGE('',*,*,#422,.F.);
#338=ORIENTED_EDGE('',*,*,#414,.F.);
#339=CARTESIAN_POINT('',(0.0,0.0,15.0));
#340=DIRECTION('',(0.0,1.0,0.0));
#341=DIRECTION('',(0.0,0.0,1.0));
#342=SURFACE_STYLE_FILL_AREA(#423);
#343=ORIENTED_EDGE('',*,*,#424,.T.);
#344=ORIENTED_EDGE('',*,*,#418,.F.);
#345=ORIENTED_EDGE('',*,*,#421,.F.);
#346=ORIENTED_EDGE('',*,*,#413,.F.);
#347=CARTESIAN_POINT('',(-7.5,2.0,15.0));
#348=DIRECTION('',(1.0,0.0,0.0));
#349=DIRECTION('',(0.0,0.0,-1.0));
#350=SURFACE_STYLE_FILL_AREA(#425);
#351=ORIENTED_EDGE('',*,*,#395,.T.);
#352=ORIENTED_EDGE('',*,*,#397,.T.);
#353=ORIENTED_EDGE('',*,*,#382,.T.);
#354=ORIENTED_EDGE('',*,*,#404,.T.);
#355=ORIENTED_EDGE('',*,*,#426,.T.);
#356=ORIENTED_EDGE('',*,*,#419,.F.);
#357=ORIENTED_EDGE('',*,*,#424,.F.);
#358=ORIENTED_EDGE('',*,*,#412,.F.);
#359=CARTESIAN_POINT('',(0.0,4.0,15.0));
#360=DIRECTION('',(0.0,-1.0,0.0));
#361=DIRECTION('',(0.0,0.0,-1.0));
#362=SURFACE_STYLE_FILL_AREA(#427);
#363=ORIENTED_EDGE('',*,*,#422,.T.);
#364=ORIENTED_EDGE('',*,*,#416,.F.);
#365=ORIENTED_EDGE('',*,*,#426,.F.);
#366=ORIENTED_EDGE('',*,*,#411,.F.);
#367=CARTESIAN_POINT('',(7.5,2.0,15.0));
#368=DIRECTION('',(-1.0,0.0,0.0));
#369=DIRECTION('',(0.0,0.0,1.0));
#370=FILL_AREA_STYLE('',(#428));
#371=EDGE_CURVE('',#429,#430,#431,.T.);
#372=EDGE_CURVE('',#432,#429,#433,.T.);
#373=EDGE_CURVE('',#434,#432,#435,.T.);
#374=EDGE_CURVE('',#430,#434,#436,.T.);
#375=FILL_AREA_STYLE('',(#437));
#376=EDGE_CURVE('',#430,#438,#439,.T.);
#377=EDGE_CURVE('',#440,#434,#441,.T.);
#378=EDGE_CURVE('',#438,#440,#442,.T.);
#379=FILL_AREA_STYLE('',(#443));
#380=EDGE_CURVE('',#438,#444,#445,.T.);
#381=EDGE_CURVE('',#446,#440,#447,.T.);
#382=EDGE_CURVE('',#444,#446,#448,.T.);
#383=FILL_AREA_STYLE('',(#449));
#384=EDGE_CURVE('',#450,#451,#452,.T.);
#385=EDGE_CURVE('',#453,#450,#454,.T.);
#386=EDGE_CURVE('',#455,#453,#456,.T.);
#387=EDGE_CURVE('',#451,#455,#457,.T.);
#388=FILL_AREA_STYLE('',(#458));
#389=EDGE_CURVE('',#451,#459,#460,.T.);
#390=EDGE_CURVE('',#461,#455,#462,.T.);
#391=EDGE_CURVE('',#459,#461,#463,.T.);
#392=FILL_AREA_STYLE('',(#464));
#393=EDGE_CURVE('',#459,#465,#466,.T.);
#394=EDGE_CURVE('',#467,#461,#468,.T.);
#395=EDGE_CURVE('',#465,#467,#469,.T.);
#396=FILL_AREA_STYLE('',(#470));
#397=EDGE_CURVE('',#467,#465,#471,.T.);
#398=EDGE_CURVE('',#461,#459,#472,.T.);
#399=FILL_AREA_STYLE('',(#473));
#400=EDGE_CURVE('',#455,#451,#474,.T.);
#401=FILL_AREA_STYLE('',(#475));
#402=EDGE_CURVE('',#450,#453,#476,.T.);
#403=FILL_AREA_STYLE('',(#477));
#404=EDGE_CURVE('',#446,#444,#478,.T.);
#405=EDGE_CURVE('',#440,#438,#479,.T.);
#406=FILL_AREA_STYLE('',(#480));
#407=EDGE_CURVE('',#434,#430,#481,.T.);
#408=FILL_AREA_STYLE('',(#482));
#409=EDGE_CURVE('',#429,#432,#483,.T.);
#410=FILL_AREA_STYLE('',(#484));
#411=EDGE_CURVE('',#485,#486,#487,.T.);
#412=EDGE_CURVE('',#486,#488,#489,.T.);
#413=EDGE_CURVE('',#488,#490,#491,.T.);
#414=EDGE_CURVE('',#490,#485,#492,.T.);
#415=FILL_AREA_STYLE('',(#493));
#416=EDGE_CURVE('',#494,#495,#496,.T.);
#417=EDGE_CURVE('',#495,#497,#498,.T.);
#418=EDGE_CURVE('',#497,#499,#500,.T.);
#419=EDGE_CURVE('',#499,#494,#501,.T.);
#420=FILL_AREA_STYLE('',(#502));
#421=EDGE_CURVE('',#490,#497,#503,.T.);
#422=EDGE_CURVE('',#485,#495,#504,.T.);
#423=FILL_AREA_STYLE('',(#505));
#424=EDGE_CURVE('',#488,#499,#506,.T.);
#425=FILL_AREA_STYLE('',(#507));
#426=EDGE_CURVE('',#486,#494,#508,.T.);
#427=FILL_AREA_STYLE('',(#509));
#428=FILL_AREA_STYLE_COLOUR('',#510);
#429=VERTEX_POINT('',#511);
#430=VERTEX_POINT('',#512);
#431=LINE('',#513,#514);
#432=VERTEX_POINT('',#515);
#433=CIRCLE('',#516,3.0);
#434=VERTEX_POINT('',#517);
#435=LINE('',#518,#519);
#436=CIRCLE('',#520,2.45875);
#437=FILL_AREA_STYLE_COLOUR('',#521);
#438=VERTEX_POINT('',#522);
#439=LINE('',#523,#524);
#440=VERTEX_POINT('',#525);
#441=LINE('',#526,#527);
#442=CIRCLE('',#528,2.45875);
#443=FILL_AREA_STYLE_COLOUR('',#529);
#444=VERTEX_POINT('',#530);
#445=LINE('',#531,#532);
#446=VERTEX_POINT('',#533);
#447=LINE('',#534,#535);
#448=CIRCLE('',#536,3.0);
#449=FILL_AREA_STYLE_COLOUR('',#537);
#450=VERTEX_POINT('',#538);
#451=VERTEX_POINT('',#539);
#452=LINE('',#540,#541);
#453=VERTEX_POINT('',#542);
#454=CIRCLE('',#543,3.0);
#455=VERTEX_POINT('',#544);
#456=LINE('',#545,#546);
#457=CIRCLE('',#547,2.45875);
#458=FILL_AREA_STYLE_COLOUR('',#548);
#459=VERTEX_POINT('',#549);
#460=LINE('',#550,#551);
#461=VERTEX_POINT('',#552);
#462=LINE('',#553,#554);
#463=CIRCLE('',#555,2.45875);
#464=FILL_AREA_STYLE_COLOUR('',#556);
#465=VERTEX_POINT('',#557);
#466=LINE('',#558,#559);
#467=VERTEX_POINT('',#560);
#468=LINE('',#561,#562);
#469=CIRCLE('',#563,3.0);
#470=FILL_AREA_STYLE_COLOUR('',#564);
#471=CIRCLE('',#565,3.0);
#472=CIRCLE('',#566,2.45875);
#473=FILL_AREA_STYLE_COLOUR('',#567);
#474=CIRCLE('',#568,2.45875);
#475=FILL_AREA_STYLE_COLOUR('',#569);
#476=CIRCLE('',#570,3.0);
#477=FILL_AREA_STYLE_COLOUR('',#571);
#478=CIRCLE('',#572,3.0);
#479=CIRCLE('',#573,2.45875);
#480=FILL_AREA_STYLE_COLOUR('',#574);
#481=CIRCLE('',#575,2.45875);
#482=FILL_AREA_STYLE_COLOUR('',#576);
#483=CIRCLE('',#577,3.0);
#484=FILL_AREA_STYLE_COLOUR('',#578);
#485=VERTEX_POINT('',#579);
#486=VERTEX_POINT('',#580);
#487=LINE('',#581,#582);
#488=VERTEX_POINT('',#583);
#489=LINE('',#584,#585);
#490=VERTEX_POINT('',#586);
#491=LINE('',#587,#588);
#492=LINE('',#589,#590);
#493=FILL_AREA_STYLE_COLOUR('',#591);
#494=VERTEX_POINT('',#592);
#495=VERTEX_POINT('',#593);
#496=LINE('',#594,#595);
#497=VERTEX_POINT('',#596);
#498=LINE('',#597,#598);
#499=VERTEX_POINT('',#599);
#500=LINE('',#600,#601);
#501=LINE('',#602,#603);
#502=FILL_AREA_STYLE_COLOUR('',#604);
#503=LINE('',#605,#606);
#504=LINE('',#607,#608);
#505=FILL_AREA_STYLE_COLOUR('',#609);
#506=LINE('',#610,#611);
#507=FILL_AREA_STYLE_COLOUR('',#612);
#508=LINE('',#613,#614);
#509=FILL_AREA_STYLE_COLOUR('',#615);
#510=COLOUR_RGB('',0.752941191196442,0.752941191196442,0.752941191196442);
#511=CARTESIAN_POINT('',(3.0,0.0,0.0));
#512=CARTESIAN_POINT('',(2.45875,0.54125,0.0));
#513=CARTESIAN_POINT('',(2.729375,0.270625,-3.34240996696395E-16));
#514=VECTOR('',#616,1.0);
#515=CARTESIAN_POINT('',(-3.0,0.0,3.67381906146713E-16));
#516=AXIS2_PLACEMENT_3D('',#617,#618,#619);
#517=CARTESIAN_POINT('',(-2.45875,0.54125,3.01100087246077E-16));
#518=CARTESIAN_POINT('',(-2.729375,0.270625,3.34240996696395E-16));
#519=VECTOR('',#620,1.0);
#520=AXIS2_PLACEMENT_3D('',#621,#622,#623);
#521=COLOUR_RGB('',0.752941191196442,0.752941191196442,0.752941191196442);
#522=CARTESIAN_POINT('',(2.45875,3.45875,0.0));
#523=CARTESIAN_POINT('',(2.45875,2.0,-3.01100087246077E-16));
#524=VECTOR('',#624,1.0);
#525=CARTESIAN_POINT('',(-2.45875,3.45875,3.01100087246077E-16));
#526=CARTESIAN_POINT('',(-2.45875,2.0,3.01100087246077E-16));
#527=VECTOR('',#625,1.0);
#528=AXIS2_PLACEMENT_3D('',#626,#627,#628);
#529=COLOUR_RGB('',0.752941191196442,0.752941191196442,0.752941191196442);
#530=CARTESIAN_POINT('',(3.0,4.0,0.0));
#531=CARTESIAN_POINT('',(2.729375,3.729375,-3.34240996696395E-16));
#532=VECTOR('',#629,1.0);
#533=CARTESIAN_POINT('',(-3.0,4.0,3.67381906146713E-16));
#534=CARTESIAN_POINT('',(-2.729375,3.729375,3.34240996696395E-16));
#535=VECTOR('',#630,1.0);
#536=AXIS2_PLACEMENT_3D('',#631,#632,#633);
#537=COLOUR_RGB('',0.752941191196442,0.752941191196442,0.752941191196442);
#538=CARTESIAN_POINT('',(3.0,0.0,30.0));
#539=CARTESIAN_POINT('',(2.45875,0.54125,30.0));
#540=CARTESIAN_POINT('',(2.729375,0.270625,30.0));
#541=VECTOR('',#634,1.0);
#542=CARTESIAN_POINT('',(-3.0,0.0,30.0));
#543=AXIS2_PLACEMENT_3D('',#635,#636,#637);
#544=CARTESIAN_POINT('',(-2.45875,0.54125,30.0));
#545=CARTESIAN_POINT('',(-2.729375,0.270625,30.0));
#546=VECTOR('',#638,1.0);
#547=AXIS2_PLACEMENT_3D('',#639,#640,#641);
#548=COLOUR_RGB('',0.752941191196442,0.752941191196442,0.752941191196442);
#549=CARTESIAN_POINT('',(2.45875,3.45875,30.0));
#550=CARTESIAN_POINT('',(2.45875,2.0,30.0));
#551=VECTOR('',#642,1.0);
#552=CARTESIAN_POINT('',(-2.45875,3.45875,30.0));
#553=CARTESIAN_POINT('',(-2.45875,2.0,30.0));
#554=VECTOR('',#643,1.0);
#555=AXIS2_PLACEMENT_3D('',#644,#645,#646);
#556=COLOUR_RGB('',0.752941191196442,0.752941191196442,0.752941191196442);
#557=CARTESIAN_POINT('',(3.0,4.0,30.0));
#558=CARTESIAN_POINT('',(2.729375,3.729375,30.0));
#559=VECTOR('',#647,1.0);
#560=CARTESIAN_POINT('',(-3.0,4.0,30.0));
#561=CARTESIAN_POINT('',(-2.729375,3.729375,30.0));
#562=VECTOR('',#648,1.0);
#563=AXIS2_PLACEMENT_3D('',#649,#650,#651);
#564=COLOUR_RGB('',0.752941191196442,0.752941191196442,0.752941191196442);
#565=AXIS2_PLACEMENT_3D('',#652,#653,#654);
#566=AXIS2_PLACEMENT_3D('',#655,#656,#657);
#567=COLOUR_RGB('',0.752941191196442,0.752941191196442,0.752941191196442);
#568=AXIS2_PLACEMENT_3D('',#658,#659,#660);
#569=COLOUR_RGB('',0.752941191196442,0.752941191196442,0.752941191196442);
#570=AXIS2_PLACEMENT_3D('',#661,#662,#663);
#571=COLOUR_RGB('',0.752941191196442,0.752941191196442,0.752941191196442);
#572=AXIS2_PLACEMENT_3D('',#664,#665,#666);
#573=AXIS2_PLACEMENT_3D('',#667,#668,#669);
#574=COLOUR_RGB('',0.752941191196442,0.752941191196442,0.752941191196442);
#575=AXIS2_PLACEMENT_3D('',#670,#671,#672);
#576=COLOUR_RGB('',0.752941191196442,0.752941191196442,0.752941191196442);
#577=AXIS2_PLACEMENT_3D('',#673,#674,#675);
#578=COLOUR_RGB('',0.752941191196442,0.752941191196442,0.752941191196442);
#579=CARTESIAN_POINT('',(7.5,0.0,40.0));
#580=CARTESIAN_POINT('',(7.5,4.0,40.0));
#581=CARTESIAN_POINT('',(7.5,2.0,40.0));
#582=VECTOR('',#676,1.0);
#583=CARTESIAN_POINT('',(-7.5,4.0,40.0));
#584=CARTESIAN_POINT('',(0.0,4.0,40.0));
#585=VECTOR('',#677,1.0);
#586=CARTESIAN_POINT('',(-7.5,0.0,40.0));
#587=CARTESIAN_POINT('',(-7.5,2.0,40.0));
#588=VECTOR('',#678,1.0);
#589=CARTESIAN_POINT('',(0.0,0.0,40.0));
#590=VECTOR('',#679,1.0);
#591=COLOUR_RGB('',0.752941191196442,0.752941191196442,0.752941191196442);
#592=CARTESIAN_POINT('',(7.5,4.0,-10.0));
#593=CARTESIAN_POINT('',(7.5,0.0,-10.0));
#594=CARTESIAN_POINT('',(7.5,2.0,-10.0));
#595=VECTOR('',#680,1.0);
#596=CARTESIAN_POINT('',(-7.5,0.0,-10.0));
#597=CARTESIAN_POINT('',(0.0,0.0,-10.0));
#598=VECTOR('',#681,1.0);
#599=CARTESIAN_POINT('',(-7.5,4.0,-10.0));
#600=CARTESIAN_POINT('',(-7.5,2.0,-10.0));
#601=VECTOR('',#682,1.0);
#602=CARTESIAN_POINT('',(0.0,4.0,-10.0));
#603=VECTOR('',#683,1.0);
#604=COLOUR_RGB('',0.752941191196442,0.752941191196442,0.752941191196442);
#605=CARTESIAN_POINT('',(-7.5,0.0,15.0));
#606=VECTOR('',#684,1.0);
#607=CARTESIAN_POINT('',(7.5,0.0,15.0));
#608=VECTOR('',#685,1.0);
#609=COLOUR_RGB('',0.752941191196442,0.752941191196442,0.752941191196442);
#610=CARTESIAN_POINT('',(-7.5,4.0,15.0));
#611=VECTOR('',#686,1.0);
#612=COLOUR_RGB('',0.752941191196442,0.752941191196442,0.752941191196442);
#613=CARTESIAN_POINT('',(7.5,4.0,15.0));
#614=VECTOR('',#687,1.0);
#615=COLOUR_RGB('',0.752941191196442,0.752941191196442,0.752941191196442);
#616=DIRECTION('',(-0.707106781186548,0.707106781186547,8.65927457071936E-17));
#617=CARTESIAN_POINT('',(0.0,0.0,0.0));
#618=DIRECTION('',(-0.0,1.0,0.0));
#619=DIRECTION('',(1.0,0.0,0.0));
#620=DIRECTION('',(-0.707106781186547,-0.707106781186548,8.65927457071936E-17));
#621=CARTESIAN_POINT('',(0.0,0.54125,0.0));
#622=DIRECTION('',(6.12303176911189E-17,-1.0,0.0));
#623=DIRECTION('',(1.0,6.12303176911189E-17,0.0));
#624=DIRECTION('',(-6.12303176911189E-17,1.0,0.0));
#625=DIRECTION('',(6.12303176911189E-17,-1.0,0.0));
#626=CARTESIAN_POINT('',(0.0,3.45875,0.0));
#627=DIRECTION('',(6.12303176911189E-17,-1.0,0.0));
#628=DIRECTION('',(1.0,6.12303176911189E-17,0.0));
#629=DIRECTION('',(0.707106781186547,0.707106781186548,-8.65927457071936E-17));
#630=DIRECTION('',(0.707106781186548,-0.707106781186547,-8.65927457071935E-17));
#631=CARTESIAN_POINT('',(0.0,4.0,0.0));
#632=DIRECTION('',(0.0,-1.0,0.0));
#633=DIRECTION('',(1.0,0.0,0.0));
#634=DIRECTION('',(-0.707106781186548,0.707106781186547,-0.0));
#635=CARTESIAN_POINT('',(0.0,0.0,30.0));
#636=DIRECTION('',(-0.0,1.0,0.0));
#637=DIRECTION('',(1.0,0.0,0.0));
#638=DIRECTION('',(-0.707106781186547,-0.707106781186548,0.0));
#639=CARTESIAN_POINT('',(0.0,0.54125,30.0));
#640=DIRECTION('',(6.12303176911189E-17,-1.0,0.0));
#641=DIRECTION('',(1.0,6.12303176911189E-17,0.0));
#642=DIRECTION('',(-6.12303176911189E-17,1.0,-0.0));
#643=DIRECTION('',(6.12303176911189E-17,-1.0,0.0));
#644=CARTESIAN_POINT('',(0.0,3.45875,30.0));
#645=DIRECTION('',(6.12303176911189E-17,-1.0,0.0));
#646=DIRECTION('',(1.0,6.12303176911189E-17,0.0));
#647=DIRECTION('',(0.707106781186547,0.707106781186548,0.0));
#648=DIRECTION('',(0.707106781186548,-0.707106781186547,-0.0));
#649=CARTESIAN_POINT('',(0.0,4.0,30.0));
#650=DIRECTION('',(0.0,-1.0,0.0));
#651=DIRECTION('',(1.0,0.0,0.0));
#652=CARTESIAN_POINT('',(0.0,4.0,30.0));
#653=DIRECTION('',(0.0,-1.0,0.0));
#654=DIRECTION('',(1.0,0.0,0.0));
#655=CARTESIAN_POINT('',(0.0,3.45875,30.0));
#656=DIRECTION('',(6.12303176911189E-17,-1.0,0.0));
#657=DIRECTION('',(1.0,6.12303176911189E-17,0.0));
#658=CARTESIAN_POINT('',(0.0,0.54125,30.0));
#659=DIRECTION('',(6.12303176911189E-17,-1.0,0.0));
#660=DIRECTION('',(1.0,6.12303176911189E-17,0.0));
#661=CARTESIAN_POINT('',(0.0,0.0,30.0));
#662=DIRECTION('',(-0.0,1.0,0.0));
#663=DIRECTION('',(1.0,0.0,0.0));
#664=CARTESIAN_POINT('',(0.0,4.0,0.0));
#665=DIRECTION('',(0.0,-1.0,0.0));
#666=DIRECTION('',(1.0,0.0,0.0));
#667=CARTESIAN_POINT('',(0.0,3.45875,0.0));
#668=DIRECTION('',(6.12303176911189E-17,-1.0,0.0));
#669=DIRECTION('',(1.0,6.12303176911189E-17,0.0));
#670=CARTESIAN_POINT('',(0.0,0.54125,0.0));
#671=DIRECTION('',(6.12303176911189E-17,-1.0,0.0));
#672=DIRECTION('',(1.0,6.12303176911189E-17,0.0));
#673=CARTESIAN_POINT('',(0.0,0.0,0.0));
#674=DIRECTION('',(-0.0,1.0,0.0));
#675=DIRECTION('',(1.0,0.0,0.0));
#676=DIRECTION('',(0.0,1.0,0.0));
#677=DIRECTION('',(-1.0,0.0,0.0));
#678=DIRECTION('',(0.0,-1.0,0.0));
#679=DIRECTION('',(1.0,0.0,0.0));
#680=DIRECTION('',(0.0,-1.0,0.0));
#681=DIRECTION('',(-1.0,0.0,0.0));
#682=DIRECTION('',(0.0,1.0,0.0));
#683=DIRECTION('',(1.0,0.0,0.0));
#684=DIRECTION('',(0.0,0.0,-1.0));
#685=DIRECTION('',(0.0,0.0,-1.0));
#686=DIRECTION('',(0.0,0.0,-1.0));
#687=DIRECTION('',(0.0,0.0,-1.0));
ENDSEC;
END-ISO-10303-21;
