ISO-10303-21;
HEADER;
FILE_DESCRIPTION(('STEP AP214'),'1');
FILE_NAME('HALDERN_EH_25160_0615.stp','2020-02-28T09:42:44',('TraceParts'),('TraceParts S.A.'),'Spatial InterOp 3D',' ',' ');
FILE_SCHEMA(('AUTOMOTIVE_DESIGN { 1 0 10303 214 1 1 1 1 }'));
ENDSEC;
DATA;
#1=MECHANICAL_DESIGN_GEOMETRIC_PRESENTATION_REPRESENTATION(' ',(#10,#11,#12,#13,#14,#15,#16,#17,#18,#19),#6);
#2=PRODUCT_DEFINITION_CONTEXT('',#20,'design');
#3=APPLICATION_PROTOCOL_DEFINITION('INTERNATIONAL STANDARD','automotive_design',1994,#20);
#4=PRODUCT_CATEGORY_RELATIONSHIP('NONE','NONE',#21,#22);
#5=SHAPE_DEFINITION_REPRESENTATION(#23,#24);
#6= (GEOMETRIC_REPRESENTATION_CONTEXT(3)GLOBAL_UNCERTAINTY_ASSIGNED_CONTEXT((#27))GLOBAL_UNIT_ASSIGNED_CONTEXT((#29,#30,#31))REPRESENTATION_CONTEXT('NONE','WORKSPACE'));
#10=STYLED_ITEM('',(#33),#34);
#11=STYLED_ITEM('',(#35),#36);
#12=STYLED_ITEM('',(#37),#38);
#13=STYLED_ITEM('',(#39),#40);
#14=STYLED_ITEM('',(#41),#42);
#15=STYLED_ITEM('',(#43),#44);
#16=STYLED_ITEM('',(#45),#46);
#17=STYLED_ITEM('',(#47),#48);
#18=STYLED_ITEM('',(#49),#50);
#19=STYLED_ITEM('',(#51),#52);
#20=APPLICATION_CONTEXT(' ');
#21=PRODUCT_CATEGORY('part','NONE');
#22=PRODUCT_RELATED_PRODUCT_CATEGORY('detail',' ',(#53));
#23=PRODUCT_DEFINITION_SHAPE('NONE','NONE',#54);
#24=ADVANCED_BREP_SHAPE_REPRESENTATION('HALDERN_EH_25160_0615',(#55,#56),#6);
#27=UNCERTAINTY_MEASURE_WITH_UNIT(LENGTH_MEASURE(1.0E-06),#29,'','');
#29= (CONVERSION_BASED_UNIT('MILLIMETRE',#59)LENGTH_UNIT()NAMED_UNIT(#62));
#30= (NAMED_UNIT(#64)PLANE_ANGLE_UNIT()SI_UNIT($,.RADIAN.));
#31= (NAMED_UNIT(#64)SOLID_ANGLE_UNIT()SI_UNIT($,.STERADIAN.));
#33=PRESENTATION_STYLE_ASSIGNMENT((#70));
#34=ADVANCED_FACE('',(#71),#72,.F.);
#35=PRESENTATION_STYLE_ASSIGNMENT((#73));
#36=ADVANCED_FACE('',(#74),#75,.F.);
#37=PRESENTATION_STYLE_ASSIGNMENT((#76));
#38=ADVANCED_FACE('',(#77),#78,.F.);
#39=PRESENTATION_STYLE_ASSIGNMENT((#79));
#40=ADVANCED_FACE('',(#80),#81,.F.);
#41=PRESENTATION_STYLE_ASSIGNMENT((#82));
#42=ADVANCED_FACE('',(#83),#84,.T.);
#43=PRESENTATION_STYLE_ASSIGNMENT((#85));
#44=ADVANCED_FACE('',(#86),#87,.F.);
#45=PRESENTATION_STYLE_ASSIGNMENT((#88));
#46=ADVANCED_FACE('',(#89,#90,#91),#92,.F.);
#47=PRESENTATION_STYLE_ASSIGNMENT((#93));
#48=ADVANCED_FACE('',(#94),#95,.F.);
#49=PRESENTATION_STYLE_ASSIGNMENT((#96));
#50=ADVANCED_FACE('',(#97,#98,#99),#100,.F.);
#51=PRESENTATION_STYLE_ASSIGNMENT((#101));
#52=ADVANCED_FACE('',(#102),#103,.F.);
#53=PRODUCT('HALDERN_EH_25160_0615','HALDERN_EH_25160_0615','PART-HALDERN_EH_25160_0615-DESC',(#104));
#54=PRODUCT_DEFINITION('','NONE',#105,#2);
#55=MANIFOLD_SOLID_BREP('HALDERN_EH_25160_0615',#106);
#56=AXIS2_PLACEMENT_3D('',#107,#108,#109);
#59=LENGTH_MEASURE_WITH_UNIT(LENGTH_MEASURE(1.0),#110);
#62=DIMENSIONAL_EXPONENTS(1.0,0.0,0.0,0.0,0.0,0.0,0.0);
#64=DIMENSIONAL_EXPONENTS(0.0,0.0,0.0,0.0,0.0,0.0,0.0);
#70=SURFACE_STYLE_USAGE(.BOTH.,#111);
#71=FACE_OUTER_BOUND('',#112,.T.);
#72=CYLINDRICAL_SURFACE('',#113,2.0);
#73=SURFACE_STYLE_USAGE(.BOTH.,#114);
#74=FACE_OUTER_BOUND('',#115,.T.);
#75=CYLINDRICAL_SURFACE('',#116,2.0);
#76=SURFACE_STYLE_USAGE(.BOTH.,#117);
#77=FACE_OUTER_BOUND('',#118,.T.);
#78=CYLINDRICAL_SURFACE('',#119,2.0);
#79=SURFACE_STYLE_USAGE(.BOTH.,#120);
#80=FACE_OUTER_BOUND('',#121,.T.);
#81=CYLINDRICAL_SURFACE('',#122,2.0);
#82=SURFACE_STYLE_USAGE(.BOTH.,#123);
#83=FACE_OUTER_BOUND('',#124,.T.);
#84=PLANE('',#125);
#85=SURFACE_STYLE_USAGE(.BOTH.,#126);
#86=FACE_OUTER_BOUND('',#127,.T.);
#87=PLANE('',#128);
#88=SURFACE_STYLE_USAGE(.BOTH.,#129);
#89=FACE_BOUND('',#130,.T.);
#90=FACE_BOUND('',#131,.T.);
#91=FACE_OUTER_BOUND('',#132,.T.);
#92=PLANE('',#133);
#93=SURFACE_STYLE_USAGE(.BOTH.,#134);
#94=FACE_OUTER_BOUND('',#135,.T.);
#95=PLANE('',#136);
#96=SURFACE_STYLE_USAGE(.BOTH.,#137);
#97=FACE_BOUND('',#138,.T.);
#98=FACE_BOUND('',#139,.T.);
#99=FACE_OUTER_BOUND('',#140,.T.);
#100=PLANE('',#141);
#101=SURFACE_STYLE_USAGE(.BOTH.,#142);
#102=FACE_OUTER_BOUND('',#143,.T.);
#103=PLANE('',#144);
#104=PRODUCT_CONTEXT('',#20,'mechanical');
#105=PRODUCT_DEFINITION_FORMATION_WITH_SPECIFIED_SOURCE(' ','NONE',#53,.NOT_KNOWN.);
#106=CLOSED_SHELL('',(#34,#36,#38,#40,#42,#44,#46,#48,#50,#52));
#107=CARTESIAN_POINT('',(0.0,0.0,0.0));
#108=DIRECTION('',(0.0,0.0,1.0));
#109=DIRECTION('',(1.0,0.0,0.0));
#110= (NAMED_UNIT(#62)LENGTH_UNIT()SI_UNIT(.MILLI.,.METRE.));
#111=SURFACE_SIDE_STYLE('',(#146));
#112=EDGE_LOOP('',(#147,#148,#149,#150));
#113=AXIS2_PLACEMENT_3D('',#151,#152,#153);
#114=SURFACE_SIDE_STYLE('',(#154));
#115=EDGE_LOOP('',(#155,#156,#157,#158));
#116=AXIS2_PLACEMENT_3D('',#159,#160,#161);
#117=SURFACE_SIDE_STYLE('',(#162));
#118=EDGE_LOOP('',(#163,#164,#165,#166));
#119=AXIS2_PLACEMENT_3D('',#167,#168,#169);
#120=SURFACE_SIDE_STYLE('',(#170));
#121=EDGE_LOOP('',(#171,#172,#173,#174));
#122=AXIS2_PLACEMENT_3D('',#175,#176,#177);
#123=SURFACE_SIDE_STYLE('',(#178));
#124=EDGE_LOOP('',(#179,#180,#181,#182));
#125=AXIS2_PLACEMENT_3D('',#183,#184,#185);
#126=SURFACE_SIDE_STYLE('',(#186));
#127=EDGE_LOOP('',(#187,#188,#189,#190));
#128=AXIS2_PLACEMENT_3D('',#191,#192,#193);
#129=SURFACE_SIDE_STYLE('',(#194));
#130=EDGE_LOOP('',(#195,#196));
#131=EDGE_LOOP('',(#197,#198));
#132=EDGE_LOOP('',(#199,#200,#201,#202));
#133=AXIS2_PLACEMENT_3D('',#203,#204,#205);
#134=SURFACE_SIDE_STYLE('',(#206));
#135=EDGE_LOOP('',(#207,#208,#209,#210));
#136=AXIS2_PLACEMENT_3D('',#211,#212,#213);
#137=SURFACE_SIDE_STYLE('',(#214));
#138=EDGE_LOOP('',(#215,#216));
#139=EDGE_LOOP('',(#217,#218));
#140=EDGE_LOOP('',(#219,#220,#221,#222));
#141=AXIS2_PLACEMENT_3D('',#223,#224,#225);
#142=SURFACE_SIDE_STYLE('',(#226));
#143=EDGE_LOOP('',(#227,#228,#229,#230));
#144=AXIS2_PLACEMENT_3D('',#231,#232,#233);
#146=SURFACE_STYLE_FILL_AREA(#234);
#147=ORIENTED_EDGE('',*,*,#235,.F.);
#148=ORIENTED_EDGE('',*,*,#236,.F.);
#149=ORIENTED_EDGE('',*,*,#237,.F.);
#150=ORIENTED_EDGE('',*,*,#238,.F.);
#151=CARTESIAN_POINT('',(0.0,1.5,0.0));
#152=DIRECTION('',(-0.0,1.0,0.0));
#153=DIRECTION('',(1.0,0.0,0.0));
#154=SURFACE_STYLE_FILL_AREA(#239);
#155=ORIENTED_EDGE('',*,*,#240,.F.);
#156=ORIENTED_EDGE('',*,*,#241,.F.);
#157=ORIENTED_EDGE('',*,*,#242,.F.);
#158=ORIENTED_EDGE('',*,*,#243,.F.);
#159=CARTESIAN_POINT('',(0.0,1.5,18.0));
#160=DIRECTION('',(-0.0,1.0,0.0));
#161=DIRECTION('',(1.0,0.0,0.0));
#162=SURFACE_STYLE_FILL_AREA(#244);
#163=ORIENTED_EDGE('',*,*,#240,.T.);
#164=ORIENTED_EDGE('',*,*,#245,.F.);
#165=ORIENTED_EDGE('',*,*,#242,.T.);
#166=ORIENTED_EDGE('',*,*,#246,.F.);
#167=CARTESIAN_POINT('',(0.0,1.5,18.0));
#168=DIRECTION('',(-0.0,1.0,0.0));
#169=DIRECTION('',(1.0,0.0,0.0));
#170=SURFACE_STYLE_FILL_AREA(#247);
#171=ORIENTED_EDGE('',*,*,#235,.T.);
#172=ORIENTED_EDGE('',*,*,#248,.F.);
#173=ORIENTED_EDGE('',*,*,#237,.T.);
#174=ORIENTED_EDGE('',*,*,#249,.F.);
#175=CARTESIAN_POINT('',(0.0,1.5,0.0));
#176=DIRECTION('',(-0.0,1.0,0.0));
#177=DIRECTION('',(1.0,0.0,0.0));
#178=SURFACE_STYLE_FILL_AREA(#250);
#179=ORIENTED_EDGE('',*,*,#251,.T.);
#180=ORIENTED_EDGE('',*,*,#252,.T.);
#181=ORIENTED_EDGE('',*,*,#253,.T.);
#182=ORIENTED_EDGE('',*,*,#254,.T.);
#183=CARTESIAN_POINT('',(-0.6,1.5,24.0));
#184=DIRECTION('',(0.0,0.0,1.0));
#185=DIRECTION('',(1.0,0.0,0.0));
#186=SURFACE_STYLE_FILL_AREA(#255);
#187=ORIENTED_EDGE('',*,*,#256,.T.);
#188=ORIENTED_EDGE('',*,*,#257,.T.);
#189=ORIENTED_EDGE('',*,*,#258,.T.);
#190=ORIENTED_EDGE('',*,*,#259,.T.);
#191=CARTESIAN_POINT('',(-0.6,1.5,-6.0));
#192=DIRECTION('',(0.0,0.0,1.0));
#193=DIRECTION('',(1.0,0.0,0.0));
#194=SURFACE_STYLE_FILL_AREA(#260);
#195=ORIENTED_EDGE('',*,*,#243,.T.);
#196=ORIENTED_EDGE('',*,*,#245,.T.);
#197=ORIENTED_EDGE('',*,*,#238,.T.);
#198=ORIENTED_EDGE('',*,*,#248,.T.);
#199=ORIENTED_EDGE('',*,*,#261,.T.);
#200=ORIENTED_EDGE('',*,*,#257,.F.);
#201=ORIENTED_EDGE('',*,*,#262,.F.);
#202=ORIENTED_EDGE('',*,*,#254,.F.);
#203=CARTESIAN_POINT('',(-0.6,0.0,9.0));
#204=DIRECTION('',(0.0,1.0,0.0));
#205=DIRECTION('',(0.0,0.0,1.0));
#206=SURFACE_STYLE_FILL_AREA(#263);
#207=ORIENTED_EDGE('',*,*,#264,.T.);
#208=ORIENTED_EDGE('',*,*,#258,.F.);
#209=ORIENTED_EDGE('',*,*,#261,.F.);
#210=ORIENTED_EDGE('',*,*,#253,.F.);
#211=CARTESIAN_POINT('',(-6.0,1.5,9.0));
#212=DIRECTION('',(1.0,0.0,0.0));
#213=DIRECTION('',(0.0,0.0,-1.0));
#214=SURFACE_STYLE_FILL_AREA(#265);
#215=ORIENTED_EDGE('',*,*,#246,.T.);
#216=ORIENTED_EDGE('',*,*,#241,.T.);
#217=ORIENTED_EDGE('',*,*,#249,.T.);
#218=ORIENTED_EDGE('',*,*,#236,.T.);
#219=ORIENTED_EDGE('',*,*,#266,.T.);
#220=ORIENTED_EDGE('',*,*,#259,.F.);
#221=ORIENTED_EDGE('',*,*,#264,.F.);
#222=ORIENTED_EDGE('',*,*,#252,.F.);
#223=CARTESIAN_POINT('',(-0.6,3.0,9.0));
#224=DIRECTION('',(0.0,-1.0,0.0));
#225=DIRECTION('',(0.0,0.0,-1.0));
#226=SURFACE_STYLE_FILL_AREA(#267);
#227=ORIENTED_EDGE('',*,*,#262,.T.);
#228=ORIENTED_EDGE('',*,*,#256,.F.);
#229=ORIENTED_EDGE('',*,*,#266,.F.);
#230=ORIENTED_EDGE('',*,*,#251,.F.);
#231=CARTESIAN_POINT('',(4.8,1.5,9.0));
#232=DIRECTION('',(-1.0,0.0,0.0));
#233=DIRECTION('',(0.0,0.0,1.0));
#234=FILL_AREA_STYLE('',(#268));
#235=EDGE_CURVE('',#269,#270,#271,.T.);
#236=EDGE_CURVE('',#272,#269,#273,.T.);
#237=EDGE_CURVE('',#274,#272,#275,.T.);
#238=EDGE_CURVE('',#270,#274,#276,.T.);
#239=FILL_AREA_STYLE('',(#277));
#240=EDGE_CURVE('',#278,#279,#280,.T.);
#241=EDGE_CURVE('',#281,#278,#282,.T.);
#242=EDGE_CURVE('',#283,#281,#284,.T.);
#243=EDGE_CURVE('',#279,#283,#285,.T.);
#244=FILL_AREA_STYLE('',(#286));
#245=EDGE_CURVE('',#283,#279,#287,.T.);
#246=EDGE_CURVE('',#278,#281,#288,.T.);
#247=FILL_AREA_STYLE('',(#289));
#248=EDGE_CURVE('',#274,#270,#290,.T.);
#249=EDGE_CURVE('',#269,#272,#291,.T.);
#250=FILL_AREA_STYLE('',(#292));
#251=EDGE_CURVE('',#293,#294,#295,.T.);
#252=EDGE_CURVE('',#294,#296,#297,.T.);
#253=EDGE_CURVE('',#296,#298,#299,.T.);
#254=EDGE_CURVE('',#298,#293,#300,.T.);
#255=FILL_AREA_STYLE('',(#301));
#256=EDGE_CURVE('',#302,#303,#304,.T.);
#257=EDGE_CURVE('',#303,#305,#306,.T.);
#258=EDGE_CURVE('',#305,#307,#308,.T.);
#259=EDGE_CURVE('',#307,#302,#309,.T.);
#260=FILL_AREA_STYLE('',(#310));
#261=EDGE_CURVE('',#298,#305,#311,.T.);
#262=EDGE_CURVE('',#293,#303,#312,.T.);
#263=FILL_AREA_STYLE('',(#313));
#264=EDGE_CURVE('',#296,#307,#314,.T.);
#265=FILL_AREA_STYLE('',(#315));
#266=EDGE_CURVE('',#294,#302,#316,.T.);
#267=FILL_AREA_STYLE('',(#317));
#268=FILL_AREA_STYLE_COLOUR('',#318);
#269=VERTEX_POINT('',#319);
#270=VERTEX_POINT('',#320);
#271=LINE('',#321,#322);
#272=VERTEX_POINT('',#323);
#273=CIRCLE('',#324,2.0);
#274=VERTEX_POINT('',#325);
#275=LINE('',#326,#327);
#276=CIRCLE('',#328,2.0);
#277=FILL_AREA_STYLE_COLOUR('',#329);
#278=VERTEX_POINT('',#330);
#279=VERTEX_POINT('',#331);
#280=LINE('',#332,#333);
#281=VERTEX_POINT('',#334);
#282=CIRCLE('',#335,2.0);
#283=VERTEX_POINT('',#336);
#284=LINE('',#337,#338);
#285=CIRCLE('',#339,2.0);
#286=FILL_AREA_STYLE_COLOUR('',#340);
#287=CIRCLE('',#341,2.0);
#288=CIRCLE('',#342,2.0);
#289=FILL_AREA_STYLE_COLOUR('',#343);
#290=CIRCLE('',#344,2.0);
#291=CIRCLE('',#345,2.0);
#292=FILL_AREA_STYLE_COLOUR('',#346);
#293=VERTEX_POINT('',#347);
#294=VERTEX_POINT('',#348);
#295=LINE('',#349,#350);
#296=VERTEX_POINT('',#351);
#297=LINE('',#352,#353);
#298=VERTEX_POINT('',#354);
#299=LINE('',#355,#356);
#300=LINE('',#357,#358);
#301=FILL_AREA_STYLE_COLOUR('',#359);
#302=VERTEX_POINT('',#360);
#303=VERTEX_POINT('',#361);
#304=LINE('',#362,#363);
#305=VERTEX_POINT('',#364);
#306=LINE('',#365,#366);
#307=VERTEX_POINT('',#367);
#308=LINE('',#368,#369);
#309=LINE('',#370,#371);
#310=FILL_AREA_STYLE_COLOUR('',#372);
#311=LINE('',#373,#374);
#312=LINE('',#375,#376);
#313=FILL_AREA_STYLE_COLOUR('',#377);
#314=LINE('',#378,#379);
#315=FILL_AREA_STYLE_COLOUR('',#380);
#316=LINE('',#381,#382);
#317=FILL_AREA_STYLE_COLOUR('',#383);
#318=COLOUR_RGB('',0.752941191196442,0.752941191196442,0.752941191196442);
#319=CARTESIAN_POINT('',(2.0,3.0,0.0));
#320=CARTESIAN_POINT('',(2.0,0.0,0.0));
#321=CARTESIAN_POINT('',(2.0,1.5,2.44921270764475E-16));
#322=VECTOR('',#384,1.0);
#323=CARTESIAN_POINT('',(-2.0,3.0,-2.44921270764475E-16));
#324=AXIS2_PLACEMENT_3D('',#385,#386,#387);
#325=CARTESIAN_POINT('',(-2.0,0.0,-2.44921270764475E-16));
#326=CARTESIAN_POINT('',(-2.0,1.5,-2.44921270764475E-16));
#327=VECTOR('',#388,1.0);
#328=AXIS2_PLACEMENT_3D('',#389,#390,#391);
#329=COLOUR_RGB('',0.752941191196442,0.752941191196442,0.752941191196442);
#330=CARTESIAN_POINT('',(2.0,3.0,18.0));
#331=CARTESIAN_POINT('',(2.0,0.0,18.0));
#332=CARTESIAN_POINT('',(2.0,1.5,18.0));
#333=VECTOR('',#392,1.0);
#334=CARTESIAN_POINT('',(-2.0,3.0,18.0));
#335=AXIS2_PLACEMENT_3D('',#393,#394,#395);
#336=CARTESIAN_POINT('',(-2.0,0.0,18.0));
#337=CARTESIAN_POINT('',(-2.0,1.5,18.0));
#338=VECTOR('',#396,1.0);
#339=AXIS2_PLACEMENT_3D('',#397,#398,#399);
#340=COLOUR_RGB('',0.752941191196442,0.752941191196442,0.752941191196442);
#341=AXIS2_PLACEMENT_3D('',#400,#401,#402);
#342=AXIS2_PLACEMENT_3D('',#403,#404,#405);
#343=COLOUR_RGB('',0.752941191196442,0.752941191196442,0.752941191196442);
#344=AXIS2_PLACEMENT_3D('',#406,#407,#408);
#345=AXIS2_PLACEMENT_3D('',#409,#410,#411);
#346=COLOUR_RGB('',0.752941191196442,0.752941191196442,0.752941191196442);
#347=CARTESIAN_POINT('',(4.8,0.0,24.0));
#348=CARTESIAN_POINT('',(4.8,3.0,24.0));
#349=CARTESIAN_POINT('',(4.8,1.5,24.0));
#350=VECTOR('',#412,1.0);
#351=CARTESIAN_POINT('',(-6.0,3.0,24.0));
#352=CARTESIAN_POINT('',(-0.6,3.0,24.0));
#353=VECTOR('',#413,1.0);
#354=CARTESIAN_POINT('',(-6.0,0.0,24.0));
#355=CARTESIAN_POINT('',(-6.0,1.5,24.0));
#356=VECTOR('',#414,1.0);
#357=CARTESIAN_POINT('',(-0.6,0.0,24.0));
#358=VECTOR('',#415,1.0);
#359=COLOUR_RGB('',0.752941191196442,0.752941191196442,0.752941191196442);
#360=CARTESIAN_POINT('',(4.8,3.0,-6.0));
#361=CARTESIAN_POINT('',(4.8,0.0,-6.0));
#362=CARTESIAN_POINT('',(4.8,1.5,-6.0));
#363=VECTOR('',#416,1.0);
#364=CARTESIAN_POINT('',(-6.0,0.0,-6.0));
#365=CARTESIAN_POINT('',(-0.6,0.0,-6.0));
#366=VECTOR('',#417,1.0);
#367=CARTESIAN_POINT('',(-6.0,3.0,-6.0));
#368=CARTESIAN_POINT('',(-6.0,1.5,-6.0));
#369=VECTOR('',#418,1.0);
#370=CARTESIAN_POINT('',(-0.6,3.0,-6.0));
#371=VECTOR('',#419,1.0);
#372=COLOUR_RGB('',0.752941191196442,0.752941191196442,0.752941191196442);
#373=CARTESIAN_POINT('',(-6.0,0.0,9.0));
#374=VECTOR('',#420,1.0);
#375=CARTESIAN_POINT('',(4.8,0.0,9.0));
#376=VECTOR('',#421,1.0);
#377=COLOUR_RGB('',0.752941191196442,0.752941191196442,0.752941191196442);
#378=CARTESIAN_POINT('',(-6.0,3.0,9.0));
#379=VECTOR('',#422,1.0);
#380=COLOUR_RGB('',0.752941191196442,0.752941191196442,0.752941191196442);
#381=CARTESIAN_POINT('',(4.8,3.0,9.0));
#382=VECTOR('',#423,1.0);
#383=COLOUR_RGB('',0.752941191196442,0.752941191196442,0.752941191196442);
#384=DIRECTION('',(-0.0,-1.0,-0.0));
#385=CARTESIAN_POINT('',(0.0,3.0,0.0));
#386=DIRECTION('',(0.0,-1.0,0.0));
#387=DIRECTION('',(1.0,0.0,0.0));
#388=DIRECTION('',(-0.0,1.0,-0.0));
#389=CARTESIAN_POINT('',(0.0,0.0,0.0));
#390=DIRECTION('',(-0.0,1.0,0.0));
#391=DIRECTION('',(1.0,0.0,0.0));
#392=DIRECTION('',(-0.0,-1.0,-0.0));
#393=CARTESIAN_POINT('',(0.0,3.0,18.0));
#394=DIRECTION('',(0.0,-1.0,0.0));
#395=DIRECTION('',(1.0,0.0,0.0));
#396=DIRECTION('',(-0.0,1.0,0.0));
#397=CARTESIAN_POINT('',(0.0,0.0,18.0));
#398=DIRECTION('',(-0.0,1.0,0.0));
#399=DIRECTION('',(1.0,0.0,0.0));
#400=CARTESIAN_POINT('',(0.0,0.0,18.0));
#401=DIRECTION('',(-0.0,1.0,0.0));
#402=DIRECTION('',(1.0,0.0,0.0));
#403=CARTESIAN_POINT('',(0.0,3.0,18.0));
#404=DIRECTION('',(0.0,-1.0,0.0));
#405=DIRECTION('',(1.0,0.0,0.0));
#406=CARTESIAN_POINT('',(0.0,0.0,0.0));
#407=DIRECTION('',(-0.0,1.0,0.0));
#408=DIRECTION('',(1.0,0.0,0.0));
#409=CARTESIAN_POINT('',(0.0,3.0,0.0));
#410=DIRECTION('',(0.0,-1.0,0.0));
#411=DIRECTION('',(1.0,0.0,0.0));
#412=DIRECTION('',(0.0,1.0,0.0));
#413=DIRECTION('',(-1.0,0.0,0.0));
#414=DIRECTION('',(0.0,-1.0,0.0));
#415=DIRECTION('',(1.0,0.0,0.0));
#416=DIRECTION('',(0.0,-1.0,0.0));
#417=DIRECTION('',(-1.0,0.0,0.0));
#418=DIRECTION('',(0.0,1.0,0.0));
#419=DIRECTION('',(1.0,0.0,0.0));
#420=DIRECTION('',(0.0,0.0,-1.0));
#421=DIRECTION('',(0.0,0.0,-1.0));
#422=DIRECTION('',(0.0,0.0,-1.0));
#423=DIRECTION('',(0.0,0.0,-1.0));
ENDSEC;
END-ISO-10303-21;
