ISO-10303-21;
HEADER;
FILE_DESCRIPTION(('STEP AP214'),'1');
FILE_NAME(' ','  ',('TraceParts'),('TraceParts S.A.'),'XStep 1.0',' ',' ');
FILE_SCHEMA(('automotive_design'));
ENDSEC;
DATA;
#1=PRODUCT_DEFINITION_CONTEXT('',#13,'design');
#2=APPLICATION_PROTOCOL_DEFINITION('INTERNATIONAL STANDARD','automotive_design',1994,#13);
#3=PRODUCT_CATEGORY_RELATIONSHIP('NONE','NONE',#14,#15);
#4=SHAPE_DEFINITION_REPRESENTATION(#16,#17);
#5=PRODUCT_DEFINITION_CONTEXT('',#18,'design');
#6=APPLICATION_PROTOCOL_DEFINITION('INTERNATIONAL STANDARD','automotive_design',1994,#18);
#7=PRODUCT_CATEGORY_RELATIONSHIP('NONE','NONE',#19,#20);
#8=SHAPE_DEFINITION_REPRESENTATION(#21,#22);
#9= (GEOMETRIC_REPRESENTATION_CONTEXT(3)GLOBAL_UNCERTAINTY_ASSIGNED_CONTEXT((#25))GLOBAL_UNIT_ASSIGNED_CONTEXT((#27,#28,#29))REPRESENTATION_CONTEXT('NONE','WORKSPACE'));
#13=APPLICATION_CONTEXT(' ');
#14=PRODUCT_CATEGORY('part','NONE');
#15=PRODUCT_RELATED_PRODUCT_CATEGORY('detail',' ',(#31));
#16=PRODUCT_DEFINITION_SHAPE('NONE','NONE',#32);
#17=ADVANCED_BREP_SHAPE_REPRESENTATION('1',(#33,#34),#9);
#18=APPLICATION_CONTEXT(' ');
#19=PRODUCT_CATEGORY('part','NONE');
#20=PRODUCT_RELATED_PRODUCT_CATEGORY('detail',' ',(#35));
#21=PRODUCT_DEFINITION_SHAPE('NONE','NONE',#36);
#22=ADVANCED_BREP_SHAPE_REPRESENTATION('2',(#37,#38),#9);
#25=UNCERTAINTY_MEASURE_WITH_UNIT(LENGTH_MEASURE(1.0E-006),#27,'','');
#27= (CONVERSION_BASED_UNIT('MILLIMETRE',#41)LENGTH_UNIT()NAMED_UNIT(#44));
#28= (NAMED_UNIT(#46)PLANE_ANGLE_UNIT()SI_UNIT($,.RADIAN.));
#29= (NAMED_UNIT(#46)SOLID_ANGLE_UNIT()SI_UNIT($,.STERADIAN.));
#31=PRODUCT('1','1','PART-1-DESC',(#52));
#32=PRODUCT_DEFINITION('NONE','NONE',#53,#1);
#33=MANIFOLD_SOLID_BREP('1',#54);
#34=AXIS2_PLACEMENT_3D('',#55,#56,#57);
#35=PRODUCT('2','2','PART-2-DESC',(#58));
#36=PRODUCT_DEFINITION('NONE','NONE',#59,#5);
#37=MANIFOLD_SOLID_BREP('2',#60);
#38=AXIS2_PLACEMENT_3D('',#61,#62,#63);
#41=LENGTH_MEASURE_WITH_UNIT(LENGTH_MEASURE(1.0),#64);
#44=DIMENSIONAL_EXPONENTS(1.0,0.0,0.0,0.0,0.0,0.0,0.0);
#46=DIMENSIONAL_EXPONENTS(0.0,0.0,0.0,0.0,0.0,0.0,0.0);
#52=PRODUCT_CONTEXT('',#13,'mechanical');
#53=PRODUCT_DEFINITION_FORMATION_WITH_SPECIFIED_SOURCE(' ','NONE',#31,.NOT_KNOWN.);
#54=CLOSED_SHELL('',(#65,#66,#67,#68,#69,#70));
#55=CARTESIAN_POINT('',(0.0,0.0,0.0));
#56=DIRECTION('',(0.0,0.0,1.0));
#57=DIRECTION('',(1.0,0.0,0.0));
#58=PRODUCT_CONTEXT('',#18,'mechanical');
#59=PRODUCT_DEFINITION_FORMATION_WITH_SPECIFIED_SOURCE(' ','NONE',#35,.NOT_KNOWN.);
#60=CLOSED_SHELL('',(#71,#72,#73,#74,#75,#76,#77,#78,#79));
#61=CARTESIAN_POINT('',(0.0,0.0,0.0));
#62=DIRECTION('',(0.0,0.0,1.0));
#63=DIRECTION('',(1.0,0.0,0.0));
#64= (NAMED_UNIT(#44)LENGTH_UNIT()SI_UNIT(.MILLI.,.METRE.));
#65=ADVANCED_FACE('',(#81),#82,.T.);
#66=ADVANCED_FACE('',(#83),#84,.F.);
#67=ADVANCED_FACE('',(#85),#86,.F.);
#68=ADVANCED_FACE('',(#87),#88,.F.);
#69=ADVANCED_FACE('',(#89),#90,.T.);
#70=ADVANCED_FACE('',(#91,#92),#93,.T.);
#71=ADVANCED_FACE('',(#94),#95,.T.);
#72=ADVANCED_FACE('',(#96),#97,.T.);
#73=ADVANCED_FACE('',(#98),#99,.T.);
#74=ADVANCED_FACE('',(#100),#101,.T.);
#75=ADVANCED_FACE('',(#102),#103,.T.);
#76=ADVANCED_FACE('',(#104),#105,.T.);
#77=ADVANCED_FACE('',(#106,#107),#108,.T.);
#78=ADVANCED_FACE('',(#109),#110,.T.);
#79=ADVANCED_FACE('',(#111),#112,.T.);
#81=FACE_OUTER_BOUND('',#113,.T.);
#82=SURFACE_OF_REVOLUTION('',#114,#115);
#83=FACE_OUTER_BOUND('',#116,.T.);
#84=CYLINDRICAL_SURFACE('',#117,8.0);
#85=FACE_OUTER_BOUND('',#118,.T.);
#86=CYLINDRICAL_SURFACE('',#119,8.0);
#87=FACE_OUTER_BOUND('',#120,.T.);
#88=PLANE('',#121);
#89=FACE_OUTER_BOUND('',#122,.T.);
#90=SURFACE_OF_REVOLUTION('',#123,#124);
#91=FACE_BOUND('',#125,.T.);
#92=FACE_OUTER_BOUND('',#126,.T.);
#93=PLANE('',#127);
#94=FACE_OUTER_BOUND('',#128,.T.);
#95=CYLINDRICAL_SURFACE('',#129,8.0);
#96=FACE_OUTER_BOUND('',#130,.T.);
#97=CYLINDRICAL_SURFACE('',#131,3.0);
#98=FACE_OUTER_BOUND('',#132,.T.);
#99=CONICAL_SURFACE('',#133,2.729375,0.78539816339745);
#100=FACE_OUTER_BOUND('',#134,.T.);
#101=PLANE('',#135);
#102=FACE_OUTER_BOUND('',#136,.T.);
#103=CONICAL_SURFACE('',#137,2.729375,0.78539816339745);
#104=FACE_OUTER_BOUND('',#138,.T.);
#105=CYLINDRICAL_SURFACE('',#139,3.0);
#106=FACE_OUTER_BOUND('',#140,.T.);
#107=FACE_BOUND('',#141,.T.);
#108=PLANE('',#142);
#109=FACE_OUTER_BOUND('',#143,.T.);
#110=CYLINDRICAL_SURFACE('',#144,8.0);
#111=FACE_OUTER_BOUND('',#145,.T.);
#112=PLANE('',#146);
#113=EDGE_LOOP('',(#147,#148,#149));
#114=(B_SPLINE_CURVE(3,(#151,#152,#153,#154,#155),.UNSPECIFIED.,.F.,.F.)B_SPLINE_CURVE_WITH_KNOTS((4,1,4),(0.34089968567207,0.713724378944766,1.08654907221746),.UNSPECIFIED.)RATIONAL_B_SPLINE_CURVE((1.13899825191388,1.04633275063796,0.95366724936204,1.04633275063796,1.13899825191388))BOUNDED_CURVE()REPRESENTATION_ITEM('')GEOMETRIC_REPRESENTATION_ITEM()CURVE());
#115=AXIS1_PLACEMENT('',#162,#163);
#116=EDGE_LOOP('',(#164,#165,#166,#167));
#117=AXIS2_PLACEMENT_3D('',#168,#169,#170);
#118=EDGE_LOOP('',(#171,#172,#173,#174));
#119=AXIS2_PLACEMENT_3D('',#175,#176,#177);
#120=EDGE_LOOP('',(#178,#179));
#121=AXIS2_PLACEMENT_3D('',#180,#181,#182);
#122=EDGE_LOOP('',(#183,#184,#185));
#123=(B_SPLINE_CURVE(3,(#187,#188,#189,#190,#191),.UNSPECIFIED.,.F.,.F.)B_SPLINE_CURVE_WITH_KNOTS((4,1,4),(0.34089968567207,0.713724378944766,1.08654907221746),.UNSPECIFIED.)RATIONAL_B_SPLINE_CURVE((1.13899825191388,1.04633275063796,0.95366724936204,1.04633275063796,1.13899825191388))BOUNDED_CURVE()REPRESENTATION_ITEM('')GEOMETRIC_REPRESENTATION_ITEM()CURVE());
#124=AXIS1_PLACEMENT('',#198,#199);
#125=EDGE_LOOP('',(#200,#201));
#126=EDGE_LOOP('',(#202,#203));
#127=AXIS2_PLACEMENT_3D('',#204,#205,#206);
#128=EDGE_LOOP('',(#207,#208,#209,#210));
#129=AXIS2_PLACEMENT_3D('',#211,#212,#213);
#130=EDGE_LOOP('',(#214,#215,#216,#217));
#131=AXIS2_PLACEMENT_3D('',#218,#219,#220);
#132=EDGE_LOOP('',(#221,#222,#223,#224));
#133=AXIS2_PLACEMENT_3D('',#225,#226,#227);
#134=EDGE_LOOP('',(#228,#229));
#135=AXIS2_PLACEMENT_3D('',#230,#231,#232);
#136=EDGE_LOOP('',(#233,#234,#235,#236));
#137=AXIS2_PLACEMENT_3D('',#237,#238,#239);
#138=EDGE_LOOP('',(#240,#241,#242,#243));
#139=AXIS2_PLACEMENT_3D('',#244,#245,#246);
#140=EDGE_LOOP('',(#247,#248));
#141=EDGE_LOOP('',(#249,#250));
#142=AXIS2_PLACEMENT_3D('',#251,#252,#253);
#143=EDGE_LOOP('',(#254,#255,#256,#257));
#144=AXIS2_PLACEMENT_3D('',#258,#259,#260);
#145=EDGE_LOOP('',(#261,#262));
#146=AXIS2_PLACEMENT_3D('',#263,#264,#265);
#147=ORIENTED_EDGE('',*,*,#266,.F.);
#148=ORIENTED_EDGE('',*,*,#267,.T.);
#149=ORIENTED_EDGE('',*,*,#268,.T.);
#151=CARTESIAN_POINT('',(0.0,-24.0,0.0));
#152=CARTESIAN_POINT('',(2.40005399530253,-24.0,0.0));
#153=CARTESIAN_POINT('',(7.25708114822569,-19.2226596743222,0.0));
#154=CARTESIAN_POINT('',(9.65713514352823,-6.58300524425836,0.0));
#155=CARTESIAN_POINT('',(10.0,-3.5527136788005E-015,0.0));
#162=CARTESIAN_POINT('',(0.0,-24.0,0.0));
#163=DIRECTION('',(0.0,1.0,0.0));
#164=ORIENTED_EDGE('',*,*,#269,.F.);
#165=ORIENTED_EDGE('',*,*,#270,.F.);
#166=ORIENTED_EDGE('',*,*,#271,.F.);
#167=ORIENTED_EDGE('',*,*,#272,.F.);
#168=CARTESIAN_POINT('',(0.0,0.0,0.0));
#169=DIRECTION('',(-0.0,1.0,-0.0));
#170=DIRECTION('',(-1.0,0.0,0.0));
#171=ORIENTED_EDGE('',*,*,#269,.T.);
#172=ORIENTED_EDGE('',*,*,#273,.F.);
#173=ORIENTED_EDGE('',*,*,#271,.T.);
#174=ORIENTED_EDGE('',*,*,#274,.F.);
#175=CARTESIAN_POINT('',(0.0,0.0,0.0));
#176=DIRECTION('',(-0.0,1.0,-0.0));
#177=DIRECTION('',(-1.0,0.0,0.0));
#178=ORIENTED_EDGE('',*,*,#270,.T.);
#179=ORIENTED_EDGE('',*,*,#274,.T.);
#180=CARTESIAN_POINT('',(0.0,-2.0,0.0));
#181=DIRECTION('',(0.0,-1.0,0.0));
#182=DIRECTION('',(0.0,0.0,-1.0));
#183=ORIENTED_EDGE('',*,*,#266,.T.);
#184=ORIENTED_EDGE('',*,*,#268,.F.);
#185=ORIENTED_EDGE('',*,*,#275,.T.);
#187=CARTESIAN_POINT('',(0.0,-24.0,0.0));
#188=CARTESIAN_POINT('',(2.40005399530253,-24.0,0.0));
#189=CARTESIAN_POINT('',(7.25708114822569,-19.2226596743222,0.0));
#190=CARTESIAN_POINT('',(9.65713514352823,-6.58300524425836,0.0));
#191=CARTESIAN_POINT('',(10.0,-3.5527136788005E-015,0.0));
#198=CARTESIAN_POINT('',(0.0,-24.0,0.0));
#199=DIRECTION('',(0.0,1.0,0.0));
#200=ORIENTED_EDGE('',*,*,#273,.T.);
#201=ORIENTED_EDGE('',*,*,#272,.T.);
#202=ORIENTED_EDGE('',*,*,#275,.F.);
#203=ORIENTED_EDGE('',*,*,#267,.F.);
#204=CARTESIAN_POINT('',(5.0,0.0,0.0));
#205=DIRECTION('',(0.0,1.0,0.0));
#206=DIRECTION('',(0.0,0.0,1.0));
#207=ORIENTED_EDGE('',*,*,#276,.F.);
#208=ORIENTED_EDGE('',*,*,#277,.T.);
#209=ORIENTED_EDGE('',*,*,#278,.F.);
#210=ORIENTED_EDGE('',*,*,#279,.F.);
#211=CARTESIAN_POINT('',(0.0,-1.0,0.0));
#212=DIRECTION('',(-0.0,1.0,-0.0));
#213=DIRECTION('',(1.0,0.0,0.0));
#214=ORIENTED_EDGE('',*,*,#280,.F.);
#215=ORIENTED_EDGE('',*,*,#281,.T.);
#216=ORIENTED_EDGE('',*,*,#282,.F.);
#217=ORIENTED_EDGE('',*,*,#283,.F.);
#218=CARTESIAN_POINT('',(0.0,8.729375,0.0));
#219=DIRECTION('',(-0.0,1.0,-0.0));
#220=DIRECTION('',(1.0,0.0,0.0));
#221=ORIENTED_EDGE('',*,*,#284,.F.);
#222=ORIENTED_EDGE('',*,*,#285,.T.);
#223=ORIENTED_EDGE('',*,*,#286,.F.);
#224=ORIENTED_EDGE('',*,*,#281,.F.);
#225=CARTESIAN_POINT('',(0.0,17.729375,0.0));
#226=DIRECTION('',(-0.0,-1.0,-0.0));
#227=DIRECTION('',(1.0,0.0,0.0));
#228=ORIENTED_EDGE('',*,*,#285,.F.);
#229=ORIENTED_EDGE('',*,*,#287,.F.);
#230=CARTESIAN_POINT('',(1.229375,18.0,0.0));
#231=DIRECTION('',(0.0,1.0,0.0));
#232=DIRECTION('',(0.0,0.0,1.0));
#233=ORIENTED_EDGE('',*,*,#284,.T.);
#234=ORIENTED_EDGE('',*,*,#288,.F.);
#235=ORIENTED_EDGE('',*,*,#286,.T.);
#236=ORIENTED_EDGE('',*,*,#287,.T.);
#237=CARTESIAN_POINT('',(0.0,17.729375,0.0));
#238=DIRECTION('',(-0.0,-1.0,-0.0));
#239=DIRECTION('',(1.0,0.0,0.0));
#240=ORIENTED_EDGE('',*,*,#280,.T.);
#241=ORIENTED_EDGE('',*,*,#289,.F.);
#242=ORIENTED_EDGE('',*,*,#282,.T.);
#243=ORIENTED_EDGE('',*,*,#288,.T.);
#244=CARTESIAN_POINT('',(0.0,8.729375,0.0));
#245=DIRECTION('',(-0.0,1.0,-0.0));
#246=DIRECTION('',(1.0,0.0,0.0));
#247=ORIENTED_EDGE('',*,*,#277,.F.);
#248=ORIENTED_EDGE('',*,*,#290,.F.);
#249=ORIENTED_EDGE('',*,*,#283,.T.);
#250=ORIENTED_EDGE('',*,*,#289,.T.);
#251=CARTESIAN_POINT('',(5.5,0.0,0.0));
#252=DIRECTION('',(0.0,1.0,0.0));
#253=DIRECTION('',(0.0,0.0,1.0));
#254=ORIENTED_EDGE('',*,*,#276,.T.);
#255=ORIENTED_EDGE('',*,*,#291,.F.);
#256=ORIENTED_EDGE('',*,*,#278,.T.);
#257=ORIENTED_EDGE('',*,*,#290,.T.);
#258=CARTESIAN_POINT('',(0.0,-1.0,0.0));
#259=DIRECTION('',(-0.0,1.0,-0.0));
#260=DIRECTION('',(1.0,0.0,0.0));
#261=ORIENTED_EDGE('',*,*,#279,.T.);
#262=ORIENTED_EDGE('',*,*,#291,.T.);
#263=CARTESIAN_POINT('',(4.0,-2.0,0.0));
#264=DIRECTION('',(0.0,-1.0,-0.0));
#265=DIRECTION('',(0.0,0.0,-1.0));
#266=EDGE_CURVE('',#292,#293,#294,.T.);
#267=EDGE_CURVE('',#292,#295,#296,.T.);
#268=EDGE_CURVE('',#295,#293,#297,.T.);
#269=EDGE_CURVE('',#298,#299,#300,.T.);
#270=EDGE_CURVE('',#301,#298,#302,.T.);
#271=EDGE_CURVE('',#303,#301,#304,.T.);
#272=EDGE_CURVE('',#299,#303,#305,.T.);
#273=EDGE_CURVE('',#303,#299,#306,.T.);
#274=EDGE_CURVE('',#298,#301,#307,.T.);
#275=EDGE_CURVE('',#295,#292,#308,.T.);
#276=EDGE_CURVE('',#309,#310,#311,.T.);
#277=EDGE_CURVE('',#309,#312,#313,.T.);
#278=EDGE_CURVE('',#314,#312,#315,.T.);
#279=EDGE_CURVE('',#310,#314,#316,.T.);
#280=EDGE_CURVE('',#317,#318,#319,.T.);
#281=EDGE_CURVE('',#317,#320,#321,.T.);
#282=EDGE_CURVE('',#322,#320,#323,.T.);
#283=EDGE_CURVE('',#318,#322,#324,.T.);
#284=EDGE_CURVE('',#325,#317,#326,.T.);
#285=EDGE_CURVE('',#325,#327,#328,.T.);
#286=EDGE_CURVE('',#320,#327,#329,.T.);
#287=EDGE_CURVE('',#327,#325,#330,.T.);
#288=EDGE_CURVE('',#320,#317,#331,.T.);
#289=EDGE_CURVE('',#322,#318,#332,.T.);
#290=EDGE_CURVE('',#312,#309,#333,.T.);
#291=EDGE_CURVE('',#314,#310,#334,.T.);
#292=VERTEX_POINT('',#335);
#293=VERTEX_POINT('',#336);
#294=ELLIPSE('',#337,28.0,10.1036297108185);
#295=VERTEX_POINT('',#338);
#296=CIRCLE('',#339,10.0);
#297=ELLIPSE('',#340,28.0,10.1036297108185);
#298=VERTEX_POINT('',#341);
#299=VERTEX_POINT('',#342);
#300=LINE('',#343,#344);
#301=VERTEX_POINT('',#345);
#302=CIRCLE('',#346,8.0);
#303=VERTEX_POINT('',#347);
#304=LINE('',#348,#349);
#305=CIRCLE('',#350,8.0);
#306=CIRCLE('',#351,8.0);
#307=CIRCLE('',#352,8.0);
#308=CIRCLE('',#353,10.0);
#309=VERTEX_POINT('',#354);
#310=VERTEX_POINT('',#355);
#311=LINE('',#356,#357);
#312=VERTEX_POINT('',#358);
#313=CIRCLE('',#359,8.0);
#314=VERTEX_POINT('',#360);
#315=LINE('',#361,#362);
#316=CIRCLE('',#363,8.0);
#317=VERTEX_POINT('',#364);
#318=VERTEX_POINT('',#365);
#319=LINE('',#366,#367);
#320=VERTEX_POINT('',#368);
#321=CIRCLE('',#369,3.0);
#322=VERTEX_POINT('',#370);
#323=LINE('',#371,#372);
#324=CIRCLE('',#373,3.0);
#325=VERTEX_POINT('',#374);
#326=LINE('',#375,#376);
#327=VERTEX_POINT('',#377);
#328=CIRCLE('',#378,2.45875);
#329=LINE('',#379,#380);
#330=CIRCLE('',#381,2.45875);
#331=CIRCLE('',#382,3.0);
#332=CIRCLE('',#383,3.0);
#333=CIRCLE('',#384,8.0);
#334=CIRCLE('',#385,8.0);
#335=CARTESIAN_POINT('',(-10.0,-2.66453525910038E-015,1.22460635382238E-015));
#336=CARTESIAN_POINT('',(0.0,-24.0,0.0));
#337=AXIS2_PLACEMENT_3D('',#386,#387,#388);
#338=CARTESIAN_POINT('',(10.0,0.0,0.0));
#339=AXIS2_PLACEMENT_3D('',#389,#390,#391);
#340=AXIS2_PLACEMENT_3D('',#392,#393,#394);
#341=CARTESIAN_POINT('',(-8.0,-2.0,9.79685083057902E-016));
#342=CARTESIAN_POINT('',(-8.0,0.0,9.79685083057902E-016));
#343=CARTESIAN_POINT('',(-8.0,0.0,9.79685083057902E-016));
#344=VECTOR('',#395,1.0);
#345=CARTESIAN_POINT('',(8.0,-2.0,-9.79717439317883E-016));
#346=AXIS2_PLACEMENT_3D('',#396,#397,#398);
#347=CARTESIAN_POINT('',(8.0,0.0,-9.79717439317883E-016));
#348=CARTESIAN_POINT('',(8.0,0.0,-9.79685083057902E-016));
#349=VECTOR('',#399,1.0);
#350=AXIS2_PLACEMENT_3D('',#400,#401,#402);
#351=AXIS2_PLACEMENT_3D('',#403,#404,#405);
#352=AXIS2_PLACEMENT_3D('',#406,#407,#408);
#353=AXIS2_PLACEMENT_3D('',#409,#410,#411);
#354=CARTESIAN_POINT('',(8.0,0.0,0.0));
#355=CARTESIAN_POINT('',(8.0,-2.0,0.0));
#356=CARTESIAN_POINT('',(8.0,-1.0,-9.79685083057902E-016));
#357=VECTOR('',#412,1.0);
#358=CARTESIAN_POINT('',(-8.0,0.0,9.79685083057902E-016));
#359=AXIS2_PLACEMENT_3D('',#413,#414,#415);
#360=CARTESIAN_POINT('',(-8.0,-2.0,9.79685083057902E-016));
#361=CARTESIAN_POINT('',(-8.0,-1.0,9.79685083057902E-016));
#362=VECTOR('',#416,1.0);
#363=AXIS2_PLACEMENT_3D('',#417,#418,#419);
#364=CARTESIAN_POINT('',(3.0,17.45875,0.0));
#365=CARTESIAN_POINT('',(3.0,0.0,0.0));
#366=CARTESIAN_POINT('',(3.0,8.729375,-3.67381906146713E-016));
#367=VECTOR('',#420,1.0);
#368=CARTESIAN_POINT('',(-3.0,17.45875,3.67381906146713E-016));
#369=AXIS2_PLACEMENT_3D('',#421,#422,#423);
#370=CARTESIAN_POINT('',(-3.0,0.0,3.67381906146713E-016));
#371=CARTESIAN_POINT('',(-3.0,8.729375,3.67381906146713E-016));
#372=VECTOR('',#424,1.0);
#373=AXIS2_PLACEMENT_3D('',#425,#426,#427);
#374=CARTESIAN_POINT('',(2.45875,18.0,0.0));
#375=CARTESIAN_POINT('',(2.729375,17.729375,-3.34240996696395E-016));
#376=VECTOR('',#428,1.0);
#377=CARTESIAN_POINT('',(-2.45875,18.0,3.01100087246077E-016));
#378=AXIS2_PLACEMENT_3D('',#429,#430,#431);
#379=CARTESIAN_POINT('',(-2.729375,17.729375,3.34240996696395E-016));
#380=VECTOR('',#432,1.0);
#381=AXIS2_PLACEMENT_3D('',#433,#434,#435);
#382=AXIS2_PLACEMENT_3D('',#436,#437,#438);
#383=AXIS2_PLACEMENT_3D('',#439,#440,#441);
#384=AXIS2_PLACEMENT_3D('',#442,#443,#444);
#385=AXIS2_PLACEMENT_3D('',#445,#446,#447);
#386=CARTESIAN_POINT('',(0.0,4.0,0.0));
#387=DIRECTION('',(1.22460635382238E-016,0.0,1.0));
#388=DIRECTION('',(-0.0,-1.0,0.0));
#389=CARTESIAN_POINT('',(0.0,0.0,0.0));
#390=DIRECTION('',(0.0,-1.0,0.0));
#391=DIRECTION('',(1.0,0.0,0.0));
#392=CARTESIAN_POINT('',(0.0,4.0,0.0));
#393=DIRECTION('',(0.0,0.0,-1.0));
#394=DIRECTION('',(0.0,-1.0,0.0));
#395=DIRECTION('',(0.0,1.0,-0.0));
#396=CARTESIAN_POINT('',(0.0,-2.0,0.0));
#397=DIRECTION('',(0.0,1.0,0.0));
#398=DIRECTION('',(-1.0,0.0,0.0));
#399=DIRECTION('',(0.0,-1.0,-0.0));
#400=CARTESIAN_POINT('',(0.0,0.0,0.0));
#401=DIRECTION('',(-0.0,-1.0,-0.0));
#402=DIRECTION('',(-1.0,0.0,0.0));
#403=CARTESIAN_POINT('',(0.0,0.0,0.0));
#404=DIRECTION('',(-0.0,-1.0,-0.0));
#405=DIRECTION('',(-1.0,0.0,0.0));
#406=CARTESIAN_POINT('',(0.0,-2.0,0.0));
#407=DIRECTION('',(0.0,1.0,0.0));
#408=DIRECTION('',(-1.0,0.0,0.0));
#409=CARTESIAN_POINT('',(0.0,0.0,0.0));
#410=DIRECTION('',(0.0,-1.0,0.0));
#411=DIRECTION('',(1.0,0.0,0.0));
#412=DIRECTION('',(0.0,-1.0,-0.0));
#413=CARTESIAN_POINT('',(0.0,0.0,0.0));
#414=DIRECTION('',(0.0,-1.0,0.0));
#415=DIRECTION('',(1.0,0.0,0.0));
#416=DIRECTION('',(0.0,1.0,-0.0));
#417=CARTESIAN_POINT('',(0.0,-2.0,0.0));
#418=DIRECTION('',(0.0,-1.0,0.0));
#419=DIRECTION('',(1.0,0.0,0.0));
#420=DIRECTION('',(0.0,-1.0,-0.0));
#421=CARTESIAN_POINT('',(0.0,17.45875,0.0));
#422=DIRECTION('',(0.0,-1.0,0.0));
#423=DIRECTION('',(1.0,0.0,0.0));
#424=DIRECTION('',(0.0,1.0,-0.0));
#425=CARTESIAN_POINT('',(0.0,0.0,0.0));
#426=DIRECTION('',(0.0,-1.0,0.0));
#427=DIRECTION('',(1.0,0.0,0.0));
#428=DIRECTION('',(0.707106781186548,-0.707106781186547,-8.65927457071936E-017));
#429=CARTESIAN_POINT('',(0.0,18.0,0.0));
#430=DIRECTION('',(0.0,-1.0,0.0));
#431=DIRECTION('',(1.0,0.0,0.0));
#432=DIRECTION('',(0.707106781186548,0.707106781186547,-8.65927457071937E-017));
#433=CARTESIAN_POINT('',(0.0,18.0,0.0));
#434=DIRECTION('',(0.0,-1.0,0.0));
#435=DIRECTION('',(1.0,0.0,0.0));
#436=CARTESIAN_POINT('',(0.0,17.45875,0.0));
#437=DIRECTION('',(0.0,-1.0,0.0));
#438=DIRECTION('',(1.0,0.0,0.0));
#439=CARTESIAN_POINT('',(0.0,0.0,0.0));
#440=DIRECTION('',(0.0,-1.0,0.0));
#441=DIRECTION('',(1.0,0.0,0.0));
#442=CARTESIAN_POINT('',(0.0,0.0,0.0));
#443=DIRECTION('',(0.0,-1.0,0.0));
#444=DIRECTION('',(1.0,0.0,0.0));
#445=CARTESIAN_POINT('',(0.0,-2.0,0.0));
#446=DIRECTION('',(0.0,-1.0,0.0));
#447=DIRECTION('',(1.0,0.0,0.0));
ENDSEC;
END-ISO-10303-21;
