ISO-10303-21;
HEADER;
FILE_DESCRIPTION(('STEP AP214'),'1');
FILE_NAME(' ','  ',('TraceParts'),('TraceParts S.A.'),'XStep 1.0',' ',' ');
FILE_SCHEMA(('automotive_design'));
ENDSEC;
DATA;
#1=PRODUCT_DEFINITION_CONTEXT('',#9,'design');
#2=APPLICATION_PROTOCOL_DEFINITION('INTERNATIONAL STANDARD','automotive_design',1994,#9);
#3=PRODUCT_CATEGORY_RELATIONSHIP('NONE','NONE',#10,#11);
#4=SHAPE_DEFINITION_REPRESENTATION(#12,#13);
#5= (GEOMETRIC_REPRESENTATION_CONTEXT(3)GLOBAL_UNCERTAINTY_ASSIGNED_CONTEXT((#16))GLOBAL_UNIT_ASSIGNED_CONTEXT((#18,#19,#20))REPRESENTATION_CONTEXT('NONE','WORKSPACE'));
#9=APPLICATION_CONTEXT(' ');
#10=PRODUCT_CATEGORY('part','NONE');
#11=PRODUCT_RELATED_PRODUCT_CATEGORY('detail',' ',(#22));
#12=PRODUCT_DEFINITION_SHAPE('NONE','NONE',#23);
#13=ADVANCED_BREP_SHAPE_REPRESENTATION('1',(#24,#25),#5);
#16=UNCERTAINTY_MEASURE_WITH_UNIT(LENGTH_MEASURE(1.0E-006),#18,'','');
#18= (CONVERSION_BASED_UNIT('MILLIMETRE',#28)LENGTH_UNIT()NAMED_UNIT(#31));
#19= (NAMED_UNIT(#33)PLANE_ANGLE_UNIT()SI_UNIT($,.RADIAN.));
#20= (NAMED_UNIT(#33)SOLID_ANGLE_UNIT()SI_UNIT($,.STERADIAN.));
#22=PRODUCT('1','1','PART-1-DESC',(#39));
#23=PRODUCT_DEFINITION('NONE','NONE',#40,#1);
#24=MANIFOLD_SOLID_BREP('1',#41);
#25=AXIS2_PLACEMENT_3D('',#42,#43,#44);
#28=LENGTH_MEASURE_WITH_UNIT(LENGTH_MEASURE(1.0),#45);
#31=DIMENSIONAL_EXPONENTS(1.0,0.0,0.0,0.0,0.0,0.0,0.0);
#33=DIMENSIONAL_EXPONENTS(0.0,0.0,0.0,0.0,0.0,0.0,0.0);
#39=PRODUCT_CONTEXT('',#9,'mechanical');
#40=PRODUCT_DEFINITION_FORMATION_WITH_SPECIFIED_SOURCE(' ','NONE',#22,.NOT_KNOWN.);
#41=CLOSED_SHELL('',(#46,#47,#48,#49));
#42=CARTESIAN_POINT('',(0.0,0.0,0.0));
#43=DIRECTION('',(0.0,0.0,1.0));
#44=DIRECTION('',(1.0,0.0,0.0));
#45= (NAMED_UNIT(#31)LENGTH_UNIT()SI_UNIT(.MILLI.,.METRE.));
#46=ADVANCED_FACE('',(#51),#52,.T.);
#47=ADVANCED_FACE('',(#53),#54,.T.);
#48=ADVANCED_FACE('',(#55),#56,.T.);
#49=ADVANCED_FACE('',(#57),#58,.T.);
#51=FACE_OUTER_BOUND('',#59,.T.);
#52=TOROIDAL_SURFACE('',#60,13.5,0.75);
#53=FACE_OUTER_BOUND('',#61,.T.);
#54=TOROIDAL_SURFACE('',#62,13.5,0.75);
#55=FACE_OUTER_BOUND('',#63,.T.);
#56=TOROIDAL_SURFACE('',#64,13.5,0.75);
#57=FACE_OUTER_BOUND('',#65,.T.);
#58=TOROIDAL_SURFACE('',#66,13.5,0.75);
#59=EDGE_LOOP('',(#67,#68,#69,#70));
#60=AXIS2_PLACEMENT_3D('',#71,#72,#73);
#61=EDGE_LOOP('',(#74,#75,#76,#77));
#62=AXIS2_PLACEMENT_3D('',#78,#79,#80);
#63=EDGE_LOOP('',(#81,#82,#83,#84));
#64=AXIS2_PLACEMENT_3D('',#85,#86,#87);
#65=EDGE_LOOP('',(#88,#89,#90,#91));
#66=AXIS2_PLACEMENT_3D('',#92,#93,#94);
#67=ORIENTED_EDGE('',*,*,#95,.F.);
#68=ORIENTED_EDGE('',*,*,#96,.T.);
#69=ORIENTED_EDGE('',*,*,#97,.F.);
#70=ORIENTED_EDGE('',*,*,#98,.T.);
#71=CARTESIAN_POINT('',(0.0,0.0,0.0));
#72=DIRECTION('',(1.0,0.0,6.12303176911189E-017));
#73=DIRECTION('',(6.12303176911189E-017,0.0,-1.0));
#74=ORIENTED_EDGE('',*,*,#99,.F.);
#75=ORIENTED_EDGE('',*,*,#98,.F.);
#76=ORIENTED_EDGE('',*,*,#100,.F.);
#77=ORIENTED_EDGE('',*,*,#96,.F.);
#78=CARTESIAN_POINT('',(0.0,0.0,0.0));
#79=DIRECTION('',(1.0,0.0,6.12303176911189E-017));
#80=DIRECTION('',(6.12303176911189E-017,0.0,-1.0));
#81=ORIENTED_EDGE('',*,*,#99,.T.);
#82=ORIENTED_EDGE('',*,*,#101,.F.);
#83=ORIENTED_EDGE('',*,*,#100,.T.);
#84=ORIENTED_EDGE('',*,*,#102,.F.);
#85=CARTESIAN_POINT('',(0.0,0.0,0.0));
#86=DIRECTION('',(1.0,0.0,6.12303176911189E-017));
#87=DIRECTION('',(6.12303176911189E-017,0.0,-1.0));
#88=ORIENTED_EDGE('',*,*,#95,.T.);
#89=ORIENTED_EDGE('',*,*,#102,.T.);
#90=ORIENTED_EDGE('',*,*,#97,.T.);
#91=ORIENTED_EDGE('',*,*,#101,.T.);
#92=CARTESIAN_POINT('',(0.0,0.0,0.0));
#93=DIRECTION('',(1.0,0.0,6.12303176911189E-017));
#94=DIRECTION('',(6.12303176911189E-017,0.0,-1.0));
#95=EDGE_CURVE('',#103,#104,#105,.T.);
#96=EDGE_CURVE('',#103,#106,#107,.T.);
#97=EDGE_CURVE('',#108,#106,#109,.T.);
#98=EDGE_CURVE('',#108,#104,#110,.T.);
#99=EDGE_CURVE('',#104,#103,#111,.T.);
#100=EDGE_CURVE('',#106,#108,#112,.T.);
#101=EDGE_CURVE('',#106,#103,#113,.T.);
#102=EDGE_CURVE('',#104,#108,#114,.T.);
#103=VERTEX_POINT('',#115);
#104=VERTEX_POINT('',#116);
#105=CIRCLE('',#117,14.25);
#106=VERTEX_POINT('',#118);
#107=CIRCLE('',#119,0.75);
#108=VERTEX_POINT('',#120);
#109=CIRCLE('',#121,12.75);
#110=CIRCLE('',#122,0.75);
#111=CIRCLE('',#123,14.25);
#112=CIRCLE('',#124,12.75);
#113=CIRCLE('',#125,0.75);
#114=CIRCLE('',#126,0.75);
#115=CARTESIAN_POINT('',(-7.80686550561766E-016,1.74506405419689E-015,14.25));
#116=CARTESIAN_POINT('',(9.64377503635122E-016,-1.74506405419689E-015,-14.25));
#117=AXIS2_PLACEMENT_3D('',#127,#128,#129);
#118=CARTESIAN_POINT('',(-6.88841074025087E-016,1.56137310112353E-015,12.75));
#119=AXIS2_PLACEMENT_3D('',#130,#131,#132);
#120=CARTESIAN_POINT('',(6.88841074025087E-016,-1.56137310112353E-015,-12.75));
#121=AXIS2_PLACEMENT_3D('',#133,#134,#135);
#122=AXIS2_PLACEMENT_3D('',#136,#137,#138);
#123=AXIS2_PLACEMENT_3D('',#139,#140,#141);
#124=AXIS2_PLACEMENT_3D('',#142,#143,#144);
#125=AXIS2_PLACEMENT_3D('',#145,#146,#147);
#126=AXIS2_PLACEMENT_3D('',#148,#149,#150);
#127=CARTESIAN_POINT('',(9.18454765366783E-017,0.0,5.62372770683302E-033));
#128=DIRECTION('',(1.0,0.0,6.12303176911189E-017));
#129=DIRECTION('',(6.12303176911189E-017,0.0,-1.0));
#130=CARTESIAN_POINT('',(-8.26609288830105E-016,1.65321857766021E-015,13.5));
#131=DIRECTION('',(-7.49830360911069E-033,-1.0,1.22460635382238E-016));
#132=DIRECTION('',(-6.12303176911189E-017,1.22460635382238E-016,1.0));
#133=CARTESIAN_POINT('',(9.18454765366783E-017,0.0,5.62372770683302E-033));
#134=DIRECTION('',(-1.0,-0.0,-6.12303176911189E-017));
#135=DIRECTION('',(6.12303176911189E-017,0.0,-1.0));
#136=CARTESIAN_POINT('',(8.26609288830105E-016,-1.65321857766021E-015,-13.5));
#137=DIRECTION('',(-7.49830360911069E-033,-1.0,1.22460635382238E-016));
#138=DIRECTION('',(6.12303176911189E-017,-1.22460635382238E-016,-1.0));
#139=CARTESIAN_POINT('',(9.18454765366783E-017,0.0,5.62372770683302E-033));
#140=DIRECTION('',(1.0,0.0,6.12303176911189E-017));
#141=DIRECTION('',(6.12303176911189E-017,0.0,-1.0));
#142=CARTESIAN_POINT('',(9.18454765366783E-017,0.0,5.62372770683302E-033));
#143=DIRECTION('',(-1.0,-0.0,-6.12303176911189E-017));
#144=DIRECTION('',(6.12303176911189E-017,0.0,-1.0));
#145=CARTESIAN_POINT('',(-8.26609288830105E-016,1.65321857766021E-015,13.5));
#146=DIRECTION('',(-7.49830360911069E-033,-1.0,1.22460635382238E-016));
#147=DIRECTION('',(-6.12303176911189E-017,1.22460635382238E-016,1.0));
#148=CARTESIAN_POINT('',(8.26609288830105E-016,-1.65321857766021E-015,-13.5));
#149=DIRECTION('',(-7.49830360911069E-033,-1.0,1.22460635382238E-016));
#150=DIRECTION('',(6.12303176911189E-017,-1.22460635382238E-016,-1.0));
ENDSEC;
END-ISO-10303-21;
