ISO-10303-21;
HEADER;
FILE_DESCRIPTION(('STEP AP214'),'1');
FILE_NAME(' ','  ',('TraceParts'),('TraceParts S.A.'),'XStep 1.0',' ',' ');
FILE_SCHEMA(('automotive_design'));
ENDSEC;
DATA;
#1=MECHANICAL_DESIGN_GEOMETRIC_PRESENTATION_REPRESENTATION(' ',(#10,#11,#12,#13,#14,#15,#16,#17,#18,#19,#20,#21,#22,#23,#24,#25,#26,#27,#28,#29,#30,#31,#32,#33,#34,#35,#36,#37,#38,#39,#40,#41,#42,#43,#44,#45),#6);
#2=PRODUCT_DEFINITION_CONTEXT('',#46,'design');
#3=APPLICATION_PROTOCOL_DEFINITION('INTERNATIONAL STANDARD','automotive_design',1994,#46);
#4=PRODUCT_CATEGORY_RELATIONSHIP('NONE','NONE',#47,#48);
#5=SHAPE_DEFINITION_REPRESENTATION(#49,#50);
#6= (GEOMETRIC_REPRESENTATION_CONTEXT(3)GLOBAL_UNCERTAINTY_ASSIGNED_CONTEXT((#53))GLOBAL_UNIT_ASSIGNED_CONTEXT((#55,#56,#57))REPRESENTATION_CONTEXT('NONE','WORKSPACE'));
#10=STYLED_ITEM('',(#59),#60);
#11=STYLED_ITEM('',(#61),#62);
#12=STYLED_ITEM('',(#63),#64);
#13=STYLED_ITEM('',(#65),#66);
#14=STYLED_ITEM('',(#67),#68);
#15=STYLED_ITEM('',(#69),#70);
#16=STYLED_ITEM('',(#71),#72);
#17=STYLED_ITEM('',(#73),#74);
#18=STYLED_ITEM('',(#75),#76);
#19=STYLED_ITEM('',(#77),#78);
#20=STYLED_ITEM('',(#79),#80);
#21=STYLED_ITEM('',(#81),#82);
#22=STYLED_ITEM('',(#83),#84);
#23=STYLED_ITEM('',(#85),#86);
#24=STYLED_ITEM('',(#87),#88);
#25=STYLED_ITEM('',(#89),#90);
#26=STYLED_ITEM('',(#91),#92);
#27=STYLED_ITEM('',(#93),#94);
#28=STYLED_ITEM('',(#95),#96);
#29=STYLED_ITEM('',(#97),#98);
#30=STYLED_ITEM('',(#99),#100);
#31=STYLED_ITEM('',(#101),#102);
#32=STYLED_ITEM('',(#103),#104);
#33=STYLED_ITEM('',(#105),#106);
#34=STYLED_ITEM('',(#107),#108);
#35=STYLED_ITEM('',(#109),#110);
#36=STYLED_ITEM('',(#111),#112);
#37=STYLED_ITEM('',(#113),#114);
#38=STYLED_ITEM('',(#115),#116);
#39=STYLED_ITEM('',(#117),#118);
#40=STYLED_ITEM('',(#119),#120);
#41=STYLED_ITEM('',(#121),#122);
#42=STYLED_ITEM('',(#123),#124);
#43=STYLED_ITEM('',(#125),#126);
#44=STYLED_ITEM('',(#127),#128);
#45=STYLED_ITEM('',(#129),#130);
#46=APPLICATION_CONTEXT(' ');
#47=PRODUCT_CATEGORY('part','NONE');
#48=PRODUCT_RELATED_PRODUCT_CATEGORY('detail',' ',(#131));
#49=PRODUCT_DEFINITION_SHAPE('NONE','NONE',#132);
#50=ADVANCED_BREP_SHAPE_REPRESENTATION('1',(#122,#133),#6);
#53=UNCERTAINTY_MEASURE_WITH_UNIT(LENGTH_MEASURE(1.0E-006),#55,'','');
#55= (CONVERSION_BASED_UNIT('MILLIMETRE',#136)LENGTH_UNIT()NAMED_UNIT(#139));
#56= (NAMED_UNIT(#141)PLANE_ANGLE_UNIT()SI_UNIT($,.RADIAN.));
#57= (NAMED_UNIT(#141)SOLID_ANGLE_UNIT()SI_UNIT($,.STERADIAN.));
#59=PRESENTATION_STYLE_ASSIGNMENT((#147));
#60=EDGE_CURVE('',#68,#84,#148,.T.);
#61=PRESENTATION_STYLE_ASSIGNMENT((#149));
#62=ADVANCED_FACE('',(#150,#151),#152,.T.);
#63=PRESENTATION_STYLE_ASSIGNMENT((#153));
#64=VERTEX_POINT('',#154);
#65=PRESENTATION_STYLE_ASSIGNMENT((#155));
#66=EDGE_CURVE('',#86,#126,#156,.T.);
#67=PRESENTATION_STYLE_ASSIGNMENT((#157));
#68=VERTEX_POINT('',#158);
#69=PRESENTATION_STYLE_ASSIGNMENT((#159));
#70=EDGE_CURVE('',#126,#86,#160,.T.);
#71=PRESENTATION_STYLE_ASSIGNMENT((#161));
#72=EDGE_CURVE('',#102,#128,#162,.T.);
#73=PRESENTATION_STYLE_ASSIGNMENT((#163));
#74=VERTEX_POINT('',#164);
#75=PRESENTATION_STYLE_ASSIGNMENT((#165));
#76=EDGE_CURVE('',#120,#64,#166,.T.);
#77=PRESENTATION_STYLE_ASSIGNMENT((#167));
#78=ADVANCED_FACE('',(#168),#169,.F.);
#79=PRESENTATION_STYLE_ASSIGNMENT((#170));
#80=EDGE_CURVE('',#120,#74,#171,.T.);
#81=PRESENTATION_STYLE_ASSIGNMENT((#172));
#82=ADVANCED_FACE('',(#173),#174,.T.);
#83=PRESENTATION_STYLE_ASSIGNMENT((#175));
#84=VERTEX_POINT('',#176);
#85=PRESENTATION_STYLE_ASSIGNMENT((#177));
#86=VERTEX_POINT('',#178);
#87=PRESENTATION_STYLE_ASSIGNMENT((#179));
#88=EDGE_CURVE('',#64,#68,#180,.T.);
#89=PRESENTATION_STYLE_ASSIGNMENT((#181));
#90=EDGE_CURVE('',#128,#102,#182,.T.);
#91=PRESENTATION_STYLE_ASSIGNMENT((#183));
#92=EDGE_CURVE('',#102,#130,#184,.T.);
#93=PRESENTATION_STYLE_ASSIGNMENT((#185));
#94=ADVANCED_FACE('',(#186),#187,.F.);
#95=PRESENTATION_STYLE_ASSIGNMENT((#188));
#96=EDGE_CURVE('',#84,#120,#189,.T.);
#97=PRESENTATION_STYLE_ASSIGNMENT((#190));
#98=EDGE_CURVE('',#84,#68,#191,.T.);
#99=PRESENTATION_STYLE_ASSIGNMENT((#192));
#100=ADVANCED_FACE('',(#193),#194,.F.);
#101=PRESENTATION_STYLE_ASSIGNMENT((#195));
#102=VERTEX_POINT('',#196);
#103=PRESENTATION_STYLE_ASSIGNMENT((#197));
#104=EDGE_CURVE('',#64,#120,#198,.T.);
#105=PRESENTATION_STYLE_ASSIGNMENT((#199));
#106=EDGE_CURVE('',#68,#126,#200,.T.);
#107=PRESENTATION_STYLE_ASSIGNMENT((#201));
#108=EDGE_CURVE('',#130,#128,#202,.T.);
#109=PRESENTATION_STYLE_ASSIGNMENT((#203));
#110=ADVANCED_FACE('',(#204),#205,.F.);
#111=PRESENTATION_STYLE_ASSIGNMENT((#206));
#112=EDGE_CURVE('',#74,#64,#207,.T.);
#113=PRESENTATION_STYLE_ASSIGNMENT((#208));
#114=ADVANCED_FACE('',(#209),#210,.T.);
#115=PRESENTATION_STYLE_ASSIGNMENT((#211));
#116=ADVANCED_FACE('',(#212),#213,.F.);
#117=PRESENTATION_STYLE_ASSIGNMENT((#214));
#118=EDGE_CURVE('',#86,#84,#215,.T.);
#119=PRESENTATION_STYLE_ASSIGNMENT((#216));
#120=VERTEX_POINT('',#217);
#121=PRESENTATION_STYLE_ASSIGNMENT((#218));
#122=MANIFOLD_SOLID_BREP('1',#219);
#123=PRESENTATION_STYLE_ASSIGNMENT((#220));
#124=ADVANCED_FACE('',(#221),#222,.F.);
#125=PRESENTATION_STYLE_ASSIGNMENT((#223));
#126=VERTEX_POINT('',#224);
#127=PRESENTATION_STYLE_ASSIGNMENT((#225));
#128=VERTEX_POINT('',#226);
#129=PRESENTATION_STYLE_ASSIGNMENT((#227));
#130=VERTEX_POINT('',#228);
#131=PRODUCT('1','1','PART-1-DESC',(#229));
#132=PRODUCT_DEFINITION('NONE','NONE',#230,#2);
#133=AXIS2_PLACEMENT_3D('',#231,#232,#233);
#136=LENGTH_MEASURE_WITH_UNIT(LENGTH_MEASURE(1.0),#234);
#139=DIMENSIONAL_EXPONENTS(1.0,0.0,0.0,0.0,0.0,0.0,0.0);
#141=DIMENSIONAL_EXPONENTS(0.0,0.0,0.0,0.0,0.0,0.0,0.0);
#147=CURVE_STYLE('',#235,POSITIVE_LENGTH_MEASURE(1.0E-006),#236);
#148=CIRCLE('',#237,2.5);
#149=SURFACE_STYLE_USAGE(.BOTH.,#238);
#150=FACE_BOUND('',#239,.T.);
#151=FACE_OUTER_BOUND('',#240,.T.);
#152=PLANE('',#241);
#153=POINT_STYLE(' ',#242,POSITIVE_LENGTH_MEASURE(1.0E-006),#243);
#154=CARTESIAN_POINT('',(2.49999999999994,2.18258847802432E-014,10.5999999999999));
#155=CURVE_STYLE('',#244,POSITIVE_LENGTH_MEASURE(1.0E-006),#245);
#156=CIRCLE('',#246,2.99999999999997);
#157=POINT_STYLE(' ',#247,POSITIVE_LENGTH_MEASURE(1.0E-006),#248);
#158=CARTESIAN_POINT('',(2.49999999999994,2.24443109889235E-014,0.499999999999915));
#159=CURVE_STYLE('',#249,POSITIVE_LENGTH_MEASURE(1.0E-006),#250);
#160=CIRCLE('',#251,2.99999999999997);
#161=CURVE_STYLE('',#252,POSITIVE_LENGTH_MEASURE(1.0E-006),#253);
#162=CIRCLE('',#254,7.49999999999999);
#163=POINT_STYLE(' ',#255,POSITIVE_LENGTH_MEASURE(1.0E-006),#256);
#164=CARTESIAN_POINT('',(-5.6843418860808E-014,2.17375064292394E-014,12.043375672974));
#165=CURVE_STYLE('',#257,POSITIVE_LENGTH_MEASURE(1.0E-006),#258);
#166=CIRCLE('',#259,2.5);
#167=SURFACE_STYLE_USAGE(.BOTH.,#260);
#168=FACE_OUTER_BOUND('',#261,.T.);
#169=CYLINDRICAL_SURFACE('',#262,2.5);
#170=CURVE_STYLE('',#263,POSITIVE_LENGTH_MEASURE(1.0E-006),#264);
#171=LINE('',#265,#266);
#172=SURFACE_STYLE_USAGE(.BOTH.,#267);
#173=FACE_OUTER_BOUND('',#268,.T.);
#174=SPHERICAL_SURFACE('',#269,12.5);
#175=POINT_STYLE(' ',#270,POSITIVE_LENGTH_MEASURE(1.0E-006),#271);
#176=CARTESIAN_POINT('',(-2.50000000000006,2.07908572367097E-014,0.499999999999915));
#177=POINT_STYLE(' ',#272,POSITIVE_LENGTH_MEASURE(1.0E-006),#273);
#178=CARTESIAN_POINT('',(-3.00000000000003,2.07295798841079E-014,-2.8421709430404E-014));
#179=CURVE_STYLE('',#274,POSITIVE_LENGTH_MEASURE(1.0E-006),#275);
#180=LINE('',#276,#277);
#181=CURVE_STYLE('',#278,POSITIVE_LENGTH_MEASURE(1.0E-006),#279);
#182=CIRCLE('',#280,7.49999999999999);
#183=CURVE_STYLE('',#281,POSITIVE_LENGTH_MEASURE(1.0E-006),#282);
#184=CIRCLE('',#283,12.5);
#185=SURFACE_STYLE_USAGE(.BOTH.,#284);
#186=FACE_OUTER_BOUND('',#285,.T.);
#187=CONICAL_SURFACE('',#286,2.74999999999999,0.785398163397477);
#188=CURVE_STYLE('',#287,POSITIVE_LENGTH_MEASURE(1.0E-006),#288);
#189=LINE('',#289,#290);
#190=CURVE_STYLE('',#291,POSITIVE_LENGTH_MEASURE(1.0E-006),#292);
#191=CIRCLE('',#293,2.5);
#192=SURFACE_STYLE_USAGE(.BOTH.,#294);
#193=FACE_OUTER_BOUND('',#295,.T.);
#194=CYLINDRICAL_SURFACE('',#296,2.5);
#195=POINT_STYLE(' ',#297,POSITIVE_LENGTH_MEASURE(1.0E-006),#298);
#196=CARTESIAN_POINT('',(7.49999999999994,2.24749261477691E-014,-2.1316282072803E-014));
#197=CURVE_STYLE('',#299,POSITIVE_LENGTH_MEASURE(1.0E-006),#300);
#198=CIRCLE('',#301,2.5);
#199=CURVE_STYLE('',#302,POSITIVE_LENGTH_MEASURE(1.0E-006),#303);
#200=LINE('',#304,#305);
#201=CURVE_STYLE('',#306,POSITIVE_LENGTH_MEASURE(1.0E-006),#307);
#202=CIRCLE('',#308,12.5);
#203=SURFACE_STYLE_USAGE(.BOTH.,#309);
#204=FACE_OUTER_BOUND('',#310,.T.);
#205=CONICAL_SURFACE('',#311,1.25,1.04719755119659);
#206=CURVE_STYLE('',#312,POSITIVE_LENGTH_MEASURE(1.0E-006),#313);
#207=LINE('',#314,#315);
#208=SURFACE_STYLE_USAGE(.BOTH.,#316);
#209=FACE_OUTER_BOUND('',#317,.T.);
#210=SPHERICAL_SURFACE('',#318,12.5);
#211=SURFACE_STYLE_USAGE(.BOTH.,#319);
#212=FACE_OUTER_BOUND('',#320,.T.);
#213=CONICAL_SURFACE('',#321,2.74999999999999,0.785398163397477);
#214=CURVE_STYLE('',#322,POSITIVE_LENGTH_MEASURE(1.0E-006),#323);
#215=LINE('',#324,#325);
#216=POINT_STYLE(' ',#326,POSITIVE_LENGTH_MEASURE(1.0E-006),#327);
#217=CARTESIAN_POINT('',(-2.50000000000006,2.07908572367097E-014,10.5999999999999));
#218=SURFACE_STYLE_USAGE(.BOTH.,#328);
#219=CLOSED_SHELL('',(#124,#78,#94,#114,#82,#62,#116,#100,#110));
#220=SURFACE_STYLE_USAGE(.BOTH.,#329);
#221=FACE_OUTER_BOUND('',#330,.T.);
#222=CONICAL_SURFACE('',#331,1.25,1.04719755119659);
#223=POINT_STYLE(' ',#332,POSITIVE_LENGTH_MEASURE(1.0E-006),#333);
#224=CARTESIAN_POINT('',(2.99999999999991,2.24749261477691E-014,-2.8421709430404E-014));
#225=POINT_STYLE(' ',#334,POSITIVE_LENGTH_MEASURE(1.0E-006),#335);
#226=CARTESIAN_POINT('',(-7.50000000000005,2.09441682054911E-014,-2.1316282072803E-014));
#227=POINT_STYLE(' ',#336,POSITIVE_LENGTH_MEASURE(1.0E-006),#337);
#228=CARTESIAN_POINT('',(-5.6843418860808E-014,2.10972439997189E-014,22.5));
#229=PRODUCT_CONTEXT('',#46,'mechanical');
#230=PRODUCT_DEFINITION_FORMATION_WITH_SPECIFIED_SOURCE(' ','NONE',#131,.NOT_KNOWN.);
#231=CARTESIAN_POINT('',(0.0,0.0,0.0));
#232=DIRECTION('',(0.0,0.0,1.0));
#233=DIRECTION('',(1.0,0.0,0.0));
#234= (NAMED_UNIT(#139)LENGTH_UNIT()SI_UNIT(.MILLI.,.METRE.));
#235=DRAUGHTING_PRE_DEFINED_CURVE_FONT('continuous');
#236=COLOUR_RGB('',0.509803950786591,0.509803950786591,0.588235318660736);
#237=AXIS2_PLACEMENT_3D('',#339,#340,#341);
#238=SURFACE_SIDE_STYLE('',(#342));
#239=EDGE_LOOP('',(#343,#344));
#240=EDGE_LOOP('',(#345,#346));
#241=AXIS2_PLACEMENT_3D('',#347,#348,#349);
#242=PRE_DEFINED_MARKER('');
#243=COLOUR_RGB('',0.509803950786591,0.509803950786591,0.588235318660736);
#244=DRAUGHTING_PRE_DEFINED_CURVE_FONT('continuous');
#245=COLOUR_RGB('',0.509803950786591,0.509803950786591,0.588235318660736);
#246=AXIS2_PLACEMENT_3D('',#350,#351,#352);
#247=PRE_DEFINED_MARKER('');
#248=COLOUR_RGB('',0.509803950786591,0.509803950786591,0.588235318660736);
#249=DRAUGHTING_PRE_DEFINED_CURVE_FONT('continuous');
#250=COLOUR_RGB('',0.509803950786591,0.509803950786591,0.588235318660736);
#251=AXIS2_PLACEMENT_3D('',#353,#354,#355);
#252=DRAUGHTING_PRE_DEFINED_CURVE_FONT('continuous');
#253=COLOUR_RGB('',0.509803950786591,0.509803950786591,0.588235318660736);
#254=AXIS2_PLACEMENT_3D('',#356,#357,#358);
#255=PRE_DEFINED_MARKER('');
#256=COLOUR_RGB('',0.509803950786591,0.509803950786591,0.588235318660736);
#257=DRAUGHTING_PRE_DEFINED_CURVE_FONT('continuous');
#258=COLOUR_RGB('',0.509803950786591,0.509803950786591,0.588235318660736);
#259=AXIS2_PLACEMENT_3D('',#359,#360,#361);
#260=SURFACE_SIDE_STYLE('',(#362));
#261=EDGE_LOOP('',(#363,#364,#365,#366));
#262=AXIS2_PLACEMENT_3D('',#367,#368,#369);
#263=DRAUGHTING_PRE_DEFINED_CURVE_FONT('continuous');
#264=COLOUR_RGB('',0.509803950786591,0.509803950786591,0.588235318660736);
#265=CARTESIAN_POINT('',(-1.25000000000006,2.09440506182143E-014,11.321687836487));
#266=VECTOR('',#370,1.0);
#267=SURFACE_SIDE_STYLE('',(#371));
#268=EDGE_LOOP('',(#372,#373,#374));
#269=AXIS2_PLACEMENT_3D('',#375,#376,#377);
#270=PRE_DEFINED_MARKER('');
#271=COLOUR_RGB('',0.509803950786591,0.509803950786591,0.588235318660736);
#272=PRE_DEFINED_MARKER('');
#273=COLOUR_RGB('',0.509803950786591,0.509803950786591,0.588235318660736);
#274=DRAUGHTING_PRE_DEFINED_CURVE_FONT('continuous');
#275=COLOUR_RGB('',0.509803950786591,0.509803950786591,0.588235318660736);
#276=CARTESIAN_POINT('',(2.49999999999994,2.14036307627281E-014,5.54999999999993));
#277=VECTOR('',#378,1.0);
#278=DRAUGHTING_PRE_DEFINED_CURVE_FONT('continuous');
#279=COLOUR_RGB('',0.509803950786591,0.509803950786591,0.588235318660736);
#280=AXIS2_PLACEMENT_3D('',#379,#380,#381);
#281=DRAUGHTING_PRE_DEFINED_CURVE_FONT('continuous');
#282=COLOUR_RGB('',0.509803950786591,0.509803950786591,0.588235318660736);
#283=AXIS2_PLACEMENT_3D('',#382,#383,#384);
#284=SURFACE_SIDE_STYLE('',(#385));
#285=EDGE_LOOP('',(#386,#387,#388,#389));
#286=AXIS2_PLACEMENT_3D('',#390,#391,#392);
#287=DRAUGHTING_PRE_DEFINED_CURVE_FONT('continuous');
#288=COLOUR_RGB('',0.509803950786591,0.509803950786591,0.588235318660736);
#289=CARTESIAN_POINT('',(-2.50000000000006,2.07908572367097E-014,5.54999999999993));
#290=VECTOR('',#393,1.0);
#291=DRAUGHTING_PRE_DEFINED_CURVE_FONT('continuous');
#292=COLOUR_RGB('',0.509803950786591,0.509803950786591,0.588235318660736);
#293=AXIS2_PLACEMENT_3D('',#394,#395,#396);
#294=SURFACE_SIDE_STYLE('',(#397));
#295=EDGE_LOOP('',(#398,#399,#400,#401));
#296=AXIS2_PLACEMENT_3D('',#402,#403,#404);
#297=PRE_DEFINED_MARKER('');
#298=COLOUR_RGB('',0.509803950786591,0.509803950786591,0.588235318660736);
#299=DRAUGHTING_PRE_DEFINED_CURVE_FONT('continuous');
#300=COLOUR_RGB('',0.509803950786591,0.509803950786591,0.588235318660736);
#301=AXIS2_PLACEMENT_3D('',#405,#406,#407);
#302=DRAUGHTING_PRE_DEFINED_CURVE_FONT('continuous');
#303=COLOUR_RGB('',0.509803950786591,0.509803950786591,0.588235318660736);
#304=CARTESIAN_POINT('',(2.74999999999993,2.1434269439029E-014,0.249999999999943));
#305=VECTOR('',#408,1.0);
#306=DRAUGHTING_PRE_DEFINED_CURVE_FONT('continuous');
#307=COLOUR_RGB('',0.509803950786591,0.509803950786591,0.588235318660736);
#308=AXIS2_PLACEMENT_3D('',#409,#410,#411);
#309=SURFACE_SIDE_STYLE('',(#412));
#310=EDGE_LOOP('',(#413,#414,#415));
#311=AXIS2_PLACEMENT_3D('',#416,#417,#418);
#312=DRAUGHTING_PRE_DEFINED_CURVE_FONT('continuous');
#313=COLOUR_RGB('',0.509803950786591,0.509803950786591,0.588235318660736);
#314=CARTESIAN_POINT('',(1.24999999999994,2.12504373812235E-014,11.321687836487));
#315=VECTOR('',#419,1.0);
#316=SURFACE_SIDE_STYLE('',(#420));
#317=EDGE_LOOP('',(#421,#422,#423));
#318=AXIS2_PLACEMENT_3D('',#424,#425,#426);
#319=SURFACE_SIDE_STYLE('',(#427));
#320=EDGE_LOOP('',(#428,#429,#430,#431));
#321=AXIS2_PLACEMENT_3D('',#432,#433,#434);
#322=DRAUGHTING_PRE_DEFINED_CURVE_FONT('continuous');
#323=COLOUR_RGB('',0.509803950786591,0.509803950786591,0.588235318660736);
#324=CARTESIAN_POINT('',(-2.75000000000004,2.07602185604088E-014,0.249999999999943));
#325=VECTOR('',#435,1.0);
#326=PRE_DEFINED_MARKER('');
#327=COLOUR_RGB('',0.509803950786591,0.509803950786591,0.588235318660736);
#328=SURFACE_SIDE_STYLE('',(#436));
#329=SURFACE_SIDE_STYLE('',(#437));
#330=EDGE_LOOP('',(#438,#439,#440));
#331=AXIS2_PLACEMENT_3D('',#441,#442,#443);
#332=PRE_DEFINED_MARKER('');
#333=COLOUR_RGB('',0.509803950786591,0.509803950786591,0.588235318660736);
#334=PRE_DEFINED_MARKER('');
#335=COLOUR_RGB('',0.509803950786591,0.509803950786591,0.588235318660736);
#336=PRE_DEFINED_MARKER('');
#337=COLOUR_RGB('',0.509803950786591,0.509803950786591,0.588235318660736);
#339=CARTESIAN_POINT('',(-5.6843418860808E-014,2.10972439997189E-014,0.499999999999915));
#340=DIRECTION('',(0.0,0.0,-1.0));
#341=DIRECTION('',(1.0,9.40698214411812E-020,0.0));
#342=SURFACE_STYLE_FILL_AREA(#444);
#343=ORIENTED_EDGE('',*,*,#70,.F.);
#344=ORIENTED_EDGE('',*,*,#66,.F.);
#345=ORIENTED_EDGE('',*,*,#72,.T.);
#346=ORIENTED_EDGE('',*,*,#90,.T.);
#347=CARTESIAN_POINT('',(5.24999999999993,2.24749261477691E-014,-2.48689957516035E-014));
#348=DIRECTION('',(0.0,0.0,-1.0));
#349=DIRECTION('',(-1.0,0.0,0.0));
#350=CARTESIAN_POINT('',(-5.6843418860808E-014,2.10972439997189E-014,-2.8421709430404E-014));
#351=DIRECTION('',(0.0,0.0,-1.0));
#352=DIRECTION('',(1.0,9.40698214411812E-020,0.0));
#353=CARTESIAN_POINT('',(-5.6843418860808E-014,2.10972439997189E-014,-2.8421709430404E-014));
#354=DIRECTION('',(0.0,0.0,-1.0));
#355=DIRECTION('',(1.0,9.40698214411812E-020,0.0));
#356=CARTESIAN_POINT('',(-5.6843418860808E-014,2.10972439997189E-014,-2.1316282072803E-014));
#357=DIRECTION('',(0.0,0.0,-1.0));
#358=DIRECTION('',(1.0,9.40698214411812E-020,0.0));
#359=CARTESIAN_POINT('',(-5.6843418860808E-014,2.10972439997189E-014,10.5999999999999));
#360=DIRECTION('',(0.0,0.0,-1.0));
#361=DIRECTION('',(1.0,9.40698214411812E-020,0.0));
#362=SURFACE_STYLE_FILL_AREA(#445);
#363=ORIENTED_EDGE('',*,*,#88,.F.);
#364=ORIENTED_EDGE('',*,*,#76,.F.);
#365=ORIENTED_EDGE('',*,*,#96,.F.);
#366=ORIENTED_EDGE('',*,*,#98,.T.);
#367=CARTESIAN_POINT('',(-5.6843418860808E-014,2.10972439997189E-014,5.54999999999993));
#368=DIRECTION('',(-0.0,-0.0,1.0));
#369=DIRECTION('',(1.0,9.40698214411812E-020,0.0));
#370=DIRECTION('',(0.866025403784435,1.06135488059698E-016,0.500000000000006));
#371=SURFACE_STYLE_FILL_AREA(#446);
#372=ORIENTED_EDGE('',*,*,#108,.T.);
#373=ORIENTED_EDGE('',*,*,#72,.F.);
#374=ORIENTED_EDGE('',*,*,#92,.T.);
#375=CARTESIAN_POINT('',(-5.48871304918039E-014,2.18626229708579E-014,9.99999999999998));
#376=DIRECTION('',(0.0,0.0,-1.0));
#377=DIRECTION('',(-1.0,0.0,0.0));
#378=DIRECTION('',(-0.0,-0.0,-1.0));
#379=CARTESIAN_POINT('',(-5.6843418860808E-014,2.10972439997189E-014,-2.1316282072803E-014));
#380=DIRECTION('',(0.0,0.0,-1.0));
#381=DIRECTION('',(1.0,9.40698214411812E-020,0.0));
#382=CARTESIAN_POINT('',(-5.48871304918039E-014,2.18626229708579E-014,9.99999999999998));
#383=DIRECTION('',(1.22460635382238E-016,-1.0,0.0));
#384=DIRECTION('',(0.0,0.0,1.0));
#385=SURFACE_STYLE_FILL_AREA(#447);
#386=ORIENTED_EDGE('',*,*,#106,.F.);
#387=ORIENTED_EDGE('',*,*,#98,.F.);
#388=ORIENTED_EDGE('',*,*,#118,.F.);
#389=ORIENTED_EDGE('',*,*,#66,.T.);
#390=CARTESIAN_POINT('',(-5.6843418860808E-014,2.10972439997189E-014,0.249999999999943));
#391=DIRECTION('',(0.0,-0.0,-1.0));
#392=DIRECTION('',(1.0,9.40698214411812E-020,0.0));
#393=DIRECTION('',(-0.0,-0.0,1.0));
#394=CARTESIAN_POINT('',(-5.6843418860808E-014,2.10972439997189E-014,0.499999999999915));
#395=DIRECTION('',(0.0,0.0,-1.0));
#396=DIRECTION('',(1.0,9.40698214411812E-020,0.0));
#397=SURFACE_STYLE_FILL_AREA(#448);
#398=ORIENTED_EDGE('',*,*,#88,.T.);
#399=ORIENTED_EDGE('',*,*,#60,.T.);
#400=ORIENTED_EDGE('',*,*,#96,.T.);
#401=ORIENTED_EDGE('',*,*,#104,.F.);
#402=CARTESIAN_POINT('',(-5.6843418860808E-014,2.10972439997189E-014,5.54999999999993));
#403=DIRECTION('',(-0.0,-0.0,1.0));
#404=DIRECTION('',(1.0,9.40698214411812E-020,0.0));
#405=CARTESIAN_POINT('',(-5.6843418860808E-014,2.10972439997189E-014,10.5999999999999));
#406=DIRECTION('',(0.0,0.0,-1.0));
#407=DIRECTION('',(1.0,9.40698214411812E-020,0.0));
#408=DIRECTION('',(0.707106781186568,8.66592631158424E-017,-0.707106781186527));
#409=CARTESIAN_POINT('',(-5.48871304918039E-014,2.18626229708579E-014,9.99999999999998));
#410=DIRECTION('',(1.22460635382238E-016,-1.0,0.0));
#411=DIRECTION('',(0.0,0.0,1.0));
#412=SURFACE_STYLE_FILL_AREA(#449);
#413=ORIENTED_EDGE('',*,*,#80,.F.);
#414=ORIENTED_EDGE('',*,*,#76,.T.);
#415=ORIENTED_EDGE('',*,*,#112,.F.);
#416=CARTESIAN_POINT('',(-5.6843418860808E-014,2.10972439997189E-014,11.321687836487));
#417=DIRECTION('',(0.0,-0.0,-1.0));
#418=DIRECTION('',(1.0,9.40698214411812E-020,0.0));
#419=DIRECTION('',(0.866025403784435,1.06135488059698E-016,-0.500000000000006));
#420=SURFACE_STYLE_FILL_AREA(#450);
#421=ORIENTED_EDGE('',*,*,#108,.F.);
#422=ORIENTED_EDGE('',*,*,#92,.F.);
#423=ORIENTED_EDGE('',*,*,#90,.F.);
#424=CARTESIAN_POINT('',(-5.48871304918039E-014,2.18626229708579E-014,9.99999999999998));
#425=DIRECTION('',(0.0,0.0,-1.0));
#426=DIRECTION('',(-1.0,0.0,0.0));
#427=SURFACE_STYLE_FILL_AREA(#451);
#428=ORIENTED_EDGE('',*,*,#106,.T.);
#429=ORIENTED_EDGE('',*,*,#70,.T.);
#430=ORIENTED_EDGE('',*,*,#118,.T.);
#431=ORIENTED_EDGE('',*,*,#60,.F.);
#432=CARTESIAN_POINT('',(-5.6843418860808E-014,2.10972439997189E-014,0.249999999999943));
#433=DIRECTION('',(0.0,-0.0,-1.0));
#434=DIRECTION('',(1.0,9.40698214411812E-020,0.0));
#435=DIRECTION('',(0.707106781186568,8.66592631158424E-017,0.707106781186527));
#436=SURFACE_STYLE_FILL_AREA(#452);
#437=SURFACE_STYLE_FILL_AREA(#453);
#438=ORIENTED_EDGE('',*,*,#80,.T.);
#439=ORIENTED_EDGE('',*,*,#112,.T.);
#440=ORIENTED_EDGE('',*,*,#104,.T.);
#441=CARTESIAN_POINT('',(-5.6843418860808E-014,2.10972439997189E-014,11.321687836487));
#442=DIRECTION('',(0.0,-0.0,-1.0));
#443=DIRECTION('',(1.0,9.40698214411812E-020,0.0));
#444=FILL_AREA_STYLE('',(#454));
#445=FILL_AREA_STYLE('',(#455));
#446=FILL_AREA_STYLE('',(#456));
#447=FILL_AREA_STYLE('',(#457));
#448=FILL_AREA_STYLE('',(#458));
#449=FILL_AREA_STYLE('',(#459));
#450=FILL_AREA_STYLE('',(#460));
#451=FILL_AREA_STYLE('',(#461));
#452=FILL_AREA_STYLE('',(#462));
#453=FILL_AREA_STYLE('',(#463));
#454=FILL_AREA_STYLE_COLOUR('',#464);
#455=FILL_AREA_STYLE_COLOUR('',#465);
#456=FILL_AREA_STYLE_COLOUR('',#466);
#457=FILL_AREA_STYLE_COLOUR('',#467);
#458=FILL_AREA_STYLE_COLOUR('',#468);
#459=FILL_AREA_STYLE_COLOUR('',#469);
#460=FILL_AREA_STYLE_COLOUR('',#470);
#461=FILL_AREA_STYLE_COLOUR('',#471);
#462=FILL_AREA_STYLE_COLOUR('',#472);
#463=FILL_AREA_STYLE_COLOUR('',#473);
#464=COLOUR_RGB('',0.509803950786591,0.509803950786591,0.588235318660736);
#465=COLOUR_RGB('',0.509803950786591,0.509803950786591,0.588235318660736);
#466=COLOUR_RGB('',0.509803950786591,0.509803950786591,0.588235318660736);
#467=COLOUR_RGB('',0.509803950786591,0.509803950786591,0.588235318660736);
#468=COLOUR_RGB('',0.509803950786591,0.509803950786591,0.588235318660736);
#469=COLOUR_RGB('',0.509803950786591,0.509803950786591,0.588235318660736);
#470=COLOUR_RGB('',0.509803950786591,0.509803950786591,0.588235318660736);
#471=COLOUR_RGB('',0.509803950786591,0.509803950786591,0.588235318660736);
#472=COLOUR_RGB('',0.509803950786591,0.509803950786591,0.588235318660736);
#473=COLOUR_RGB('',0.509803950786591,0.509803950786591,0.588235318660736);
ENDSEC;
END-ISO-10303-21;
