ISO-10303-21;
HEADER;
FILE_DESCRIPTION(('STEP AP214'),'1');
FILE_NAME(' ','  ',('TraceParts'),('TraceParts S.A.'),'XStep 1.0',' ',' ');
FILE_SCHEMA(('automotive_design'));
ENDSEC;
DATA;
#1=MECHANICAL_DESIGN_GEOMETRIC_PRESENTATION_REPRESENTATION(' ',(#10,#11,#12,#13,#14,#15,#16,#17,#18,#19,#20,#21,#22,#23,#24,#25,#26,#27,#28,#29,#30,#31,#32,#33,#34,#35,#36,#37,#38,#39,#40,#41,#42,#43,#44,#45),#6);
#2=PRODUCT_DEFINITION_CONTEXT('',#46,'design');
#3=APPLICATION_PROTOCOL_DEFINITION('INTERNATIONAL STANDARD','automotive_design',1994,#46);
#4=PRODUCT_CATEGORY_RELATIONSHIP('NONE','NONE',#47,#48);
#5=SHAPE_DEFINITION_REPRESENTATION(#49,#50);
#6= (GEOMETRIC_REPRESENTATION_CONTEXT(3)GLOBAL_UNCERTAINTY_ASSIGNED_CONTEXT((#53))GLOBAL_UNIT_ASSIGNED_CONTEXT((#55,#56,#57))REPRESENTATION_CONTEXT('NONE','WORKSPACE'));
#10=STYLED_ITEM('',(#59),#60);
#11=STYLED_ITEM('',(#61),#62);
#12=STYLED_ITEM('',(#63),#64);
#13=STYLED_ITEM('',(#65),#66);
#14=STYLED_ITEM('',(#67),#68);
#15=STYLED_ITEM('',(#69),#70);
#16=STYLED_ITEM('',(#71),#72);
#17=STYLED_ITEM('',(#73),#74);
#18=STYLED_ITEM('',(#75),#76);
#19=STYLED_ITEM('',(#77),#78);
#20=STYLED_ITEM('',(#79),#80);
#21=STYLED_ITEM('',(#81),#82);
#22=STYLED_ITEM('',(#83),#84);
#23=STYLED_ITEM('',(#85),#86);
#24=STYLED_ITEM('',(#87),#88);
#25=STYLED_ITEM('',(#89),#90);
#26=STYLED_ITEM('',(#91),#92);
#27=STYLED_ITEM('',(#93),#94);
#28=STYLED_ITEM('',(#95),#96);
#29=STYLED_ITEM('',(#97),#98);
#30=STYLED_ITEM('',(#99),#100);
#31=STYLED_ITEM('',(#101),#102);
#32=STYLED_ITEM('',(#103),#104);
#33=STYLED_ITEM('',(#105),#106);
#34=STYLED_ITEM('',(#107),#108);
#35=STYLED_ITEM('',(#109),#110);
#36=STYLED_ITEM('',(#111),#112);
#37=STYLED_ITEM('',(#113),#114);
#38=STYLED_ITEM('',(#115),#116);
#39=STYLED_ITEM('',(#117),#118);
#40=STYLED_ITEM('',(#119),#120);
#41=STYLED_ITEM('',(#121),#122);
#42=STYLED_ITEM('',(#123),#124);
#43=STYLED_ITEM('',(#125),#126);
#44=STYLED_ITEM('',(#127),#128);
#45=STYLED_ITEM('',(#129),#130);
#46=APPLICATION_CONTEXT(' ');
#47=PRODUCT_CATEGORY('part','NONE');
#48=PRODUCT_RELATED_PRODUCT_CATEGORY('detail',' ',(#131));
#49=PRODUCT_DEFINITION_SHAPE('NONE','NONE',#132);
#50=ADVANCED_BREP_SHAPE_REPRESENTATION('1',(#118,#133),#6);
#53=UNCERTAINTY_MEASURE_WITH_UNIT(LENGTH_MEASURE(1.0E-006),#55,'','');
#55= (CONVERSION_BASED_UNIT('MILLIMETRE',#136)LENGTH_UNIT()NAMED_UNIT(#139));
#56= (NAMED_UNIT(#141)PLANE_ANGLE_UNIT()SI_UNIT($,.RADIAN.));
#57= (NAMED_UNIT(#141)SOLID_ANGLE_UNIT()SI_UNIT($,.STERADIAN.));
#59=PRESENTATION_STYLE_ASSIGNMENT((#147));
#60=ADVANCED_FACE('',(#148),#149,.F.);
#61=PRESENTATION_STYLE_ASSIGNMENT((#150));
#62=EDGE_CURVE('',#76,#124,#151,.T.);
#63=PRESENTATION_STYLE_ASSIGNMENT((#152));
#64=EDGE_CURVE('',#122,#100,#153,.T.);
#65=PRESENTATION_STYLE_ASSIGNMENT((#154));
#66=VERTEX_POINT('',#155);
#67=PRESENTATION_STYLE_ASSIGNMENT((#156));
#68=ADVANCED_FACE('',(#157),#158,.F.);
#69=PRESENTATION_STYLE_ASSIGNMENT((#159));
#70=EDGE_CURVE('',#100,#66,#160,.T.);
#71=PRESENTATION_STYLE_ASSIGNMENT((#161));
#72=ADVANCED_FACE('',(#162),#163,.F.);
#73=PRESENTATION_STYLE_ASSIGNMENT((#164));
#74=ADVANCED_FACE('',(#165),#166,.F.);
#75=PRESENTATION_STYLE_ASSIGNMENT((#167));
#76=VERTEX_POINT('',#168);
#77=PRESENTATION_STYLE_ASSIGNMENT((#169));
#78=ADVANCED_FACE('',(#170),#171,.T.);
#79=PRESENTATION_STYLE_ASSIGNMENT((#172));
#80=EDGE_CURVE('',#98,#116,#173,.T.);
#81=PRESENTATION_STYLE_ASSIGNMENT((#174));
#82=EDGE_CURVE('',#110,#88,#175,.T.);
#83=PRESENTATION_STYLE_ASSIGNMENT((#176));
#84=ADVANCED_FACE('',(#177),#178,.F.);
#85=PRESENTATION_STYLE_ASSIGNMENT((#179));
#86=EDGE_CURVE('',#116,#98,#180,.T.);
#87=PRESENTATION_STYLE_ASSIGNMENT((#181));
#88=VERTEX_POINT('',#182);
#89=PRESENTATION_STYLE_ASSIGNMENT((#183));
#90=ADVANCED_FACE('',(#184,#185),#186,.T.);
#91=PRESENTATION_STYLE_ASSIGNMENT((#187));
#92=EDGE_CURVE('',#98,#126,#188,.T.);
#93=PRESENTATION_STYLE_ASSIGNMENT((#189));
#94=ADVANCED_FACE('',(#190),#191,.T.);
#95=PRESENTATION_STYLE_ASSIGNMENT((#192));
#96=ADVANCED_FACE('',(#193),#194,.F.);
#97=PRESENTATION_STYLE_ASSIGNMENT((#195));
#98=VERTEX_POINT('',#196);
#99=PRESENTATION_STYLE_ASSIGNMENT((#197));
#100=VERTEX_POINT('',#198);
#101=PRESENTATION_STYLE_ASSIGNMENT((#199));
#102=EDGE_CURVE('',#124,#88,#200,.T.);
#103=PRESENTATION_STYLE_ASSIGNMENT((#201));
#104=EDGE_CURVE('',#100,#122,#202,.T.);
#105=PRESENTATION_STYLE_ASSIGNMENT((#203));
#106=EDGE_CURVE('',#88,#110,#204,.T.);
#107=PRESENTATION_STYLE_ASSIGNMENT((#205));
#108=EDGE_CURVE('',#110,#76,#206,.T.);
#109=PRESENTATION_STYLE_ASSIGNMENT((#207));
#110=VERTEX_POINT('',#208);
#111=PRESENTATION_STYLE_ASSIGNMENT((#209));
#112=EDGE_CURVE('',#122,#110,#210,.T.);
#113=PRESENTATION_STYLE_ASSIGNMENT((#211));
#114=EDGE_CURVE('',#126,#116,#212,.T.);
#115=PRESENTATION_STYLE_ASSIGNMENT((#213));
#116=VERTEX_POINT('',#214);
#117=PRESENTATION_STYLE_ASSIGNMENT((#215));
#118=MANIFOLD_SOLID_BREP('1',#216);
#119=PRESENTATION_STYLE_ASSIGNMENT((#217));
#120=EDGE_CURVE('',#88,#100,#218,.T.);
#121=PRESENTATION_STYLE_ASSIGNMENT((#219));
#122=VERTEX_POINT('',#220);
#123=PRESENTATION_STYLE_ASSIGNMENT((#221));
#124=VERTEX_POINT('',#222);
#125=PRESENTATION_STYLE_ASSIGNMENT((#223));
#126=VERTEX_POINT('',#224);
#127=PRESENTATION_STYLE_ASSIGNMENT((#225));
#128=EDGE_CURVE('',#66,#122,#226,.T.);
#129=PRESENTATION_STYLE_ASSIGNMENT((#227));
#130=EDGE_CURVE('',#124,#76,#228,.T.);
#131=PRODUCT('1','1','PART-1-DESC',(#229));
#132=PRODUCT_DEFINITION('NONE','NONE',#230,#2);
#133=AXIS2_PLACEMENT_3D('',#231,#232,#233);
#136=LENGTH_MEASURE_WITH_UNIT(LENGTH_MEASURE(1.0),#234);
#139=DIMENSIONAL_EXPONENTS(1.0,0.0,0.0,0.0,0.0,0.0,0.0);
#141=DIMENSIONAL_EXPONENTS(0.0,0.0,0.0,0.0,0.0,0.0,0.0);
#147=SURFACE_STYLE_USAGE(.BOTH.,#235);
#148=FACE_OUTER_BOUND('',#236,.T.);
#149=CYLINDRICAL_SURFACE('',#237,1.65000000000001);
#150=CURVE_STYLE('',#238,POSITIVE_LENGTH_MEASURE(1.0E-006),#239);
#151=CIRCLE('',#240,1.99999999999997);
#152=CURVE_STYLE('',#241,POSITIVE_LENGTH_MEASURE(1.0E-006),#242);
#153=CIRCLE('',#243,1.65000000000001);
#154=POINT_STYLE(' ',#244,POSITIVE_LENGTH_MEASURE(1.0E-006),#245);
#155=CARTESIAN_POINT('',(-5.6843418860808E-014,2.1510387734278E-014,8.25262794416287));
#156=SURFACE_STYLE_USAGE(.BOTH.,#246);
#157=FACE_OUTER_BOUND('',#247,.T.);
#158=CONICAL_SURFACE('',#248,1.82499999999999,0.785398163397448);
#159=CURVE_STYLE('',#249,POSITIVE_LENGTH_MEASURE(1.0E-006),#250);
#160=LINE('',#251,#252);
#161=SURFACE_STYLE_USAGE(.BOTH.,#253);
#162=FACE_OUTER_BOUND('',#254,.T.);
#163=CYLINDRICAL_SURFACE('',#255,1.65000000000001);
#164=SURFACE_STYLE_USAGE(.BOTH.,#256);
#165=FACE_OUTER_BOUND('',#257,.T.);
#166=CONICAL_SURFACE('',#258,0.825000000000003,1.0471975511966);
#167=POINT_STYLE(' ',#259,POSITIVE_LENGTH_MEASURE(1.0E-006),#260);
#168=CARTESIAN_POINT('',(1.99999999999991,2.20156987650857E-014,-6.03961325396085E-014));
#169=SURFACE_STYLE_USAGE(.BOTH.,#261);
#170=FACE_OUTER_BOUND('',#262,.T.);
#171=SPHERICAL_SURFACE('',#263,8.00000000000001);
#172=CURVE_STYLE('',#264,POSITIVE_LENGTH_MEASURE(1.0E-006),#265);
#173=CIRCLE('',#266,3.87298334620742);
#174=CURVE_STYLE('',#267,POSITIVE_LENGTH_MEASURE(1.0E-006),#268);
#175=CIRCLE('',#269,1.65000000000001);
#176=SURFACE_STYLE_USAGE(.BOTH.,#270);
#177=FACE_OUTER_BOUND('',#271,.T.);
#178=CONICAL_SURFACE('',#272,1.82499999999999,0.785398163397448);
#179=CURVE_STYLE('',#273,POSITIVE_LENGTH_MEASURE(1.0E-006),#274);
#180=CIRCLE('',#275,3.87298334620742);
#181=POINT_STYLE(' ',#276,POSITIVE_LENGTH_MEASURE(1.0E-006),#277);
#182=CARTESIAN_POINT('',(-1.65000000000006,2.08950201529574E-014,0.349999999999906));
#183=SURFACE_STYLE_USAGE(.BOTH.,#278);
#184=FACE_BOUND('',#279,.T.);
#185=FACE_OUTER_BOUND('',#280,.T.);
#186=PLANE('',#281);
#187=CURVE_STYLE('',#282,POSITIVE_LENGTH_MEASURE(1.0E-006),#283);
#188=CIRCLE('',#284,8.00000000000001);
#189=SURFACE_STYLE_USAGE(.BOTH.,#285);
#190=FACE_OUTER_BOUND('',#286,.T.);
#191=SPHERICAL_SURFACE('',#287,8.00000000000001);
#192=SURFACE_STYLE_USAGE(.BOTH.,#288);
#193=FACE_OUTER_BOUND('',#289,.T.);
#194=CONICAL_SURFACE('',#290,0.825000000000003,1.0471975511966);
#195=POINT_STYLE(' ',#291,POSITIVE_LENGTH_MEASURE(1.0E-006),#292);
#196=CARTESIAN_POINT('',(3.87298334620736,2.20156987650857E-014,-6.92779167366098E-014));
#197=POINT_STYLE(' ',#293,POSITIVE_LENGTH_MEASURE(1.0E-006),#294);
#198=CARTESIAN_POINT('',(-1.65000000000006,2.08950201529574E-014,7.29999999999995));
#199=CURVE_STYLE('',#295,POSITIVE_LENGTH_MEASURE(1.0E-006),#296);
#200=LINE('',#297,#298);
#201=CURVE_STYLE('',#299,POSITIVE_LENGTH_MEASURE(1.0E-006),#300);
#202=CIRCLE('',#301,1.65000000000001);
#203=CURVE_STYLE('',#302,POSITIVE_LENGTH_MEASURE(1.0E-006),#303);
#204=CIRCLE('',#304,1.65000000000001);
#205=CURVE_STYLE('',#305,POSITIVE_LENGTH_MEASURE(1.0E-006),#306);
#206=LINE('',#307,#308);
#207=POINT_STYLE(' ',#309,POSITIVE_LENGTH_MEASURE(1.0E-006),#310);
#208=CARTESIAN_POINT('',(1.64999999999995,2.19942681538938E-014,0.349999999999906));
#209=CURVE_STYLE('',#311,POSITIVE_LENGTH_MEASURE(1.0E-006),#312);
#210=LINE('',#313,#314);
#211=CURVE_STYLE('',#315,POSITIVE_LENGTH_MEASURE(1.0E-006),#316);
#212=CIRCLE('',#317,8.00000000000001);
#213=POINT_STYLE(' ',#318,POSITIVE_LENGTH_MEASURE(1.0E-006),#319);
#214=CARTESIAN_POINT('',(-3.87298334620747,2.11127985398465E-014,-6.92779167366098E-014));
#215=SURFACE_STYLE_USAGE(.BOTH.,#320);
#216=CLOSED_SHELL('',(#96,#60,#68,#94,#78,#90,#84,#72,#74));
#217=CURVE_STYLE('',#321,POSITIVE_LENGTH_MEASURE(1.0E-006),#322);
#218=LINE('',#323,#324);
#219=POINT_STYLE(' ',#325,POSITIVE_LENGTH_MEASURE(1.0E-006),#326);
#220=CARTESIAN_POINT('',(1.64999999999995,2.15687174459405E-014,7.29999999999995));
#221=POINT_STYLE(' ',#327,POSITIVE_LENGTH_MEASURE(1.0E-006),#328);
#222=CARTESIAN_POINT('',(-2.00000000000003,2.08521241854625E-014,-6.03961325396085E-014));
#223=POINT_STYLE(' ',#329,POSITIVE_LENGTH_MEASURE(1.0E-006),#330);
#224=CARTESIAN_POINT('',(-5.6843418860808E-014,2.10972439997189E-014,14.9999999999999));
#225=CURVE_STYLE('',#331,POSITIVE_LENGTH_MEASURE(1.0E-006),#332);
#226=LINE('',#333,#334);
#227=CURVE_STYLE('',#335,POSITIVE_LENGTH_MEASURE(1.0E-006),#336);
#228=CIRCLE('',#337,1.99999999999997);
#229=PRODUCT_CONTEXT('',#46,'mechanical');
#230=PRODUCT_DEFINITION_FORMATION_WITH_SPECIFIED_SOURCE(' ','NONE',#131,.NOT_KNOWN.);
#231=CARTESIAN_POINT('',(0.0,0.0,0.0));
#232=DIRECTION('',(0.0,0.0,1.0));
#233=DIRECTION('',(1.0,0.0,0.0));
#234= (NAMED_UNIT(#139)LENGTH_UNIT()SI_UNIT(.MILLI.,.METRE.));
#235=SURFACE_SIDE_STYLE('',(#339));
#236=EDGE_LOOP('',(#340,#341,#342,#343));
#237=AXIS2_PLACEMENT_3D('',#344,#345,#346);
#238=DRAUGHTING_PRE_DEFINED_CURVE_FONT('continuous');
#239=COLOUR_RGB('',0.509803950786591,0.509803950786591,0.588235318660736);
#240=AXIS2_PLACEMENT_3D('',#347,#348,#349);
#241=DRAUGHTING_PRE_DEFINED_CURVE_FONT('continuous');
#242=COLOUR_RGB('',0.509803950786591,0.509803950786591,0.588235318660736);
#243=AXIS2_PLACEMENT_3D('',#350,#351,#352);
#244=PRE_DEFINED_MARKER('');
#245=COLOUR_RGB('',0.509803950786591,0.509803950786591,0.588235318660736);
#246=SURFACE_SIDE_STYLE('',(#353));
#247=EDGE_LOOP('',(#354,#355,#356,#357));
#248=AXIS2_PLACEMENT_3D('',#358,#359,#360);
#249=DRAUGHTING_PRE_DEFINED_CURVE_FONT('continuous');
#250=COLOUR_RGB('',0.509803950786591,0.509803950786591,0.588235318660736);
#251=CARTESIAN_POINT('',(-0.82500000000006,2.09961320763381E-014,7.77631397208141));
#252=VECTOR('',#361,1.0);
#253=SURFACE_SIDE_STYLE('',(#362));
#254=EDGE_LOOP('',(#363,#364,#365,#366));
#255=AXIS2_PLACEMENT_3D('',#367,#368,#369);
#256=SURFACE_SIDE_STYLE('',(#370));
#257=EDGE_LOOP('',(#371,#372,#373));
#258=AXIS2_PLACEMENT_3D('',#374,#375,#376);
#259=PRE_DEFINED_MARKER('');
#260=COLOUR_RGB('',0.509803950786591,0.509803950786591,0.588235318660736);
#261=SURFACE_SIDE_STYLE('',(#377));
#262=EDGE_LOOP('',(#378,#379,#380));
#263=AXIS2_PLACEMENT_3D('',#381,#382,#383);
#264=DRAUGHTING_PRE_DEFINED_CURVE_FONT('continuous');
#265=COLOUR_RGB('',0.509803950786591,0.509803950786591,0.588235318660736);
#266=AXIS2_PLACEMENT_3D('',#384,#385,#386);
#267=DRAUGHTING_PRE_DEFINED_CURVE_FONT('continuous');
#268=COLOUR_RGB('',0.509803950786591,0.509803950786591,0.588235318660736);
#269=AXIS2_PLACEMENT_3D('',#387,#388,#389);
#270=SURFACE_SIDE_STYLE('',(#390));
#271=EDGE_LOOP('',(#391,#392,#393,#394));
#272=AXIS2_PLACEMENT_3D('',#395,#396,#397);
#273=DRAUGHTING_PRE_DEFINED_CURVE_FONT('continuous');
#274=COLOUR_RGB('',0.509803950786591,0.509803950786591,0.588235318660736);
#275=AXIS2_PLACEMENT_3D('',#398,#399,#400);
#276=PRE_DEFINED_MARKER('');
#277=COLOUR_RGB('',0.509803950786591,0.509803950786591,0.588235318660736);
#278=SURFACE_SIDE_STYLE('',(#401));
#279=EDGE_LOOP('',(#402,#403));
#280=EDGE_LOOP('',(#404,#405));
#281=AXIS2_PLACEMENT_3D('',#406,#407,#408);
#282=DRAUGHTING_PRE_DEFINED_CURVE_FONT('continuous');
#283=COLOUR_RGB('',0.509803950786591,0.509803950786591,0.588235318660736);
#284=AXIS2_PLACEMENT_3D('',#409,#410,#411);
#285=SURFACE_SIDE_STYLE('',(#412));
#286=EDGE_LOOP('',(#413,#414,#415));
#287=AXIS2_PLACEMENT_3D('',#416,#417,#418);
#288=SURFACE_SIDE_STYLE('',(#419));
#289=EDGE_LOOP('',(#420,#421,#422));
#290=AXIS2_PLACEMENT_3D('',#423,#424,#425);
#291=PRE_DEFINED_MARKER('');
#292=COLOUR_RGB('',0.509803950786591,0.509803950786591,0.588235318660736);
#293=PRE_DEFINED_MARKER('');
#294=COLOUR_RGB('',0.509803950786591,0.509803950786591,0.588235318660736);
#295=DRAUGHTING_PRE_DEFINED_CURVE_FONT('continuous');
#296=COLOUR_RGB('',0.509803950786591,0.509803950786591,0.588235318660736);
#297=CARTESIAN_POINT('',(-1.82500000000005,2.087357216921E-014,0.174999999999923));
#298=VECTOR('',#426,1.0);
#299=DRAUGHTING_PRE_DEFINED_CURVE_FONT('continuous');
#300=COLOUR_RGB('',0.509803950786591,0.509803950786591,0.588235318660736);
#301=AXIS2_PLACEMENT_3D('',#427,#428,#429);
#302=DRAUGHTING_PRE_DEFINED_CURVE_FONT('continuous');
#303=COLOUR_RGB('',0.509803950786591,0.509803950786591,0.588235318660736);
#304=AXIS2_PLACEMENT_3D('',#430,#431,#432);
#305=DRAUGHTING_PRE_DEFINED_CURVE_FONT('continuous');
#306=COLOUR_RGB('',0.509803950786591,0.509803950786591,0.588235318660736);
#307=CARTESIAN_POINT('',(1.82499999999993,2.13209158302278E-014,0.174999999999923));
#308=VECTOR('',#433,1.0);
#309=PRE_DEFINED_MARKER('');
#310=COLOUR_RGB('',0.509803950786591,0.509803950786591,0.588235318660736);
#311=DRAUGHTING_PRE_DEFINED_CURVE_FONT('continuous');
#312=COLOUR_RGB('',0.509803950786591,0.509803950786591,0.588235318660736);
#313=CARTESIAN_POINT('',(1.64999999999995,2.12994678464804E-014,3.82499999999993));
#314=VECTOR('',#434,1.0);
#315=DRAUGHTING_PRE_DEFINED_CURVE_FONT('continuous');
#316=COLOUR_RGB('',0.509803950786591,0.509803950786591,0.588235318660736);
#317=AXIS2_PLACEMENT_3D('',#435,#436,#437);
#318=PRE_DEFINED_MARKER('');
#319=COLOUR_RGB('',0.509803950786591,0.509803950786591,0.588235318660736);
#320=SURFACE_SIDE_STYLE('',(#438));
#321=DRAUGHTING_PRE_DEFINED_CURVE_FONT('continuous');
#322=COLOUR_RGB('',0.509803950786591,0.509803950786591,0.588235318660736);
#323=CARTESIAN_POINT('',(-1.65000000000006,2.08950201529574E-014,3.82499999999993));
#324=VECTOR('',#439,1.0);
#325=PRE_DEFINED_MARKER('');
#326=COLOUR_RGB('',0.509803950786591,0.509803950786591,0.588235318660736);
#327=PRE_DEFINED_MARKER('');
#328=COLOUR_RGB('',0.509803950786591,0.509803950786591,0.588235318660736);
#329=PRE_DEFINED_MARKER('');
#330=COLOUR_RGB('',0.509803950786591,0.509803950786591,0.588235318660736);
#331=DRAUGHTING_PRE_DEFINED_CURVE_FONT('continuous');
#332=COLOUR_RGB('',0.509803950786591,0.509803950786591,0.588235318660736);
#333=CARTESIAN_POINT('',(0.824999999999946,2.11983559230996E-014,7.77631397208141));
#334=VECTOR('',#440,1.0);
#335=DRAUGHTING_PRE_DEFINED_CURVE_FONT('continuous');
#336=COLOUR_RGB('',0.509803950786591,0.509803950786591,0.588235318660736);
#337=AXIS2_PLACEMENT_3D('',#441,#442,#443);
#339=SURFACE_STYLE_FILL_AREA(#444);
#340=ORIENTED_EDGE('',*,*,#112,.F.);
#341=ORIENTED_EDGE('',*,*,#104,.F.);
#342=ORIENTED_EDGE('',*,*,#120,.F.);
#343=ORIENTED_EDGE('',*,*,#106,.T.);
#344=CARTESIAN_POINT('',(-5.6843418860808E-014,2.10972439997189E-014,3.82499999999993));
#345=DIRECTION('',(-0.0,-0.0,1.0));
#346=DIRECTION('',(1.0,9.92717459391437E-020,0.0));
#347=CARTESIAN_POINT('',(-5.6843418860808E-014,2.10972439997189E-014,-6.03961325396085E-014));
#348=DIRECTION('',(0.0,0.0,-1.0));
#349=DIRECTION('',(1.0,9.92717459391437E-020,0.0));
#350=CARTESIAN_POINT('',(-5.6843418860808E-014,2.10972439997189E-014,7.29999999999995));
#351=DIRECTION('',(0.0,0.0,-1.0));
#352=DIRECTION('',(1.0,9.92717459391437E-020,0.0));
#353=SURFACE_STYLE_FILL_AREA(#445);
#354=ORIENTED_EDGE('',*,*,#108,.F.);
#355=ORIENTED_EDGE('',*,*,#106,.F.);
#356=ORIENTED_EDGE('',*,*,#102,.F.);
#357=ORIENTED_EDGE('',*,*,#130,.T.);
#358=CARTESIAN_POINT('',(-5.6843418860808E-014,2.10972439997189E-014,0.174999999999923));
#359=DIRECTION('',(0.0,-0.0,-1.0));
#360=DIRECTION('',(1.0,9.92717459391437E-020,0.0));
#361=DIRECTION('',(0.866025403784439,1.06139993058461E-016,0.5));
#362=SURFACE_STYLE_FILL_AREA(#446);
#363=ORIENTED_EDGE('',*,*,#112,.T.);
#364=ORIENTED_EDGE('',*,*,#82,.T.);
#365=ORIENTED_EDGE('',*,*,#120,.T.);
#366=ORIENTED_EDGE('',*,*,#64,.F.);
#367=CARTESIAN_POINT('',(-5.6843418860808E-014,2.10972439997189E-014,3.82499999999993));
#368=DIRECTION('',(-0.0,-0.0,1.0));
#369=DIRECTION('',(1.0,9.92717459391437E-020,0.0));
#370=SURFACE_STYLE_FILL_AREA(#447);
#371=ORIENTED_EDGE('',*,*,#70,.F.);
#372=ORIENTED_EDGE('',*,*,#104,.T.);
#373=ORIENTED_EDGE('',*,*,#128,.F.);
#374=CARTESIAN_POINT('',(-5.6843418860808E-014,2.10972439997189E-014,7.77631397208141));
#375=DIRECTION('',(0.0,-0.0,-1.0));
#376=DIRECTION('',(1.0,9.92717459391437E-020,0.0));
#377=SURFACE_STYLE_FILL_AREA(#448);
#378=ORIENTED_EDGE('',*,*,#114,.T.);
#379=ORIENTED_EDGE('',*,*,#80,.F.);
#380=ORIENTED_EDGE('',*,*,#92,.T.);
#381=CARTESIAN_POINT('',(-5.29847770596664E-014,2.15870865412478E-014,6.99999999999994));
#382=DIRECTION('',(0.0,0.0,-1.0));
#383=DIRECTION('',(-1.0,0.0,0.0));
#384=CARTESIAN_POINT('',(-5.6843418860808E-014,2.10972439997189E-014,-6.92779167366098E-014));
#385=DIRECTION('',(0.0,0.0,-1.0));
#386=DIRECTION('',(1.0,9.92717459391437E-020,0.0));
#387=CARTESIAN_POINT('',(-5.6843418860808E-014,2.10972439997189E-014,0.349999999999906));
#388=DIRECTION('',(0.0,0.0,-1.0));
#389=DIRECTION('',(1.0,9.92717459391437E-020,0.0));
#390=SURFACE_STYLE_FILL_AREA(#449);
#391=ORIENTED_EDGE('',*,*,#108,.T.);
#392=ORIENTED_EDGE('',*,*,#62,.T.);
#393=ORIENTED_EDGE('',*,*,#102,.T.);
#394=ORIENTED_EDGE('',*,*,#82,.F.);
#395=CARTESIAN_POINT('',(-5.6843418860808E-014,2.10972439997189E-014,0.174999999999923));
#396=DIRECTION('',(0.0,-0.0,-1.0));
#397=DIRECTION('',(1.0,9.92717459391437E-020,0.0));
#398=CARTESIAN_POINT('',(-5.6843418860808E-014,2.10972439997189E-014,-6.92779167366098E-014));
#399=DIRECTION('',(0.0,0.0,-1.0));
#400=DIRECTION('',(1.0,9.92717459391437E-020,0.0));
#401=SURFACE_STYLE_FILL_AREA(#450);
#402=ORIENTED_EDGE('',*,*,#62,.F.);
#403=ORIENTED_EDGE('',*,*,#130,.F.);
#404=ORIENTED_EDGE('',*,*,#80,.T.);
#405=ORIENTED_EDGE('',*,*,#86,.T.);
#406=CARTESIAN_POINT('',(2.93649167310364,2.20156987650857E-014,-6.3948846218409E-014));
#407=DIRECTION('',(0.0,0.0,-1.0));
#408=DIRECTION('',(-1.0,0.0,0.0));
#409=CARTESIAN_POINT('',(-5.29847770596664E-014,2.15870865412478E-014,6.99999999999994));
#410=DIRECTION('',(1.22460635382238E-016,-1.0,0.0));
#411=DIRECTION('',(0.0,0.0,1.0));
#412=SURFACE_STYLE_FILL_AREA(#451);
#413=ORIENTED_EDGE('',*,*,#114,.F.);
#414=ORIENTED_EDGE('',*,*,#92,.F.);
#415=ORIENTED_EDGE('',*,*,#86,.F.);
#416=CARTESIAN_POINT('',(-5.29847770596664E-014,2.15870865412478E-014,6.99999999999994));
#417=DIRECTION('',(0.0,0.0,-1.0));
#418=DIRECTION('',(-1.0,0.0,0.0));
#419=SURFACE_STYLE_FILL_AREA(#452);
#420=ORIENTED_EDGE('',*,*,#70,.T.);
#421=ORIENTED_EDGE('',*,*,#128,.T.);
#422=ORIENTED_EDGE('',*,*,#64,.T.);
#423=CARTESIAN_POINT('',(-5.6843418860808E-014,2.10972439997189E-014,7.77631397208141));
#424=DIRECTION('',(0.0,-0.0,-1.0));
#425=DIRECTION('',(1.0,9.92717459391437E-020,0.0));
#426=DIRECTION('',(0.707106781186548,8.6662941431927E-017,0.707106781186547));
#427=CARTESIAN_POINT('',(-5.6843418860808E-014,2.10972439997189E-014,7.29999999999995));
#428=DIRECTION('',(0.0,0.0,-1.0));
#429=DIRECTION('',(1.0,9.92717459391437E-020,0.0));
#430=CARTESIAN_POINT('',(-5.6843418860808E-014,2.10972439997189E-014,0.349999999999906));
#431=DIRECTION('',(0.0,0.0,-1.0));
#432=DIRECTION('',(1.0,9.92717459391437E-020,0.0));
#433=DIRECTION('',(0.707106781186548,8.6662941431927E-017,-0.707106781186547));
#434=DIRECTION('',(-0.0,-0.0,-1.0));
#435=CARTESIAN_POINT('',(-5.29847770596664E-014,2.15870865412478E-014,6.99999999999994));
#436=DIRECTION('',(1.22460635382238E-016,-1.0,0.0));
#437=DIRECTION('',(0.0,0.0,1.0));
#438=SURFACE_STYLE_FILL_AREA(#453);
#439=DIRECTION('',(-0.0,-0.0,1.0));
#440=DIRECTION('',(0.866025403784439,1.06139993058461E-016,-0.5));
#441=CARTESIAN_POINT('',(-5.6843418860808E-014,2.10972439997189E-014,-6.03961325396085E-014));
#442=DIRECTION('',(0.0,0.0,-1.0));
#443=DIRECTION('',(1.0,9.92717459391437E-020,0.0));
#444=FILL_AREA_STYLE('',(#454));
#445=FILL_AREA_STYLE('',(#455));
#446=FILL_AREA_STYLE('',(#456));
#447=FILL_AREA_STYLE('',(#457));
#448=FILL_AREA_STYLE('',(#458));
#449=FILL_AREA_STYLE('',(#459));
#450=FILL_AREA_STYLE('',(#460));
#451=FILL_AREA_STYLE('',(#461));
#452=FILL_AREA_STYLE('',(#462));
#453=FILL_AREA_STYLE('',(#463));
#454=FILL_AREA_STYLE_COLOUR('',#464);
#455=FILL_AREA_STYLE_COLOUR('',#465);
#456=FILL_AREA_STYLE_COLOUR('',#466);
#457=FILL_AREA_STYLE_COLOUR('',#467);
#458=FILL_AREA_STYLE_COLOUR('',#468);
#459=FILL_AREA_STYLE_COLOUR('',#469);
#460=FILL_AREA_STYLE_COLOUR('',#470);
#461=FILL_AREA_STYLE_COLOUR('',#471);
#462=FILL_AREA_STYLE_COLOUR('',#472);
#463=FILL_AREA_STYLE_COLOUR('',#473);
#464=COLOUR_RGB('',0.509803950786591,0.509803950786591,0.588235318660736);
#465=COLOUR_RGB('',0.509803950786591,0.509803950786591,0.588235318660736);
#466=COLOUR_RGB('',0.509803950786591,0.509803950786591,0.588235318660736);
#467=COLOUR_RGB('',0.509803950786591,0.509803950786591,0.588235318660736);
#468=COLOUR_RGB('',0.509803950786591,0.509803950786591,0.588235318660736);
#469=COLOUR_RGB('',0.509803950786591,0.509803950786591,0.588235318660736);
#470=COLOUR_RGB('',0.509803950786591,0.509803950786591,0.588235318660736);
#471=COLOUR_RGB('',0.509803950786591,0.509803950786591,0.588235318660736);
#472=COLOUR_RGB('',0.509803950786591,0.509803950786591,0.588235318660736);
#473=COLOUR_RGB('',0.509803950786591,0.509803950786591,0.588235318660736);
ENDSEC;
END-ISO-10303-21;
