ISO-10303-21;
HEADER;
FILE_DESCRIPTION(('STEP AP214'),'1');
FILE_NAME(' ','  ',('TraceParts'),('TraceParts S.A.'),'XStep 1.0',' ',' ');
FILE_SCHEMA(('automotive_design'));
ENDSEC;
DATA;
#1=MECHANICAL_DESIGN_GEOMETRIC_PRESENTATION_REPRESENTATION(' ',(#10,#11,#12,#13,#14,#15,#16,#17,#18,#19,#20,#21,#22,#23,#24,#25,#26,#27,#28,#29,#30,#31,#32,#33,#34,#35,#36,#37,#38,#39,#40,#41,#42,#43,#44,#45),#6);
#2=PRODUCT_DEFINITION_CONTEXT('',#46,'design');
#3=APPLICATION_PROTOCOL_DEFINITION('INTERNATIONAL STANDARD','automotive_design',1994,#46);
#4=PRODUCT_CATEGORY_RELATIONSHIP('NONE','NONE',#47,#48);
#5=SHAPE_DEFINITION_REPRESENTATION(#49,#50);
#6= (GEOMETRIC_REPRESENTATION_CONTEXT(3)GLOBAL_UNCERTAINTY_ASSIGNED_CONTEXT((#53))GLOBAL_UNIT_ASSIGNED_CONTEXT((#55,#56,#57))REPRESENTATION_CONTEXT('NONE','WORKSPACE'));
#10=STYLED_ITEM('',(#59),#60);
#11=STYLED_ITEM('',(#61),#62);
#12=STYLED_ITEM('',(#63),#64);
#13=STYLED_ITEM('',(#65),#66);
#14=STYLED_ITEM('',(#67),#68);
#15=STYLED_ITEM('',(#69),#70);
#16=STYLED_ITEM('',(#71),#72);
#17=STYLED_ITEM('',(#73),#74);
#18=STYLED_ITEM('',(#75),#76);
#19=STYLED_ITEM('',(#77),#78);
#20=STYLED_ITEM('',(#79),#80);
#21=STYLED_ITEM('',(#81),#82);
#22=STYLED_ITEM('',(#83),#84);
#23=STYLED_ITEM('',(#85),#86);
#24=STYLED_ITEM('',(#87),#88);
#25=STYLED_ITEM('',(#89),#90);
#26=STYLED_ITEM('',(#91),#92);
#27=STYLED_ITEM('',(#93),#94);
#28=STYLED_ITEM('',(#95),#96);
#29=STYLED_ITEM('',(#97),#98);
#30=STYLED_ITEM('',(#99),#100);
#31=STYLED_ITEM('',(#101),#102);
#32=STYLED_ITEM('',(#103),#104);
#33=STYLED_ITEM('',(#105),#106);
#34=STYLED_ITEM('',(#107),#108);
#35=STYLED_ITEM('',(#109),#110);
#36=STYLED_ITEM('',(#111),#112);
#37=STYLED_ITEM('',(#113),#114);
#38=STYLED_ITEM('',(#115),#116);
#39=STYLED_ITEM('',(#117),#118);
#40=STYLED_ITEM('',(#119),#120);
#41=STYLED_ITEM('',(#121),#122);
#42=STYLED_ITEM('',(#123),#124);
#43=STYLED_ITEM('',(#125),#126);
#44=STYLED_ITEM('',(#127),#128);
#45=STYLED_ITEM('',(#129),#130);
#46=APPLICATION_CONTEXT(' ');
#47=PRODUCT_CATEGORY('part','NONE');
#48=PRODUCT_RELATED_PRODUCT_CATEGORY('detail',' ',(#131));
#49=PRODUCT_DEFINITION_SHAPE('NONE','NONE',#132);
#50=ADVANCED_BREP_SHAPE_REPRESENTATION('1',(#130,#133),#6);
#53=UNCERTAINTY_MEASURE_WITH_UNIT(LENGTH_MEASURE(1.0E-006),#55,'','');
#55= (CONVERSION_BASED_UNIT('MILLIMETRE',#136)LENGTH_UNIT()NAMED_UNIT(#139));
#56= (NAMED_UNIT(#141)PLANE_ANGLE_UNIT()SI_UNIT($,.RADIAN.));
#57= (NAMED_UNIT(#141)SOLID_ANGLE_UNIT()SI_UNIT($,.STERADIAN.));
#59=PRESENTATION_STYLE_ASSIGNMENT((#147));
#60=EDGE_CURVE('',#88,#94,#148,.T.);
#61=PRESENTATION_STYLE_ASSIGNMENT((#149));
#62=EDGE_CURVE('',#114,#66,#150,.T.);
#63=PRESENTATION_STYLE_ASSIGNMENT((#151));
#64=ADVANCED_FACE('',(#152),#153,.F.);
#65=PRESENTATION_STYLE_ASSIGNMENT((#154));
#66=VERTEX_POINT('',#155);
#67=PRESENTATION_STYLE_ASSIGNMENT((#156));
#68=EDGE_CURVE('',#66,#92,#157,.T.);
#69=PRESENTATION_STYLE_ASSIGNMENT((#158));
#70=EDGE_CURVE('',#94,#88,#159,.T.);
#71=PRESENTATION_STYLE_ASSIGNMENT((#160));
#72=ADVANCED_FACE('',(#161),#162,.F.);
#73=PRESENTATION_STYLE_ASSIGNMENT((#163));
#74=EDGE_CURVE('',#114,#94,#164,.T.);
#75=PRESENTATION_STYLE_ASSIGNMENT((#165));
#76=EDGE_CURVE('',#98,#116,#166,.T.);
#77=PRESENTATION_STYLE_ASSIGNMENT((#167));
#78=ADVANCED_FACE('',(#168),#169,.F.);
#79=PRESENTATION_STYLE_ASSIGNMENT((#170));
#80=EDGE_CURVE('',#116,#98,#171,.T.);
#81=PRESENTATION_STYLE_ASSIGNMENT((#172));
#82=ADVANCED_FACE('',(#173),#174,.T.);
#83=PRESENTATION_STYLE_ASSIGNMENT((#175));
#84=VERTEX_POINT('',#176);
#85=PRESENTATION_STYLE_ASSIGNMENT((#177));
#86=EDGE_CURVE('',#84,#92,#178,.T.);
#87=PRESENTATION_STYLE_ASSIGNMENT((#179));
#88=VERTEX_POINT('',#180);
#89=PRESENTATION_STYLE_ASSIGNMENT((#181));
#90=ADVANCED_FACE('',(#182,#183),#184,.T.);
#91=PRESENTATION_STYLE_ASSIGNMENT((#185));
#92=VERTEX_POINT('',#186);
#93=PRESENTATION_STYLE_ASSIGNMENT((#187));
#94=VERTEX_POINT('',#188);
#95=PRESENTATION_STYLE_ASSIGNMENT((#189));
#96=ADVANCED_FACE('',(#190),#191,.F.);
#97=PRESENTATION_STYLE_ASSIGNMENT((#192));
#98=VERTEX_POINT('',#193);
#99=PRESENTATION_STYLE_ASSIGNMENT((#194));
#100=EDGE_CURVE('',#98,#124,#195,.T.);
#101=PRESENTATION_STYLE_ASSIGNMENT((#196));
#102=ADVANCED_FACE('',(#197),#198,.F.);
#103=PRESENTATION_STYLE_ASSIGNMENT((#199));
#104=EDGE_CURVE('',#124,#116,#200,.T.);
#105=PRESENTATION_STYLE_ASSIGNMENT((#201));
#106=ADVANCED_FACE('',(#202),#203,.T.);
#107=PRESENTATION_STYLE_ASSIGNMENT((#204));
#108=VERTEX_POINT('',#205);
#109=PRESENTATION_STYLE_ASSIGNMENT((#206));
#110=EDGE_CURVE('',#84,#114,#207,.T.);
#111=PRESENTATION_STYLE_ASSIGNMENT((#208));
#112=EDGE_CURVE('',#66,#114,#209,.T.);
#113=PRESENTATION_STYLE_ASSIGNMENT((#210));
#114=VERTEX_POINT('',#211);
#115=PRESENTATION_STYLE_ASSIGNMENT((#212));
#116=VERTEX_POINT('',#213);
#117=PRESENTATION_STYLE_ASSIGNMENT((#214));
#118=EDGE_CURVE('',#92,#108,#215,.T.);
#119=PRESENTATION_STYLE_ASSIGNMENT((#216));
#120=ADVANCED_FACE('',(#217),#218,.F.);
#121=PRESENTATION_STYLE_ASSIGNMENT((#219));
#122=EDGE_CURVE('',#108,#84,#220,.T.);
#123=PRESENTATION_STYLE_ASSIGNMENT((#221));
#124=VERTEX_POINT('',#222);
#125=PRESENTATION_STYLE_ASSIGNMENT((#223));
#126=EDGE_CURVE('',#92,#84,#224,.T.);
#127=PRESENTATION_STYLE_ASSIGNMENT((#225));
#128=EDGE_CURVE('',#88,#66,#226,.T.);
#129=PRESENTATION_STYLE_ASSIGNMENT((#227));
#130=MANIFOLD_SOLID_BREP('1',#228);
#131=PRODUCT('1','1','PART-1-DESC',(#229));
#132=PRODUCT_DEFINITION('NONE','NONE',#230,#2);
#133=AXIS2_PLACEMENT_3D('',#231,#232,#233);
#136=LENGTH_MEASURE_WITH_UNIT(LENGTH_MEASURE(1.0),#234);
#139=DIMENSIONAL_EXPONENTS(1.0,0.0,0.0,0.0,0.0,0.0,0.0);
#141=DIMENSIONAL_EXPONENTS(0.0,0.0,0.0,0.0,0.0,0.0,0.0);
#147=CURVE_STYLE('',#235,POSITIVE_LENGTH_MEASURE(1.0E-006),#236);
#148=CIRCLE('',#237,4.99999999999997);
#149=CURVE_STYLE('',#238,POSITIVE_LENGTH_MEASURE(1.0E-006),#239);
#150=CIRCLE('',#240,4.25);
#151=SURFACE_STYLE_USAGE(.BOTH.,#241);
#152=FACE_OUTER_BOUND('',#242,.T.);
#153=CONICAL_SURFACE('',#243,4.62499999999999,0.785398163397467);
#154=POINT_STYLE(' ',#244,POSITIVE_LENGTH_MEASURE(1.0E-006),#245);
#155=CARTESIAN_POINT('',(-4.25000000000006,2.05763723085429E-014,0.749999999999915));
#156=CURVE_STYLE('',#246,POSITIVE_LENGTH_MEASURE(1.0E-006),#247);
#157=LINE('',#248,#249);
#158=CURVE_STYLE('',#250,POSITIVE_LENGTH_MEASURE(1.0E-006),#251);
#159=CIRCLE('',#252,4.99999999999997);
#160=SURFACE_STYLE_USAGE(.BOTH.,#253);
#161=FACE_OUTER_BOUND('',#254,.T.);
#162=CYLINDRICAL_SURFACE('',#255,4.25);
#163=CURVE_STYLE('',#256,POSITIVE_LENGTH_MEASURE(1.0E-006),#257);
#164=LINE('',#258,#259);
#165=CURVE_STYLE('',#260,POSITIVE_LENGTH_MEASURE(1.0E-006),#261);
#166=CIRCLE('',#262,10.5356537528528);
#167=SURFACE_STYLE_USAGE(.BOTH.,#263);
#168=FACE_OUTER_BOUND('',#264,.T.);
#169=CONICAL_SURFACE('',#265,2.125,1.0471975511966);
#170=CURVE_STYLE('',#266,POSITIVE_LENGTH_MEASURE(1.0E-006),#267);
#171=CIRCLE('',#268,10.5356537528528);
#172=SURFACE_STYLE_USAGE(.BOTH.,#269);
#173=FACE_OUTER_BOUND('',#270,.T.);
#174=SPHERICAL_SURFACE('',#271,20.0);
#175=POINT_STYLE(' ',#272,POSITIVE_LENGTH_MEASURE(1.0E-006),#273);
#176=CARTESIAN_POINT('',(4.24999999999994,2.23218503535413E-014,17.0));
#177=CURVE_STYLE('',#274,POSITIVE_LENGTH_MEASURE(1.0E-006),#275);
#178=CIRCLE('',#276,4.25);
#179=POINT_STYLE(' ',#277,POSITIVE_LENGTH_MEASURE(1.0E-006),#278);
#180=CARTESIAN_POINT('',(-5.00000000000003,2.0484453774806E-014,-2.8421709430404E-014));
#181=SURFACE_STYLE_USAGE(.BOTH.,#279);
#182=FACE_BOUND('',#280,.T.);
#183=FACE_OUTER_BOUND('',#281,.T.);
#184=PLANE('',#282);
#185=POINT_STYLE(' ',#283,POSITIVE_LENGTH_MEASURE(1.0E-006),#284);
#186=CARTESIAN_POINT('',(-4.25000000000006,2.05763723085429E-014,17.0));
#187=POINT_STYLE(' ',#285,POSITIVE_LENGTH_MEASURE(1.0E-006),#286);
#188=CARTESIAN_POINT('',(4.99999999999991,2.33627657542903E-014,-2.8421709430404E-014));
#189=SURFACE_STYLE_USAGE(.BOTH.,#287);
#190=FACE_OUTER_BOUND('',#288,.T.);
#191=CYLINDRICAL_SURFACE('',#289,4.25);
#192=POINT_STYLE(' ',#290,POSITIVE_LENGTH_MEASURE(1.0E-006),#291);
#193=CARTESIAN_POINT('',(10.5356537528527,2.33627657542903E-014,-5.6843418860808E-014));
#194=CURVE_STYLE('',#292,POSITIVE_LENGTH_MEASURE(1.0E-006),#293);
#195=CIRCLE('',#294,20.0);
#196=SURFACE_STYLE_USAGE(.BOTH.,#295);
#197=FACE_OUTER_BOUND('',#296,.T.);
#198=CONICAL_SURFACE('',#297,2.125,1.0471975511966);
#199=CURVE_STYLE('',#298,POSITIVE_LENGTH_MEASURE(1.0E-006),#299);
#200=CIRCLE('',#300,20.0);
#201=SURFACE_STYLE_USAGE(.BOTH.,#301);
#202=FACE_OUTER_BOUND('',#302,.T.);
#203=SPHERICAL_SURFACE('',#303,20.0);
#204=POINT_STYLE(' ',#304,POSITIVE_LENGTH_MEASURE(1.0E-006),#305);
#205=CARTESIAN_POINT('',(-5.6843418860808E-014,2.21716071568347E-014,19.4537386440559));
#206=CURVE_STYLE('',#306,POSITIVE_LENGTH_MEASURE(1.0E-006),#307);
#207=LINE('',#308,#309);
#208=CURVE_STYLE('',#310,POSITIVE_LENGTH_MEASURE(1.0E-006),#311);
#209=CIRCLE('',#312,4.25);
#210=POINT_STYLE(' ',#313,POSITIVE_LENGTH_MEASURE(1.0E-006),#314);
#211=CARTESIAN_POINT('',(4.24999999999994,2.3316843016022E-014,0.749999999999915));
#212=POINT_STYLE(' ',#315,POSITIVE_LENGTH_MEASURE(1.0E-006),#316);
#213=CARTESIAN_POINT('',(-10.5356537528528,2.10316475007997E-014,-5.6843418860808E-014));
#214=CURVE_STYLE('',#317,POSITIVE_LENGTH_MEASURE(1.0E-006),#318);
#215=LINE('',#319,#320);
#216=SURFACE_STYLE_USAGE(.BOTH.,#321);
#217=FACE_OUTER_BOUND('',#322,.T.);
#218=CONICAL_SURFACE('',#323,4.62499999999999,0.785398163397467);
#219=CURVE_STYLE('',#324,POSITIVE_LENGTH_MEASURE(1.0E-006),#325);
#220=LINE('',#326,#327);
#221=POINT_STYLE(' ',#328,POSITIVE_LENGTH_MEASURE(1.0E-006),#329);
#222=CARTESIAN_POINT('',(-5.6843418860808E-014,2.10972439997189E-014,37.0));
#223=CURVE_STYLE('',#330,POSITIVE_LENGTH_MEASURE(1.0E-006),#331);
#224=CIRCLE('',#332,4.25);
#225=CURVE_STYLE('',#333,POSITIVE_LENGTH_MEASURE(1.0E-006),#334);
#226=LINE('',#335,#336);
#227=SURFACE_STYLE_USAGE(.BOTH.,#337);
#228=CLOSED_SHELL('',(#102,#96,#120,#106,#82,#90,#64,#72,#78));
#229=PRODUCT_CONTEXT('',#46,'mechanical');
#230=PRODUCT_DEFINITION_FORMATION_WITH_SPECIFIED_SOURCE(' ','NONE',#131,.NOT_KNOWN.);
#231=CARTESIAN_POINT('',(0.0,0.0,0.0));
#232=DIRECTION('',(0.0,0.0,1.0));
#233=DIRECTION('',(1.0,0.0,0.0));
#234= (NAMED_UNIT(#139)LENGTH_UNIT()SI_UNIT(.MILLI.,.METRE.));
#235=DRAUGHTING_PRE_DEFINED_CURVE_FONT('continuous');
#236=COLOUR_RGB('',0.509803950786591,0.509803950786591,0.588235318660736);
#237=AXIS2_PLACEMENT_3D('',#339,#340,#341);
#238=DRAUGHTING_PRE_DEFINED_CURVE_FONT('continuous');
#239=COLOUR_RGB('',0.509803950786591,0.509803950786591,0.588235318660736);
#240=AXIS2_PLACEMENT_3D('',#342,#343,#344);
#241=SURFACE_SIDE_STYLE('',(#345));
#242=EDGE_LOOP('',(#346,#347,#348,#349));
#243=AXIS2_PLACEMENT_3D('',#350,#351,#352);
#244=PRE_DEFINED_MARKER('');
#245=COLOUR_RGB('',0.509803950786591,0.509803950786591,0.588235318660736);
#246=DRAUGHTING_PRE_DEFINED_CURVE_FONT('continuous');
#247=COLOUR_RGB('',0.509803950786591,0.509803950786591,0.588235318660736);
#248=CARTESIAN_POINT('',(-4.25000000000006,2.05763723085429E-014,8.87499999999994));
#249=VECTOR('',#353,1.0);
#250=DRAUGHTING_PRE_DEFINED_CURVE_FONT('continuous');
#251=COLOUR_RGB('',0.509803950786591,0.509803950786591,0.588235318660736);
#252=AXIS2_PLACEMENT_3D('',#354,#355,#356);
#253=SURFACE_SIDE_STYLE('',(#357));
#254=EDGE_LOOP('',(#358,#359,#360,#361));
#255=AXIS2_PLACEMENT_3D('',#362,#363,#364);
#256=DRAUGHTING_PRE_DEFINED_CURVE_FONT('continuous');
#257=COLOUR_RGB('',0.509803950786591,0.509803950786591,0.588235318660736);
#258=CARTESIAN_POINT('',(4.62499999999993,2.16640749577633E-014,0.374999999999943));
#259=VECTOR('',#365,1.0);
#260=DRAUGHTING_PRE_DEFINED_CURVE_FONT('continuous');
#261=COLOUR_RGB('',0.509803950786591,0.509803950786591,0.588235318660736);
#262=AXIS2_PLACEMENT_3D('',#366,#367,#368);
#263=SURFACE_SIDE_STYLE('',(#369));
#264=EDGE_LOOP('',(#370,#371,#372));
#265=AXIS2_PLACEMENT_3D('',#373,#374,#375);
#266=DRAUGHTING_PRE_DEFINED_CURVE_FONT('continuous');
#267=COLOUR_RGB('',0.509803950786591,0.509803950786591,0.588235318660736);
#268=AXIS2_PLACEMENT_3D('',#376,#377,#378);
#269=SURFACE_SIDE_STYLE('',(#379));
#270=EDGE_LOOP('',(#380,#381,#382));
#271=AXIS2_PLACEMENT_3D('',#383,#384,#385);
#272=PRE_DEFINED_MARKER('');
#273=COLOUR_RGB('',0.509803950786591,0.509803950786591,0.588235318660736);
#274=DRAUGHTING_PRE_DEFINED_CURVE_FONT('continuous');
#275=COLOUR_RGB('',0.509803950786591,0.509803950786591,0.588235318660736);
#276=AXIS2_PLACEMENT_3D('',#386,#387,#388);
#277=PRE_DEFINED_MARKER('');
#278=COLOUR_RGB('',0.509803950786591,0.509803950786591,0.588235318660736);
#279=SURFACE_SIDE_STYLE('',(#389));
#280=EDGE_LOOP('',(#390,#391));
#281=EDGE_LOOP('',(#392,#393));
#282=AXIS2_PLACEMENT_3D('',#394,#395,#396);
#283=PRE_DEFINED_MARKER('');
#284=COLOUR_RGB('',0.509803950786591,0.509803950786591,0.588235318660736);
#285=PRE_DEFINED_MARKER('');
#286=COLOUR_RGB('',0.509803950786591,0.509803950786591,0.588235318660736);
#287=SURFACE_SIDE_STYLE('',(#397));
#288=EDGE_LOOP('',(#398,#399,#400,#401));
#289=AXIS2_PLACEMENT_3D('',#402,#403,#404);
#290=PRE_DEFINED_MARKER('');
#291=COLOUR_RGB('',0.509803950786591,0.509803950786591,0.588235318660736);
#292=DRAUGHTING_PRE_DEFINED_CURVE_FONT('continuous');
#293=COLOUR_RGB('',0.509803950786591,0.509803950786591,0.588235318660736);
#294=AXIS2_PLACEMENT_3D('',#405,#406,#407);
#295=SURFACE_SIDE_STYLE('',(#408));
#296=EDGE_LOOP('',(#409,#410,#411));
#297=AXIS2_PLACEMENT_3D('',#412,#413,#414);
#298=DRAUGHTING_PRE_DEFINED_CURVE_FONT('continuous');
#299=COLOUR_RGB('',0.509803950786591,0.509803950786591,0.588235318660736);
#300=AXIS2_PLACEMENT_3D('',#415,#416,#417);
#301=SURFACE_SIDE_STYLE('',(#418));
#302=EDGE_LOOP('',(#419,#420,#421));
#303=AXIS2_PLACEMENT_3D('',#422,#423,#424);
#304=PRE_DEFINED_MARKER('');
#305=COLOUR_RGB('',0.509803950786591,0.509803950786591,0.588235318660736);
#306=DRAUGHTING_PRE_DEFINED_CURVE_FONT('continuous');
#307=COLOUR_RGB('',0.509803950786591,0.509803950786591,0.588235318660736);
#308=CARTESIAN_POINT('',(4.24999999999994,2.16181156908949E-014,8.87499999999994));
#309=VECTOR('',#425,1.0);
#310=DRAUGHTING_PRE_DEFINED_CURVE_FONT('continuous');
#311=COLOUR_RGB('',0.509803950786591,0.509803950786591,0.588235318660736);
#312=AXIS2_PLACEMENT_3D('',#426,#427,#428);
#313=PRE_DEFINED_MARKER('');
#314=COLOUR_RGB('',0.509803950786591,0.509803950786591,0.588235318660736);
#315=PRE_DEFINED_MARKER('');
#316=COLOUR_RGB('',0.509803950786591,0.509803950786591,0.588235318660736);
#317=DRAUGHTING_PRE_DEFINED_CURVE_FONT('continuous');
#318=COLOUR_RGB('',0.509803950786591,0.509803950786591,0.588235318660736);
#319=CARTESIAN_POINT('',(-2.12500000000006,2.08368081541309E-014,18.2268693220279));
#320=VECTOR('',#429,1.0);
#321=SURFACE_SIDE_STYLE('',(#430));
#322=EDGE_LOOP('',(#431,#432,#433,#434));
#323=AXIS2_PLACEMENT_3D('',#435,#436,#437);
#324=DRAUGHTING_PRE_DEFINED_CURVE_FONT('continuous');
#325=COLOUR_RGB('',0.509803950786591,0.509803950786591,0.588235318660736);
#326=CARTESIAN_POINT('',(2.12499999999994,2.13576798453069E-014,18.2268693220279));
#327=VECTOR('',#438,1.0);
#328=PRE_DEFINED_MARKER('');
#329=COLOUR_RGB('',0.509803950786591,0.509803950786591,0.588235318660736);
#330=DRAUGHTING_PRE_DEFINED_CURVE_FONT('continuous');
#331=COLOUR_RGB('',0.509803950786591,0.509803950786591,0.588235318660736);
#332=AXIS2_PLACEMENT_3D('',#439,#440,#441);
#333=DRAUGHTING_PRE_DEFINED_CURVE_FONT('continuous');
#334=COLOUR_RGB('',0.509803950786591,0.509803950786591,0.588235318660736);
#335=CARTESIAN_POINT('',(-4.62500000000004,2.05304130416745E-014,0.374999999999943));
#336=VECTOR('',#442,1.0);
#337=SURFACE_SIDE_STYLE('',(#443));
#339=CARTESIAN_POINT('',(-5.6843418860808E-014,2.10972439997189E-014,-2.8421709430404E-014));
#340=DIRECTION('',(0.0,0.0,-1.0));
#341=DIRECTION('',(1.0,9.74096003418976E-020,0.0));
#342=CARTESIAN_POINT('',(-5.6843418860808E-014,2.10972439997189E-014,0.749999999999915));
#343=DIRECTION('',(0.0,0.0,-1.0));
#344=DIRECTION('',(1.0,9.74096003418976E-020,0.0));
#345=SURFACE_STYLE_FILL_AREA(#444);
#346=ORIENTED_EDGE('',*,*,#74,.T.);
#347=ORIENTED_EDGE('',*,*,#70,.T.);
#348=ORIENTED_EDGE('',*,*,#128,.T.);
#349=ORIENTED_EDGE('',*,*,#62,.F.);
#350=CARTESIAN_POINT('',(-5.6843418860808E-014,2.10972439997189E-014,0.374999999999943));
#351=DIRECTION('',(0.0,-0.0,-1.0));
#352=DIRECTION('',(1.0,9.74096003418976E-020,0.0));
#353=DIRECTION('',(-0.0,-0.0,1.0));
#354=CARTESIAN_POINT('',(-5.6843418860808E-014,2.10972439997189E-014,-2.8421709430404E-014));
#355=DIRECTION('',(0.0,0.0,-1.0));
#356=DIRECTION('',(1.0,9.74096003418976E-020,0.0));
#357=SURFACE_STYLE_FILL_AREA(#445);
#358=ORIENTED_EDGE('',*,*,#110,.T.);
#359=ORIENTED_EDGE('',*,*,#62,.T.);
#360=ORIENTED_EDGE('',*,*,#68,.T.);
#361=ORIENTED_EDGE('',*,*,#86,.F.);
#362=CARTESIAN_POINT('',(-5.6843418860808E-014,2.10972439997189E-014,8.87499999999994));
#363=DIRECTION('',(-0.0,-0.0,1.0));
#364=DIRECTION('',(1.0,9.74096003418976E-020,0.0));
#365=DIRECTION('',(0.707106781186561,8.66616246961498E-017,-0.707106781186534));
#366=CARTESIAN_POINT('',(-5.6843418860808E-014,2.10972439997189E-014,-5.6843418860808E-014));
#367=DIRECTION('',(0.0,0.0,-1.0));
#368=DIRECTION('',(1.0,9.74096003418976E-020,0.0));
#369=SURFACE_STYLE_FILL_AREA(#446);
#370=ORIENTED_EDGE('',*,*,#118,.F.);
#371=ORIENTED_EDGE('',*,*,#126,.T.);
#372=ORIENTED_EDGE('',*,*,#122,.F.);
#373=CARTESIAN_POINT('',(-5.6843418860808E-014,2.10972439997189E-014,18.2268693220279));
#374=DIRECTION('',(0.0,-0.0,-1.0));
#375=DIRECTION('',(1.0,9.74096003418976E-020,0.0));
#376=CARTESIAN_POINT('',(-5.6843418860808E-014,2.10972439997189E-014,-5.6843418860808E-014));
#377=DIRECTION('',(0.0,0.0,-1.0));
#378=DIRECTION('',(1.0,9.74096003418976E-020,0.0));
#379=SURFACE_STYLE_FILL_AREA(#447);
#380=ORIENTED_EDGE('',*,*,#104,.T.);
#381=ORIENTED_EDGE('',*,*,#76,.F.);
#382=ORIENTED_EDGE('',*,*,#100,.T.);
#383=CARTESIAN_POINT('',(-5.03071145750497E-014,2.23218503535413E-014,17.0));
#384=DIRECTION('',(0.0,0.0,-1.0));
#385=DIRECTION('',(-1.0,0.0,0.0));
#386=CARTESIAN_POINT('',(-5.6843418860808E-014,2.10972439997189E-014,17.0));
#387=DIRECTION('',(0.0,0.0,-1.0));
#388=DIRECTION('',(1.0,9.74096003418976E-020,0.0));
#389=SURFACE_STYLE_FILL_AREA(#448);
#390=ORIENTED_EDGE('',*,*,#70,.F.);
#391=ORIENTED_EDGE('',*,*,#60,.F.);
#392=ORIENTED_EDGE('',*,*,#76,.T.);
#393=ORIENTED_EDGE('',*,*,#80,.T.);
#394=CARTESIAN_POINT('',(7.76782687642631,2.33627657542903E-014,-4.2632564145606E-014));
#395=DIRECTION('',(0.0,0.0,-1.0));
#396=DIRECTION('',(-1.0,0.0,0.0));
#397=SURFACE_STYLE_FILL_AREA(#449);
#398=ORIENTED_EDGE('',*,*,#110,.F.);
#399=ORIENTED_EDGE('',*,*,#126,.F.);
#400=ORIENTED_EDGE('',*,*,#68,.F.);
#401=ORIENTED_EDGE('',*,*,#112,.T.);
#402=CARTESIAN_POINT('',(-5.6843418860808E-014,2.10972439997189E-014,8.87499999999994));
#403=DIRECTION('',(-0.0,-0.0,1.0));
#404=DIRECTION('',(1.0,9.74096003418976E-020,0.0));
#405=CARTESIAN_POINT('',(-5.03071145750497E-014,2.23218503535413E-014,17.0));
#406=DIRECTION('',(1.22460635382238E-016,-1.0,0.0));
#407=DIRECTION('',(0.0,0.0,1.0));
#408=SURFACE_STYLE_FILL_AREA(#450);
#409=ORIENTED_EDGE('',*,*,#118,.T.);
#410=ORIENTED_EDGE('',*,*,#122,.T.);
#411=ORIENTED_EDGE('',*,*,#86,.T.);
#412=CARTESIAN_POINT('',(-5.6843418860808E-014,2.10972439997189E-014,18.2268693220279));
#413=DIRECTION('',(0.0,-0.0,-1.0));
#414=DIRECTION('',(1.0,9.74096003418976E-020,0.0));
#415=CARTESIAN_POINT('',(-5.03071145750497E-014,2.23218503535413E-014,17.0));
#416=DIRECTION('',(1.22460635382238E-016,-1.0,0.0));
#417=DIRECTION('',(0.0,0.0,1.0));
#418=SURFACE_STYLE_FILL_AREA(#451);
#419=ORIENTED_EDGE('',*,*,#104,.F.);
#420=ORIENTED_EDGE('',*,*,#100,.F.);
#421=ORIENTED_EDGE('',*,*,#80,.F.);
#422=CARTESIAN_POINT('',(-5.03071145750497E-014,2.23218503535413E-014,17.0));
#423=DIRECTION('',(0.0,0.0,-1.0));
#424=DIRECTION('',(-1.0,0.0,0.0));
#425=DIRECTION('',(-0.0,-0.0,-1.0));
#426=CARTESIAN_POINT('',(-5.6843418860808E-014,2.10972439997189E-014,0.749999999999915));
#427=DIRECTION('',(0.0,0.0,-1.0));
#428=DIRECTION('',(1.0,9.74096003418976E-020,0.0));
#429=DIRECTION('',(0.866025403784438,1.0613838039307E-016,0.500000000000002));
#430=SURFACE_STYLE_FILL_AREA(#452);
#431=ORIENTED_EDGE('',*,*,#74,.F.);
#432=ORIENTED_EDGE('',*,*,#112,.F.);
#433=ORIENTED_EDGE('',*,*,#128,.F.);
#434=ORIENTED_EDGE('',*,*,#60,.T.);
#435=CARTESIAN_POINT('',(-5.6843418860808E-014,2.10972439997189E-014,0.374999999999943));
#436=DIRECTION('',(0.0,-0.0,-1.0));
#437=DIRECTION('',(1.0,9.74096003418976E-020,0.0));
#438=DIRECTION('',(0.866025403784438,1.0613838039307E-016,-0.500000000000002));
#439=CARTESIAN_POINT('',(-5.6843418860808E-014,2.10972439997189E-014,17.0));
#440=DIRECTION('',(0.0,0.0,-1.0));
#441=DIRECTION('',(1.0,9.74096003418976E-020,0.0));
#442=DIRECTION('',(0.707106781186561,8.66616246961498E-017,0.707106781186534));
#443=SURFACE_STYLE_FILL_AREA(#453);
#444=FILL_AREA_STYLE('',(#454));
#445=FILL_AREA_STYLE('',(#455));
#446=FILL_AREA_STYLE('',(#456));
#447=FILL_AREA_STYLE('',(#457));
#448=FILL_AREA_STYLE('',(#458));
#449=FILL_AREA_STYLE('',(#459));
#450=FILL_AREA_STYLE('',(#460));
#451=FILL_AREA_STYLE('',(#461));
#452=FILL_AREA_STYLE('',(#462));
#453=FILL_AREA_STYLE('',(#463));
#454=FILL_AREA_STYLE_COLOUR('',#464);
#455=FILL_AREA_STYLE_COLOUR('',#465);
#456=FILL_AREA_STYLE_COLOUR('',#466);
#457=FILL_AREA_STYLE_COLOUR('',#467);
#458=FILL_AREA_STYLE_COLOUR('',#468);
#459=FILL_AREA_STYLE_COLOUR('',#469);
#460=FILL_AREA_STYLE_COLOUR('',#470);
#461=FILL_AREA_STYLE_COLOUR('',#471);
#462=FILL_AREA_STYLE_COLOUR('',#472);
#463=FILL_AREA_STYLE_COLOUR('',#473);
#464=COLOUR_RGB('',0.509803950786591,0.509803950786591,0.588235318660736);
#465=COLOUR_RGB('',0.509803950786591,0.509803950786591,0.588235318660736);
#466=COLOUR_RGB('',0.509803950786591,0.509803950786591,0.588235318660736);
#467=COLOUR_RGB('',0.509803950786591,0.509803950786591,0.588235318660736);
#468=COLOUR_RGB('',0.509803950786591,0.509803950786591,0.588235318660736);
#469=COLOUR_RGB('',0.509803950786591,0.509803950786591,0.588235318660736);
#470=COLOUR_RGB('',0.509803950786591,0.509803950786591,0.588235318660736);
#471=COLOUR_RGB('',0.509803950786591,0.509803950786591,0.588235318660736);
#472=COLOUR_RGB('',0.509803950786591,0.509803950786591,0.588235318660736);
#473=COLOUR_RGB('',0.509803950786591,0.509803950786591,0.588235318660736);
ENDSEC;
END-ISO-10303-21;
