ISO-10303-21;
HEADER;
FILE_DESCRIPTION(('STEP AP214'),'1');
FILE_NAME(' ','  ',('TraceParts'),('TraceParts S.A.'),'XStep 1.0',' ',' ');
FILE_SCHEMA(('automotive_design'));
ENDSEC;
DATA;
#1=MECHANICAL_DESIGN_GEOMETRIC_PRESENTATION_REPRESENTATION(' ',(#10,#11,#12,#13,#14,#15,#16,#17,#18,#19,#20,#21,#22,#23,#24,#25,#26,#27,#28,#29,#30,#31,#32,#33,#34,#35,#36,#37,#38,#39,#40,#41,#42,#43,#44,#45),#6);
#2=PRODUCT_DEFINITION_CONTEXT('',#46,'design');
#3=APPLICATION_PROTOCOL_DEFINITION('INTERNATIONAL STANDARD','automotive_design',1994,#46);
#4=PRODUCT_CATEGORY_RELATIONSHIP('NONE','NONE',#47,#48);
#5=SHAPE_DEFINITION_REPRESENTATION(#49,#50);
#6= (GEOMETRIC_REPRESENTATION_CONTEXT(3)GLOBAL_UNCERTAINTY_ASSIGNED_CONTEXT((#53))GLOBAL_UNIT_ASSIGNED_CONTEXT((#55,#56,#57))REPRESENTATION_CONTEXT('NONE','WORKSPACE'));
#10=STYLED_ITEM('',(#59),#60);
#11=STYLED_ITEM('',(#61),#62);
#12=STYLED_ITEM('',(#63),#64);
#13=STYLED_ITEM('',(#65),#66);
#14=STYLED_ITEM('',(#67),#68);
#15=STYLED_ITEM('',(#69),#70);
#16=STYLED_ITEM('',(#71),#72);
#17=STYLED_ITEM('',(#73),#74);
#18=STYLED_ITEM('',(#75),#76);
#19=STYLED_ITEM('',(#77),#78);
#20=STYLED_ITEM('',(#79),#80);
#21=STYLED_ITEM('',(#81),#82);
#22=STYLED_ITEM('',(#83),#84);
#23=STYLED_ITEM('',(#85),#86);
#24=STYLED_ITEM('',(#87),#88);
#25=STYLED_ITEM('',(#89),#90);
#26=STYLED_ITEM('',(#91),#92);
#27=STYLED_ITEM('',(#93),#94);
#28=STYLED_ITEM('',(#95),#96);
#29=STYLED_ITEM('',(#97),#98);
#30=STYLED_ITEM('',(#99),#100);
#31=STYLED_ITEM('',(#101),#102);
#32=STYLED_ITEM('',(#103),#104);
#33=STYLED_ITEM('',(#105),#106);
#34=STYLED_ITEM('',(#107),#108);
#35=STYLED_ITEM('',(#109),#110);
#36=STYLED_ITEM('',(#111),#112);
#37=STYLED_ITEM('',(#113),#114);
#38=STYLED_ITEM('',(#115),#116);
#39=STYLED_ITEM('',(#117),#118);
#40=STYLED_ITEM('',(#119),#120);
#41=STYLED_ITEM('',(#121),#122);
#42=STYLED_ITEM('',(#123),#124);
#43=STYLED_ITEM('',(#125),#126);
#44=STYLED_ITEM('',(#127),#128);
#45=STYLED_ITEM('',(#129),#130);
#46=APPLICATION_CONTEXT(' ');
#47=PRODUCT_CATEGORY('part','NONE');
#48=PRODUCT_RELATED_PRODUCT_CATEGORY('detail',' ',(#131));
#49=PRODUCT_DEFINITION_SHAPE('NONE','NONE',#132);
#50=ADVANCED_BREP_SHAPE_REPRESENTATION('1',(#66,#133),#6);
#53=UNCERTAINTY_MEASURE_WITH_UNIT(LENGTH_MEASURE(1.0E-006),#55,'','');
#55= (CONVERSION_BASED_UNIT('MILLIMETRE',#136)LENGTH_UNIT()NAMED_UNIT(#139));
#56= (NAMED_UNIT(#141)PLANE_ANGLE_UNIT()SI_UNIT($,.RADIAN.));
#57= (NAMED_UNIT(#141)SOLID_ANGLE_UNIT()SI_UNIT($,.STERADIAN.));
#59=PRESENTATION_STYLE_ASSIGNMENT((#147));
#60=ADVANCED_FACE('',(#148),#149,.F.);
#61=PRESENTATION_STYLE_ASSIGNMENT((#150));
#62=ADVANCED_FACE('',(#151),#152,.F.);
#63=PRESENTATION_STYLE_ASSIGNMENT((#153));
#64=EDGE_CURVE('',#96,#74,#154,.T.);
#65=PRESENTATION_STYLE_ASSIGNMENT((#155));
#66=MANIFOLD_SOLID_BREP('1',#156);
#67=PRESENTATION_STYLE_ASSIGNMENT((#157));
#68=ADVANCED_FACE('',(#158,#159),#160,.T.);
#69=PRESENTATION_STYLE_ASSIGNMENT((#161));
#70=VERTEX_POINT('',#162);
#71=PRESENTATION_STYLE_ASSIGNMENT((#163));
#72=EDGE_CURVE('',#84,#88,#164,.T.);
#73=PRESENTATION_STYLE_ASSIGNMENT((#165));
#74=VERTEX_POINT('',#166);
#75=PRESENTATION_STYLE_ASSIGNMENT((#167));
#76=EDGE_CURVE('',#100,#96,#168,.T.);
#77=PRESENTATION_STYLE_ASSIGNMENT((#169));
#78=EDGE_CURVE('',#88,#70,#170,.T.);
#79=PRESENTATION_STYLE_ASSIGNMENT((#171));
#80=EDGE_CURVE('',#98,#110,#172,.T.);
#81=PRESENTATION_STYLE_ASSIGNMENT((#173));
#82=EDGE_CURVE('',#110,#98,#174,.T.);
#83=PRESENTATION_STYLE_ASSIGNMENT((#175));
#84=VERTEX_POINT('',#176);
#85=PRESENTATION_STYLE_ASSIGNMENT((#177));
#86=ADVANCED_FACE('',(#178),#179,.T.);
#87=PRESENTATION_STYLE_ASSIGNMENT((#180));
#88=VERTEX_POINT('',#181);
#89=PRESENTATION_STYLE_ASSIGNMENT((#182));
#90=EDGE_CURVE('',#70,#100,#183,.T.);
#91=PRESENTATION_STYLE_ASSIGNMENT((#184));
#92=EDGE_CURVE('',#98,#118,#185,.T.);
#93=PRESENTATION_STYLE_ASSIGNMENT((#186));
#94=EDGE_CURVE('',#70,#84,#187,.T.);
#95=PRESENTATION_STYLE_ASSIGNMENT((#188));
#96=VERTEX_POINT('',#189);
#97=PRESENTATION_STYLE_ASSIGNMENT((#190));
#98=VERTEX_POINT('',#191);
#99=PRESENTATION_STYLE_ASSIGNMENT((#192));
#100=VERTEX_POINT('',#193);
#101=PRESENTATION_STYLE_ASSIGNMENT((#194));
#102=ADVANCED_FACE('',(#195),#196,.F.);
#103=PRESENTATION_STYLE_ASSIGNMENT((#197));
#104=EDGE_CURVE('',#118,#110,#198,.T.);
#105=PRESENTATION_STYLE_ASSIGNMENT((#199));
#106=ADVANCED_FACE('',(#200),#201,.T.);
#107=PRESENTATION_STYLE_ASSIGNMENT((#202));
#108=ADVANCED_FACE('',(#203),#204,.F.);
#109=PRESENTATION_STYLE_ASSIGNMENT((#205));
#110=VERTEX_POINT('',#206);
#111=PRESENTATION_STYLE_ASSIGNMENT((#207));
#112=ADVANCED_FACE('',(#208),#209,.F.);
#113=PRESENTATION_STYLE_ASSIGNMENT((#210));
#114=EDGE_CURVE('',#74,#130,#211,.T.);
#115=PRESENTATION_STYLE_ASSIGNMENT((#212));
#116=EDGE_CURVE('',#130,#84,#213,.T.);
#117=PRESENTATION_STYLE_ASSIGNMENT((#214));
#118=VERTEX_POINT('',#215);
#119=PRESENTATION_STYLE_ASSIGNMENT((#216));
#120=EDGE_CURVE('',#130,#100,#217,.T.);
#121=PRESENTATION_STYLE_ASSIGNMENT((#218));
#122=EDGE_CURVE('',#84,#70,#219,.T.);
#123=PRESENTATION_STYLE_ASSIGNMENT((#220));
#124=EDGE_CURVE('',#100,#130,#221,.T.);
#125=PRESENTATION_STYLE_ASSIGNMENT((#222));
#126=ADVANCED_FACE('',(#223),#224,.F.);
#127=PRESENTATION_STYLE_ASSIGNMENT((#225));
#128=EDGE_CURVE('',#74,#96,#226,.T.);
#129=PRESENTATION_STYLE_ASSIGNMENT((#227));
#130=VERTEX_POINT('',#228);
#131=PRODUCT('1','1','PART-1-DESC',(#229));
#132=PRODUCT_DEFINITION('NONE','NONE',#230,#2);
#133=AXIS2_PLACEMENT_3D('',#231,#232,#233);
#136=LENGTH_MEASURE_WITH_UNIT(LENGTH_MEASURE(1.0),#234);
#139=DIMENSIONAL_EXPONENTS(1.0,0.0,0.0,0.0,0.0,0.0,0.0);
#141=DIMENSIONAL_EXPONENTS(0.0,0.0,0.0,0.0,0.0,0.0,0.0);
#147=SURFACE_STYLE_USAGE(.BOTH.,#235);
#148=FACE_OUTER_BOUND('',#236,.T.);
#149=CONICAL_SURFACE('',#237,3.69999999999999,0.785398163397448);
#150=SURFACE_STYLE_USAGE(.BOTH.,#238);
#151=FACE_OUTER_BOUND('',#239,.T.);
#152=CYLINDRICAL_SURFACE('',#240,3.40000000000001);
#153=CURVE_STYLE('',#241,POSITIVE_LENGTH_MEASURE(1.0E-006),#242);
#154=CIRCLE('',#243,3.99999999999997);
#155=SURFACE_STYLE_USAGE(.BOTH.,#244);
#156=CLOSED_SHELL('',(#126,#112,#108,#106,#86,#68,#60,#62,#102));
#157=SURFACE_STYLE_USAGE(.BOTH.,#245);
#158=FACE_BOUND('',#246,.T.);
#159=FACE_OUTER_BOUND('',#247,.T.);
#160=PLANE('',#248);
#161=POINT_STYLE(' ',#249,POSITIVE_LENGTH_MEASURE(1.0E-006),#250);
#162=CARTESIAN_POINT('',(3.39999999999995,2.20279448286239E-014,13.7999999999999));
#163=CURVE_STYLE('',#251,POSITIVE_LENGTH_MEASURE(1.0E-006),#252);
#164=LINE('',#253,#254);
#165=POINT_STYLE(' ',#255,POSITIVE_LENGTH_MEASURE(1.0E-006),#256);
#166=CARTESIAN_POINT('',(-4.00000000000003,2.06070219957623E-014,-6.3948846218409E-014));
#167=CURVE_STYLE('',#257,POSITIVE_LENGTH_MEASURE(1.0E-006),#258);
#168=LINE('',#259,#260);
#169=CURVE_STYLE('',#261,POSITIVE_LENGTH_MEASURE(1.0E-006),#262);
#170=LINE('',#263,#264);
#171=CURVE_STYLE('',#265,POSITIVE_LENGTH_MEASURE(1.0E-006),#266);
#172=CIRCLE('',#267,9.32737905308881);
#173=CURVE_STYLE('',#268,POSITIVE_LENGTH_MEASURE(1.0E-006),#269);
#174=CIRCLE('',#270,9.32737905308881);
#175=POINT_STYLE(' ',#271,POSITIVE_LENGTH_MEASURE(1.0E-006),#272);
#176=CARTESIAN_POINT('',(-3.40000000000006,2.06805552963558E-014,13.7999999999999));
#177=SURFACE_STYLE_USAGE(.BOTH.,#273);
#178=FACE_OUTER_BOUND('',#274,.T.);
#179=SPHERICAL_SURFACE('',#275,16.0);
#180=POINT_STYLE(' ',#276,POSITIVE_LENGTH_MEASURE(1.0E-006),#277);
#181=CARTESIAN_POINT('',(-5.6843418860808E-014,2.19077502712587E-014,15.7629909152447));
#182=CURVE_STYLE('',#278,POSITIVE_LENGTH_MEASURE(1.0E-006),#279);
#183=LINE('',#280,#281);
#184=CURVE_STYLE('',#282,POSITIVE_LENGTH_MEASURE(1.0E-006),#283);
#185=CIRCLE('',#284,16.0);
#186=CURVE_STYLE('',#285,POSITIVE_LENGTH_MEASURE(1.0E-006),#286);
#187=CIRCLE('',#287,3.40000000000001);
#188=POINT_STYLE(' ',#288,POSITIVE_LENGTH_MEASURE(1.0E-006),#289);
#189=CARTESIAN_POINT('',(3.99999999999991,2.28729232127613E-014,-6.3948846218409E-014));
#190=POINT_STYLE(' ',#290,POSITIVE_LENGTH_MEASURE(1.0E-006),#291);
#191=CARTESIAN_POINT('',(9.32737905308875,2.28729232127613E-014,-6.3948846218409E-014));
#192=POINT_STYLE(' ',#292,POSITIVE_LENGTH_MEASURE(1.0E-006),#293);
#193=CARTESIAN_POINT('',(3.39999999999995,2.28361850221467E-014,0.599999999999902));
#194=SURFACE_STYLE_USAGE(.BOTH.,#294);
#195=FACE_OUTER_BOUND('',#295,.T.);
#196=CONICAL_SURFACE('',#296,1.7,1.04719755119659);
#197=CURVE_STYLE('',#297,POSITIVE_LENGTH_MEASURE(1.0E-006),#298);
#198=CIRCLE('',#299,16.0);
#199=SURFACE_STYLE_USAGE(.BOTH.,#300);
#200=FACE_OUTER_BOUND('',#301,.T.);
#201=SPHERICAL_SURFACE('',#302,16.0);
#202=SURFACE_STYLE_USAGE(.BOTH.,#303);
#203=FACE_OUTER_BOUND('',#304,.T.);
#204=CONICAL_SURFACE('',#305,3.69999999999999,0.785398163397448);
#205=POINT_STYLE(' ',#306,POSITIVE_LENGTH_MEASURE(1.0E-006),#307);
#206=CARTESIAN_POINT('',(-9.32737905308886,2.09346923174846E-014,-6.3948846218409E-014));
#207=SURFACE_STYLE_USAGE(.BOTH.,#308);
#208=FACE_OUTER_BOUND('',#309,.T.);
#209=CYLINDRICAL_SURFACE('',#310,3.40000000000001);
#210=CURVE_STYLE('',#311,POSITIVE_LENGTH_MEASURE(1.0E-006),#312);
#211=LINE('',#313,#314);
#212=CURVE_STYLE('',#315,POSITIVE_LENGTH_MEASURE(1.0E-006),#316);
#213=LINE('',#317,#318);
#214=POINT_STYLE(' ',#319,POSITIVE_LENGTH_MEASURE(1.0E-006),#320);
#215=CARTESIAN_POINT('',(-5.6843418860808E-014,2.10972439997189E-014,28.9999999999999));
#216=CURVE_STYLE('',#321,POSITIVE_LENGTH_MEASURE(1.0E-006),#322);
#217=CIRCLE('',#323,3.40000000000001);
#218=CURVE_STYLE('',#324,POSITIVE_LENGTH_MEASURE(1.0E-006),#325);
#219=CIRCLE('',#326,3.40000000000001);
#220=CURVE_STYLE('',#327,POSITIVE_LENGTH_MEASURE(1.0E-006),#328);
#221=CIRCLE('',#329,3.40000000000001);
#222=SURFACE_STYLE_USAGE(.BOTH.,#330);
#223=FACE_OUTER_BOUND('',#331,.T.);
#224=CONICAL_SURFACE('',#332,1.7,1.04719755119659);
#225=CURVE_STYLE('',#333,POSITIVE_LENGTH_MEASURE(1.0E-006),#334);
#226=CIRCLE('',#335,3.99999999999997);
#227=POINT_STYLE(' ',#336,POSITIVE_LENGTH_MEASURE(1.0E-006),#337);
#228=CARTESIAN_POINT('',(-3.40000000000006,2.06805552963558E-014,0.599999999999902));
#229=PRODUCT_CONTEXT('',#46,'mechanical');
#230=PRODUCT_DEFINITION_FORMATION_WITH_SPECIFIED_SOURCE(' ','NONE',#131,.NOT_KNOWN.);
#231=CARTESIAN_POINT('',(0.0,0.0,0.0));
#232=DIRECTION('',(0.0,0.0,1.0));
#233=DIRECTION('',(1.0,0.0,0.0));
#234= (NAMED_UNIT(#139)LENGTH_UNIT()SI_UNIT(.MILLI.,.METRE.));
#235=SURFACE_SIDE_STYLE('',(#339));
#236=EDGE_LOOP('',(#340,#341,#342,#343));
#237=AXIS2_PLACEMENT_3D('',#344,#345,#346);
#238=SURFACE_SIDE_STYLE('',(#347));
#239=EDGE_LOOP('',(#348,#349,#350,#351));
#240=AXIS2_PLACEMENT_3D('',#352,#353,#354);
#241=DRAUGHTING_PRE_DEFINED_CURVE_FONT('continuous');
#242=COLOUR_RGB('',0.509803950786591,0.509803950786591,0.588235318660736);
#243=AXIS2_PLACEMENT_3D('',#355,#356,#357);
#244=SURFACE_SIDE_STYLE('',(#358));
#245=SURFACE_SIDE_STYLE('',(#359));
#246=EDGE_LOOP('',(#360,#361));
#247=EDGE_LOOP('',(#362,#363));
#248=AXIS2_PLACEMENT_3D('',#364,#365,#366);
#249=PRE_DEFINED_MARKER('');
#250=COLOUR_RGB('',0.509803950786591,0.509803950786591,0.588235318660736);
#251=DRAUGHTING_PRE_DEFINED_CURVE_FONT('continuous');
#252=COLOUR_RGB('',0.509803950786591,0.509803950786591,0.588235318660736);
#253=CARTESIAN_POINT('',(-1.70000000000006,2.08888996480373E-014,14.7814954576223));
#254=VECTOR('',#367,1.0);
#255=PRE_DEFINED_MARKER('');
#256=COLOUR_RGB('',0.509803950786591,0.509803950786591,0.588235318660736);
#257=DRAUGHTING_PRE_DEFINED_CURVE_FONT('continuous');
#258=COLOUR_RGB('',0.509803950786591,0.509803950786591,0.588235318660736);
#259=CARTESIAN_POINT('',(3.69999999999993,2.15506993533788E-014,0.299999999999919));
#260=VECTOR('',#368,1.0);
#261=DRAUGHTING_PRE_DEFINED_CURVE_FONT('continuous');
#262=COLOUR_RGB('',0.509803950786591,0.509803950786591,0.588235318660736);
#263=CARTESIAN_POINT('',(1.69999999999995,2.13055883514005E-014,14.7814954576223));
#264=VECTOR('',#369,1.0);
#265=DRAUGHTING_PRE_DEFINED_CURVE_FONT('continuous');
#266=COLOUR_RGB('',0.509803950786591,0.509803950786591,0.588235318660736);
#267=AXIS2_PLACEMENT_3D('',#370,#371,#372);
#268=DRAUGHTING_PRE_DEFINED_CURVE_FONT('continuous');
#269=COLOUR_RGB('',0.509803950786591,0.509803950786591,0.588235318660736);
#270=AXIS2_PLACEMENT_3D('',#373,#374,#375);
#271=PRE_DEFINED_MARKER('');
#272=COLOUR_RGB('',0.509803950786591,0.509803950786591,0.588235318660736);
#273=SURFACE_SIDE_STYLE('',(#376));
#274=EDGE_LOOP('',(#377,#378,#379));
#275=AXIS2_PLACEMENT_3D('',#380,#381,#382);
#276=PRE_DEFINED_MARKER('');
#277=COLOUR_RGB('',0.509803950786591,0.509803950786591,0.588235318660736);
#278=DRAUGHTING_PRE_DEFINED_CURVE_FONT('continuous');
#279=COLOUR_RGB('',0.509803950786591,0.509803950786591,0.588235318660736);
#280=CARTESIAN_POINT('',(3.39999999999995,2.1513932703082E-014,7.19999999999992));
#281=VECTOR('',#383,1.0);
#282=DRAUGHTING_PRE_DEFINED_CURVE_FONT('continuous');
#283=COLOUR_RGB('',0.509803950786591,0.509803950786591,0.588235318660736);
#284=AXIS2_PLACEMENT_3D('',#384,#385,#386);
#285=DRAUGHTING_PRE_DEFINED_CURVE_FONT('continuous');
#286=COLOUR_RGB('',0.509803950786591,0.509803950786591,0.588235318660736);
#287=AXIS2_PLACEMENT_3D('',#387,#388,#389);
#288=PRE_DEFINED_MARKER('');
#289=COLOUR_RGB('',0.509803950786591,0.509803950786591,0.588235318660736);
#290=PRE_DEFINED_MARKER('');
#291=COLOUR_RGB('',0.509803950786591,0.509803950786591,0.588235318660736);
#292=PRE_DEFINED_MARKER('');
#293=COLOUR_RGB('',0.509803950786591,0.509803950786591,0.588235318660736);
#294=SURFACE_SIDE_STYLE('',(#390));
#295=EDGE_LOOP('',(#391,#392,#393));
#296=AXIS2_PLACEMENT_3D('',#394,#395,#396);
#297=DRAUGHTING_PRE_DEFINED_CURVE_FONT('continuous');
#298=COLOUR_RGB('',0.509803950786591,0.509803950786591,0.588235318660736);
#299=AXIS2_PLACEMENT_3D('',#397,#398,#399);
#300=SURFACE_SIDE_STYLE('',(#400));
#301=EDGE_LOOP('',(#401,#402,#403));
#302=AXIS2_PLACEMENT_3D('',#404,#405,#406);
#303=SURFACE_SIDE_STYLE('',(#407));
#304=EDGE_LOOP('',(#408,#409,#410,#411));
#305=AXIS2_PLACEMENT_3D('',#412,#413,#414);
#306=PRE_DEFINED_MARKER('');
#307=COLOUR_RGB('',0.509803950786591,0.509803950786591,0.588235318660736);
#308=SURFACE_SIDE_STYLE('',(#415));
#309=EDGE_LOOP('',(#416,#417,#418,#419));
#310=AXIS2_PLACEMENT_3D('',#420,#421,#422);
#311=DRAUGHTING_PRE_DEFINED_CURVE_FONT('continuous');
#312=COLOUR_RGB('',0.509803950786591,0.509803950786591,0.588235318660736);
#313=CARTESIAN_POINT('',(-3.70000000000005,2.0643788646059E-014,0.299999999999919));
#314=VECTOR('',#423,1.0);
#315=DRAUGHTING_PRE_DEFINED_CURVE_FONT('continuous');
#316=COLOUR_RGB('',0.509803950786591,0.509803950786591,0.588235318660736);
#317=CARTESIAN_POINT('',(-3.40000000000006,2.06805552963558E-014,7.19999999999992));
#318=VECTOR('',#424,1.0);
#319=PRE_DEFINED_MARKER('');
#320=COLOUR_RGB('',0.509803950786591,0.509803950786591,0.588235318660736);
#321=DRAUGHTING_PRE_DEFINED_CURVE_FONT('continuous');
#322=COLOUR_RGB('',0.509803950786591,0.509803950786591,0.588235318660736);
#323=AXIS2_PLACEMENT_3D('',#425,#426,#427);
#324=DRAUGHTING_PRE_DEFINED_CURVE_FONT('continuous');
#325=COLOUR_RGB('',0.509803950786591,0.509803950786591,0.588235318660736);
#326=AXIS2_PLACEMENT_3D('',#428,#429,#430);
#327=DRAUGHTING_PRE_DEFINED_CURVE_FONT('continuous');
#328=COLOUR_RGB('',0.509803950786591,0.509803950786591,0.588235318660736);
#329=AXIS2_PLACEMENT_3D('',#431,#432,#433);
#330=SURFACE_SIDE_STYLE('',(#434));
#331=EDGE_LOOP('',(#435,#436,#437));
#332=AXIS2_PLACEMENT_3D('',#438,#439,#440);
#333=DRAUGHTING_PRE_DEFINED_CURVE_FONT('continuous');
#334=COLOUR_RGB('',0.509803950786591,0.509803950786591,0.588235318660736);
#335=AXIS2_PLACEMENT_3D('',#441,#442,#443);
#336=PRE_DEFINED_MARKER('');
#337=COLOUR_RGB('',0.509803950786591,0.509803950786591,0.588235318660736);
#339=SURFACE_STYLE_FILL_AREA(#444);
#340=ORIENTED_EDGE('',*,*,#76,.T.);
#341=ORIENTED_EDGE('',*,*,#64,.T.);
#342=ORIENTED_EDGE('',*,*,#114,.T.);
#343=ORIENTED_EDGE('',*,*,#124,.F.);
#344=CARTESIAN_POINT('',(-5.6843418860808E-014,2.10972439997189E-014,0.299999999999919));
#345=DIRECTION('',(0.0,-0.0,-1.0));
#346=DIRECTION('',(1.0,9.48656069211166E-020,0.0));
#347=SURFACE_STYLE_FILL_AREA(#445);
#348=ORIENTED_EDGE('',*,*,#90,.T.);
#349=ORIENTED_EDGE('',*,*,#124,.T.);
#350=ORIENTED_EDGE('',*,*,#116,.T.);
#351=ORIENTED_EDGE('',*,*,#94,.F.);
#352=CARTESIAN_POINT('',(-5.6843418860808E-014,2.10972439997189E-014,7.19999999999992));
#353=DIRECTION('',(-0.0,-0.0,1.0));
#354=DIRECTION('',(1.0,9.48656069211166E-020,0.0));
#355=CARTESIAN_POINT('',(-5.6843418860808E-014,2.10972439997189E-014,-6.3948846218409E-014));
#356=DIRECTION('',(0.0,0.0,-1.0));
#357=DIRECTION('',(1.0,9.48656069211166E-020,0.0));
#358=SURFACE_STYLE_FILL_AREA(#446);
#359=SURFACE_STYLE_FILL_AREA(#447);
#360=ORIENTED_EDGE('',*,*,#64,.F.);
#361=ORIENTED_EDGE('',*,*,#128,.F.);
#362=ORIENTED_EDGE('',*,*,#80,.T.);
#363=ORIENTED_EDGE('',*,*,#82,.T.);
#364=CARTESIAN_POINT('',(6.66368952654433,2.28729232127613E-014,-6.3948846218409E-014));
#365=DIRECTION('',(0.0,0.0,-1.0));
#366=DIRECTION('',(-1.0,0.0,0.0));
#367=DIRECTION('',(0.866025403784437,1.0613617723014E-016,0.500000000000003));
#368=DIRECTION('',(0.707106781186548,8.6659825821149E-017,-0.707106781186548));
#369=DIRECTION('',(0.866025403784437,1.0613617723014E-016,-0.500000000000003));
#370=CARTESIAN_POINT('',(-5.6843418860808E-014,2.10972439997189E-014,-6.3948846218409E-014));
#371=DIRECTION('',(0.0,0.0,-1.0));
#372=DIRECTION('',(1.0,9.48656069211166E-020,0.0));
#373=CARTESIAN_POINT('',(-5.6843418860808E-014,2.10972439997189E-014,-6.3948846218409E-014));
#374=DIRECTION('',(0.0,0.0,-1.0));
#375=DIRECTION('',(1.0,9.48656069211166E-020,0.0));
#376=SURFACE_STYLE_FILL_AREA(#448);
#377=ORIENTED_EDGE('',*,*,#104,.T.);
#378=ORIENTED_EDGE('',*,*,#80,.F.);
#379=ORIENTED_EDGE('',*,*,#92,.T.);
#380=CARTESIAN_POINT('',(-5.4308678409834E-014,2.20769290827768E-014,12.9999999999999));
#381=DIRECTION('',(0.0,0.0,-1.0));
#382=DIRECTION('',(-1.0,0.0,0.0));
#383=DIRECTION('',(-0.0,-0.0,-1.0));
#384=CARTESIAN_POINT('',(-5.4308678409834E-014,2.20769290827768E-014,12.9999999999999));
#385=DIRECTION('',(1.22460635382238E-016,-1.0,0.0));
#386=DIRECTION('',(0.0,0.0,1.0));
#387=CARTESIAN_POINT('',(-5.6843418860808E-014,2.10972439997189E-014,13.7999999999999));
#388=DIRECTION('',(0.0,0.0,-1.0));
#389=DIRECTION('',(1.0,9.48656069211166E-020,0.0));
#390=SURFACE_STYLE_FILL_AREA(#449);
#391=ORIENTED_EDGE('',*,*,#72,.F.);
#392=ORIENTED_EDGE('',*,*,#122,.T.);
#393=ORIENTED_EDGE('',*,*,#78,.F.);
#394=CARTESIAN_POINT('',(-5.6843418860808E-014,2.10972439997189E-014,14.7814954576223));
#395=DIRECTION('',(0.0,-0.0,-1.0));
#396=DIRECTION('',(1.0,9.48656069211166E-020,0.0));
#397=CARTESIAN_POINT('',(-5.4308678409834E-014,2.20769290827768E-014,12.9999999999999));
#398=DIRECTION('',(1.22460635382238E-016,-1.0,0.0));
#399=DIRECTION('',(0.0,0.0,1.0));
#400=SURFACE_STYLE_FILL_AREA(#450);
#401=ORIENTED_EDGE('',*,*,#104,.F.);
#402=ORIENTED_EDGE('',*,*,#92,.F.);
#403=ORIENTED_EDGE('',*,*,#82,.F.);
#404=CARTESIAN_POINT('',(-5.4308678409834E-014,2.20769290827768E-014,12.9999999999999));
#405=DIRECTION('',(0.0,0.0,-1.0));
#406=DIRECTION('',(-1.0,0.0,0.0));
#407=SURFACE_STYLE_FILL_AREA(#451);
#408=ORIENTED_EDGE('',*,*,#76,.F.);
#409=ORIENTED_EDGE('',*,*,#120,.F.);
#410=ORIENTED_EDGE('',*,*,#114,.F.);
#411=ORIENTED_EDGE('',*,*,#128,.T.);
#412=CARTESIAN_POINT('',(-5.6843418860808E-014,2.10972439997189E-014,0.299999999999919));
#413=DIRECTION('',(0.0,-0.0,-1.0));
#414=DIRECTION('',(1.0,9.48656069211166E-020,0.0));
#415=SURFACE_STYLE_FILL_AREA(#452);
#416=ORIENTED_EDGE('',*,*,#90,.F.);
#417=ORIENTED_EDGE('',*,*,#122,.F.);
#418=ORIENTED_EDGE('',*,*,#116,.F.);
#419=ORIENTED_EDGE('',*,*,#120,.T.);
#420=CARTESIAN_POINT('',(-5.6843418860808E-014,2.10972439997189E-014,7.19999999999992));
#421=DIRECTION('',(-0.0,-0.0,1.0));
#422=DIRECTION('',(1.0,9.48656069211166E-020,0.0));
#423=DIRECTION('',(0.707106781186548,8.6659825821149E-017,0.707106781186548));
#424=DIRECTION('',(-0.0,-0.0,1.0));
#425=CARTESIAN_POINT('',(-5.6843418860808E-014,2.10972439997189E-014,0.599999999999902));
#426=DIRECTION('',(0.0,0.0,-1.0));
#427=DIRECTION('',(1.0,9.48656069211166E-020,0.0));
#428=CARTESIAN_POINT('',(-5.6843418860808E-014,2.10972439997189E-014,13.7999999999999));
#429=DIRECTION('',(0.0,0.0,-1.0));
#430=DIRECTION('',(1.0,9.48656069211166E-020,0.0));
#431=CARTESIAN_POINT('',(-5.6843418860808E-014,2.10972439997189E-014,0.599999999999902));
#432=DIRECTION('',(0.0,0.0,-1.0));
#433=DIRECTION('',(1.0,9.48656069211166E-020,0.0));
#434=SURFACE_STYLE_FILL_AREA(#453);
#435=ORIENTED_EDGE('',*,*,#72,.T.);
#436=ORIENTED_EDGE('',*,*,#78,.T.);
#437=ORIENTED_EDGE('',*,*,#94,.T.);
#438=CARTESIAN_POINT('',(-5.6843418860808E-014,2.10972439997189E-014,14.7814954576223));
#439=DIRECTION('',(0.0,-0.0,-1.0));
#440=DIRECTION('',(1.0,9.48656069211166E-020,0.0));
#441=CARTESIAN_POINT('',(-5.6843418860808E-014,2.10972439997189E-014,-6.3948846218409E-014));
#442=DIRECTION('',(0.0,0.0,-1.0));
#443=DIRECTION('',(1.0,9.48656069211166E-020,0.0));
#444=FILL_AREA_STYLE('',(#454));
#445=FILL_AREA_STYLE('',(#455));
#446=FILL_AREA_STYLE('',(#456));
#447=FILL_AREA_STYLE('',(#457));
#448=FILL_AREA_STYLE('',(#458));
#449=FILL_AREA_STYLE('',(#459));
#450=FILL_AREA_STYLE('',(#460));
#451=FILL_AREA_STYLE('',(#461));
#452=FILL_AREA_STYLE('',(#462));
#453=FILL_AREA_STYLE('',(#463));
#454=FILL_AREA_STYLE_COLOUR('',#464);
#455=FILL_AREA_STYLE_COLOUR('',#465);
#456=FILL_AREA_STYLE_COLOUR('',#466);
#457=FILL_AREA_STYLE_COLOUR('',#467);
#458=FILL_AREA_STYLE_COLOUR('',#468);
#459=FILL_AREA_STYLE_COLOUR('',#469);
#460=FILL_AREA_STYLE_COLOUR('',#470);
#461=FILL_AREA_STYLE_COLOUR('',#471);
#462=FILL_AREA_STYLE_COLOUR('',#472);
#463=FILL_AREA_STYLE_COLOUR('',#473);
#464=COLOUR_RGB('',0.509803950786591,0.509803950786591,0.588235318660736);
#465=COLOUR_RGB('',0.509803950786591,0.509803950786591,0.588235318660736);
#466=COLOUR_RGB('',0.509803950786591,0.509803950786591,0.588235318660736);
#467=COLOUR_RGB('',0.509803950786591,0.509803950786591,0.588235318660736);
#468=COLOUR_RGB('',0.509803950786591,0.509803950786591,0.588235318660736);
#469=COLOUR_RGB('',0.509803950786591,0.509803950786591,0.588235318660736);
#470=COLOUR_RGB('',0.509803950786591,0.509803950786591,0.588235318660736);
#471=COLOUR_RGB('',0.509803950786591,0.509803950786591,0.588235318660736);
#472=COLOUR_RGB('',0.509803950786591,0.509803950786591,0.588235318660736);
#473=COLOUR_RGB('',0.509803950786591,0.509803950786591,0.588235318660736);
ENDSEC;
END-ISO-10303-21;
