ISO-10303-21;
HEADER;
FILE_DESCRIPTION(('STEP AP214'),'1');
FILE_NAME(' ','  ',('TraceParts'),('TraceParts S.A.'),'XStep 1.0',' ',' ');
FILE_SCHEMA(('automotive_design'));
ENDSEC;
DATA;
#1=MECHANICAL_DESIGN_GEOMETRIC_PRESENTATION_REPRESENTATION(' ',(#10,#11,#12,#13,#14,#15,#16,#17,#18,#19,#20,#21,#22,#23,#24,#25,#26,#27,#28,#29,#30,#31,#32,#33,#34,#35,#36,#37,#38,#39,#40,#41,#42,#43,#44,#45,#46,#47,#48,#49,#50,#51,#52,#53,#54,#55,#56,#57),#6);
#2=PRODUCT_DEFINITION_CONTEXT('',#58,'design');
#3=APPLICATION_PROTOCOL_DEFINITION('INTERNATIONAL STANDARD','automotive_design',1994,#58);
#4=PRODUCT_CATEGORY_RELATIONSHIP('NONE','NONE',#59,#60);
#5=SHAPE_DEFINITION_REPRESENTATION(#61,#62);
#6= (GEOMETRIC_REPRESENTATION_CONTEXT(3)GLOBAL_UNCERTAINTY_ASSIGNED_CONTEXT((#65))GLOBAL_UNIT_ASSIGNED_CONTEXT((#67,#68,#69))REPRESENTATION_CONTEXT('NONE','WORKSPACE'));
#10=STYLED_ITEM('',(#71),#72);
#11=STYLED_ITEM('',(#73),#74);
#12=STYLED_ITEM('',(#75),#76);
#13=STYLED_ITEM('',(#77),#78);
#14=STYLED_ITEM('',(#79),#80);
#15=STYLED_ITEM('',(#81),#82);
#16=STYLED_ITEM('',(#83),#84);
#17=STYLED_ITEM('',(#85),#86);
#18=STYLED_ITEM('',(#87),#88);
#19=STYLED_ITEM('',(#89),#90);
#20=STYLED_ITEM('',(#91),#92);
#21=STYLED_ITEM('',(#93),#94);
#22=STYLED_ITEM('',(#95),#96);
#23=STYLED_ITEM('',(#97),#98);
#24=STYLED_ITEM('',(#99),#100);
#25=STYLED_ITEM('',(#101),#102);
#26=STYLED_ITEM('',(#103),#104);
#27=STYLED_ITEM('',(#105),#106);
#28=STYLED_ITEM('',(#107),#108);
#29=STYLED_ITEM('',(#109),#110);
#30=STYLED_ITEM('',(#111),#112);
#31=STYLED_ITEM('',(#113),#114);
#32=STYLED_ITEM('',(#115),#116);
#33=STYLED_ITEM('',(#117),#118);
#34=STYLED_ITEM('',(#119),#120);
#35=STYLED_ITEM('',(#121),#122);
#36=STYLED_ITEM('',(#123),#124);
#37=STYLED_ITEM('',(#125),#126);
#38=STYLED_ITEM('',(#127),#128);
#39=STYLED_ITEM('',(#129),#130);
#40=STYLED_ITEM('',(#131),#132);
#41=STYLED_ITEM('',(#133),#134);
#42=STYLED_ITEM('',(#135),#136);
#43=STYLED_ITEM('',(#137),#138);
#44=STYLED_ITEM('',(#139),#140);
#45=STYLED_ITEM('',(#141),#142);
#46=STYLED_ITEM('',(#143),#144);
#47=STYLED_ITEM('',(#145),#146);
#48=STYLED_ITEM('',(#147),#148);
#49=STYLED_ITEM('',(#149),#150);
#50=STYLED_ITEM('',(#151),#152);
#51=STYLED_ITEM('',(#153),#154);
#52=STYLED_ITEM('',(#155),#156);
#53=STYLED_ITEM('',(#157),#158);
#54=STYLED_ITEM('',(#159),#160);
#55=STYLED_ITEM('',(#161),#162);
#56=STYLED_ITEM('',(#163),#164);
#57=STYLED_ITEM('',(#165),#166);
#58=APPLICATION_CONTEXT(' ');
#59=PRODUCT_CATEGORY('part','NONE');
#60=PRODUCT_RELATED_PRODUCT_CATEGORY('detail',' ',(#167));
#61=PRODUCT_DEFINITION_SHAPE('NONE','NONE',#168);
#62=ADVANCED_BREP_SHAPE_REPRESENTATION('1',(#98,#169),#6);
#65=UNCERTAINTY_MEASURE_WITH_UNIT(LENGTH_MEASURE(1.0E-006),#67,'','');
#67= (CONVERSION_BASED_UNIT('MILLIMETRE',#172)LENGTH_UNIT()NAMED_UNIT(#175));
#68= (NAMED_UNIT(#177)PLANE_ANGLE_UNIT()SI_UNIT($,.RADIAN.));
#69= (NAMED_UNIT(#177)SOLID_ANGLE_UNIT()SI_UNIT($,.STERADIAN.));
#71=PRESENTATION_STYLE_ASSIGNMENT((#183));
#72=ADVANCED_FACE('',(#184),#185,.F.);
#73=PRESENTATION_STYLE_ASSIGNMENT((#186));
#74=EDGE_CURVE('',#130,#132,#187,.T.);
#75=PRESENTATION_STYLE_ASSIGNMENT((#188));
#76=EDGE_CURVE('',#136,#166,#189,.T.);
#77=PRESENTATION_STYLE_ASSIGNMENT((#190));
#78=EDGE_CURVE('',#126,#136,#191,.T.);
#79=PRESENTATION_STYLE_ASSIGNMENT((#192));
#80=ADVANCED_FACE('',(#193),#194,.T.);
#81=PRESENTATION_STYLE_ASSIGNMENT((#195));
#82=EDGE_CURVE('',#112,#134,#196,.T.);
#83=PRESENTATION_STYLE_ASSIGNMENT((#197));
#84=VERTEX_POINT('',#198);
#85=PRESENTATION_STYLE_ASSIGNMENT((#199));
#86=ADVANCED_FACE('',(#200),#201,.T.);
#87=PRESENTATION_STYLE_ASSIGNMENT((#202));
#88=EDGE_CURVE('',#112,#140,#203,.T.);
#89=PRESENTATION_STYLE_ASSIGNMENT((#204));
#90=EDGE_CURVE('',#84,#134,#205,.T.);
#91=PRESENTATION_STYLE_ASSIGNMENT((#206));
#92=EDGE_CURVE('',#166,#102,#207,.T.);
#93=PRESENTATION_STYLE_ASSIGNMENT((#208));
#94=ADVANCED_FACE('',(#209),#210,.F.);
#95=PRESENTATION_STYLE_ASSIGNMENT((#211));
#96=EDGE_CURVE('',#158,#150,#212,.T.);
#97=PRESENTATION_STYLE_ASSIGNMENT((#213));
#98=MANIFOLD_SOLID_BREP('1',#214);
#99=PRESENTATION_STYLE_ASSIGNMENT((#215));
#100=EDGE_CURVE('',#130,#126,#216,.T.);
#101=PRESENTATION_STYLE_ASSIGNMENT((#217));
#102=VERTEX_POINT('',#218);
#103=PRESENTATION_STYLE_ASSIGNMENT((#219));
#104=EDGE_CURVE('',#84,#140,#220,.T.);
#105=PRESENTATION_STYLE_ASSIGNMENT((#221));
#106=ADVANCED_FACE('',(#222),#223,.T.);
#107=PRESENTATION_STYLE_ASSIGNMENT((#224));
#108=ADVANCED_FACE('',(#225),#226,.T.);
#109=PRESENTATION_STYLE_ASSIGNMENT((#227));
#110=EDGE_CURVE('',#150,#102,#228,.T.);
#111=PRESENTATION_STYLE_ASSIGNMENT((#229));
#112=VERTEX_POINT('',#230);
#113=PRESENTATION_STYLE_ASSIGNMENT((#231));
#114=ADVANCED_FACE('',(#232),#233,.T.);
#115=PRESENTATION_STYLE_ASSIGNMENT((#234));
#116=EDGE_CURVE('',#166,#158,#235,.T.);
#117=PRESENTATION_STYLE_ASSIGNMENT((#236));
#118=EDGE_CURVE('',#150,#158,#237,.T.);
#119=PRESENTATION_STYLE_ASSIGNMENT((#238));
#120=EDGE_CURVE('',#136,#126,#239,.T.);
#121=PRESENTATION_STYLE_ASSIGNMENT((#240));
#122=ADVANCED_FACE('',(#241),#242,.T.);
#123=PRESENTATION_STYLE_ASSIGNMENT((#243));
#124=ADVANCED_FACE('',(#244),#245,.F.);
#125=PRESENTATION_STYLE_ASSIGNMENT((#246));
#126=VERTEX_POINT('',#247);
#127=PRESENTATION_STYLE_ASSIGNMENT((#248));
#128=EDGE_CURVE('',#148,#150,#249,.T.);
#129=PRESENTATION_STYLE_ASSIGNMENT((#250));
#130=VERTEX_POINT('',#251);
#131=PRESENTATION_STYLE_ASSIGNMENT((#252));
#132=VERTEX_POINT('',#253);
#133=PRESENTATION_STYLE_ASSIGNMENT((#254));
#134=VERTEX_POINT('',#255);
#135=PRESENTATION_STYLE_ASSIGNMENT((#256));
#136=VERTEX_POINT('',#257);
#137=PRESENTATION_STYLE_ASSIGNMENT((#258));
#138=EDGE_CURVE('',#102,#132,#259,.T.);
#139=PRESENTATION_STYLE_ASSIGNMENT((#260));
#140=VERTEX_POINT('',#261);
#141=PRESENTATION_STYLE_ASSIGNMENT((#262));
#142=EDGE_CURVE('',#158,#148,#263,.T.);
#143=PRESENTATION_STYLE_ASSIGNMENT((#264));
#144=ADVANCED_FACE('',(#265,#266),#267,.T.);
#145=PRESENTATION_STYLE_ASSIGNMENT((#268));
#146=EDGE_CURVE('',#134,#84,#269,.T.);
#147=PRESENTATION_STYLE_ASSIGNMENT((#270));
#148=VERTEX_POINT('',#271);
#149=PRESENTATION_STYLE_ASSIGNMENT((#272));
#150=VERTEX_POINT('',#273);
#151=PRESENTATION_STYLE_ASSIGNMENT((#274));
#152=EDGE_CURVE('',#132,#130,#275,.T.);
#153=PRESENTATION_STYLE_ASSIGNMENT((#276));
#154=EDGE_CURVE('',#84,#126,#277,.T.);
#155=PRESENTATION_STYLE_ASSIGNMENT((#278));
#156=ADVANCED_FACE('',(#279),#280,.F.);
#157=PRESENTATION_STYLE_ASSIGNMENT((#281));
#158=VERTEX_POINT('',#282);
#159=PRESENTATION_STYLE_ASSIGNMENT((#283));
#160=EDGE_CURVE('',#136,#134,#284,.T.);
#161=PRESENTATION_STYLE_ASSIGNMENT((#285));
#162=EDGE_CURVE('',#102,#166,#286,.T.);
#163=PRESENTATION_STYLE_ASSIGNMENT((#287));
#164=EDGE_CURVE('',#140,#112,#288,.T.);
#165=PRESENTATION_STYLE_ASSIGNMENT((#289));
#166=VERTEX_POINT('',#290);
#167=PRODUCT('1','1','PART-1-DESC',(#291));
#168=PRODUCT_DEFINITION('NONE','NONE',#292,#2);
#169=AXIS2_PLACEMENT_3D('',#293,#294,#295);
#172=LENGTH_MEASURE_WITH_UNIT(LENGTH_MEASURE(1.0),#296);
#175=DIMENSIONAL_EXPONENTS(1.0,0.0,0.0,0.0,0.0,0.0,0.0);
#177=DIMENSIONAL_EXPONENTS(0.0,0.0,0.0,0.0,0.0,0.0,0.0);
#183=SURFACE_STYLE_USAGE(.BOTH.,#297);
#184=FACE_OUTER_BOUND('',#298,.T.);
#185=CYLINDRICAL_SURFACE('',#299,7.0);
#186=CURVE_STYLE('',#300,POSITIVE_LENGTH_MEASURE(1.0E-006),#301);
#187=CIRCLE('',#302,12.4899959967968);
#188=CURVE_STYLE('',#303,POSITIVE_LENGTH_MEASURE(1.0E-006),#304);
#189=CIRCLE('',#305,16.0);
#190=CURVE_STYLE('',#306,POSITIVE_LENGTH_MEASURE(1.0E-006),#307);
#191=CIRCLE('',#308,6.99999999999999);
#192=SURFACE_STYLE_USAGE(.BOTH.,#309);
#193=FACE_OUTER_BOUND('',#310,.T.);
#194=SPHERICAL_SURFACE('',#311,10.0);
#195=CURVE_STYLE('',#312,POSITIVE_LENGTH_MEASURE(1.0E-006),#313);
#196=LINE('',#314,#315);
#197=POINT_STYLE(' ',#316,POSITIVE_LENGTH_MEASURE(1.0E-006),#317);
#198=CARTESIAN_POINT('',(-7.0,3.37580249007143E-015,0.577350269189598));
#199=SURFACE_STYLE_USAGE(.BOTH.,#318);
#200=FACE_OUTER_BOUND('',#319,.T.);
#201=CONICAL_SURFACE('',#320,8.74846116241178,0.0248106148955192);
#202=CURVE_STYLE('',#321,POSITIVE_LENGTH_MEASURE(1.0E-006),#322);
#203=CIRCLE('',#323,8.00000000000005);
#204=CURVE_STYLE('',#324,POSITIVE_LENGTH_MEASURE(1.0E-006),#325);
#205=CIRCLE('',#326,7.0);
#206=CURVE_STYLE('',#327,POSITIVE_LENGTH_MEASURE(1.0E-006),#328);
#207=CIRCLE('',#329,7.50000000000007);
#208=SURFACE_STYLE_USAGE(.BOTH.,#330);
#209=FACE_OUTER_BOUND('',#331,.T.);
#210=CONICAL_SURFACE('',#332,7.45868412263473,1.0471975511966);
#211=CURVE_STYLE('',#333,POSITIVE_LENGTH_MEASURE(1.0E-006),#334);
#212=CIRCLE('',#335,9.99692232482357);
#213=SURFACE_STYLE_USAGE(.BOTH.,#336);
#214=CLOSED_SHELL('',(#114,#124,#156,#80,#86,#106,#108,#94,#144,#72,#122));
#215=CURVE_STYLE('',#337,POSITIVE_LENGTH_MEASURE(1.0E-006),#338);
#216=CIRCLE('',#339,16.0);
#217=POINT_STYLE(' ',#340,POSITIVE_LENGTH_MEASURE(1.0E-006),#341);
#218=CARTESIAN_POINT('',(15.8461031777289,2.99166753740843E-012,7.78617659223492));
#219=CURVE_STYLE('',#342,POSITIVE_LENGTH_MEASURE(1.0E-006),#343);
#220=LINE('',#344,#345);
#221=SURFACE_STYLE_USAGE(.BOTH.,#346);
#222=FACE_OUTER_BOUND('',#347,.T.);
#223=CONICAL_SURFACE('',#348,8.74846116241178,0.0248106148955192);
#224=SURFACE_STYLE_USAGE(.BOTH.,#349);
#225=FACE_OUTER_BOUND('',#350,.T.);
#226=SPHERICAL_SURFACE('',#351,10.0);
#227=CURVE_STYLE('',#352,POSITIVE_LENGTH_MEASURE(1.0E-006),#353);
#228=LINE('',#354,#355);
#229=POINT_STYLE(' ',#356,POSITIVE_LENGTH_MEASURE(1.0E-006),#357);
#230=CARTESIAN_POINT('',(7.99999999999999,7.85799828687132E-015,-5.44564393578639E-014));
#231=SURFACE_STYLE_USAGE(.BOTH.,#358);
#232=FACE_OUTER_BOUND('',#359,.T.);
#233=SPHERICAL_SURFACE('',#360,16.0);
#234=CURVE_STYLE('',#361,POSITIVE_LENGTH_MEASURE(1.0E-006),#362);
#235=LINE('',#363,#364);
#236=CURVE_STYLE('',#365,POSITIVE_LENGTH_MEASURE(1.0E-006),#366);
#237=CIRCLE('',#367,9.99692232482357);
#238=CURVE_STYLE('',#368,POSITIVE_LENGTH_MEASURE(1.0E-006),#369);
#239=CIRCLE('',#370,6.99999999999999);
#240=SURFACE_STYLE_USAGE(.BOTH.,#371);
#241=FACE_OUTER_BOUND('',#372,.T.);
#242=SPHERICAL_SURFACE('',#373,16.0);
#243=SURFACE_STYLE_USAGE(.BOTH.,#374);
#244=FACE_OUTER_BOUND('',#375,.T.);
#245=CYLINDRICAL_SURFACE('',#376,7.0);
#246=POINT_STYLE(' ',#377,POSITIVE_LENGTH_MEASURE(1.0E-006),#378);
#247=CARTESIAN_POINT('',(-6.99999999999999,1.6613535947201E-015,24.3874945699381));
#248=CURVE_STYLE('',#379,POSITIVE_LENGTH_MEASURE(1.0E-006),#380);
#249=CIRCLE('',#381,10.0);
#250=POINT_STYLE(' ',#382,POSITIVE_LENGTH_MEASURE(1.0E-006),#383);
#251=CARTESIAN_POINT('',(-12.4899959967968,-1.39868844608285E-015,-5.6843418860808E-014));
#252=POINT_STYLE(' ',#384,POSITIVE_LENGTH_MEASURE(1.0E-006),#385);
#253=CARTESIAN_POINT('',(12.4899959967968,2.57760691407398E-015,-5.6843418860808E-014));
#254=POINT_STYLE(' ',#386,POSITIVE_LENGTH_MEASURE(1.0E-006),#387);
#255=CARTESIAN_POINT('',(7.0,8.23879997825791E-015,0.577350269189598));
#256=POINT_STYLE(' ',#388,POSITIVE_LENGTH_MEASURE(1.0E-006),#389);
#257=CARTESIAN_POINT('',(6.99999999999999,3.39855255626805E-015,24.3874945699381));
#258=CURVE_STYLE('',#390,POSITIVE_LENGTH_MEASURE(1.0E-006),#391);
#259=CIRCLE('',#392,16.0);
#260=POINT_STYLE(' ',#393,POSITIVE_LENGTH_MEASURE(1.0E-006),#394);
#261=CARTESIAN_POINT('',(-8.00000000000006,1.07528540081728E-014,-2.50190493322755E-014));
#262=CURVE_STYLE('',#395,POSITIVE_LENGTH_MEASURE(1.0E-006),#396);
#263=CIRCLE('',#397,10.0);
#264=SURFACE_STYLE_USAGE(.BOTH.,#398);
#265=FACE_BOUND('',#399,.T.);
#266=FACE_OUTER_BOUND('',#400,.T.);
#267=PLANE('',#401);
#268=CURVE_STYLE('',#402,POSITIVE_LENGTH_MEASURE(1.0E-006),#403);
#269=CIRCLE('',#404,7.0);
#270=POINT_STYLE(' ',#405,POSITIVE_LENGTH_MEASURE(1.0E-006),#406);
#271=CARTESIAN_POINT('',(117.461577598239,7.50288972225203E-014,52.7525179157084));
#272=POINT_STYLE(' ',#407,POSITIVE_LENGTH_MEASURE(1.0E-006),#408);
#273=CARTESIAN_POINT('',(111.250680597878,3.97703016016337E-012,39.8534337482383));
#274=CURVE_STYLE('',#409,POSITIVE_LENGTH_MEASURE(1.0E-006),#410);
#275=CIRCLE('',#411,12.4899959967968);
#276=CURVE_STYLE('',#412,POSITIVE_LENGTH_MEASURE(1.0E-006),#413);
#277=LINE('',#414,#415);
#278=SURFACE_STYLE_USAGE(.BOTH.,#416);
#279=FACE_OUTER_BOUND('',#417,.T.);
#280=CONICAL_SURFACE('',#418,7.45868412263473,1.0471975511966);
#281=POINT_STYLE(' ',#419,POSITIVE_LENGTH_MEASURE(1.0E-006),#420);
#282=CARTESIAN_POINT('',(104.412382985174,7.61968930757844E-014,58.6415020266516));
#283=CURVE_STYLE('',#421,POSITIVE_LENGTH_MEASURE(1.0E-006),#422);
#284=LINE('',#423,#424);
#285=CURVE_STYLE('',#425,POSITIVE_LENGTH_MEASURE(1.0E-006),#426);
#286=CIRCLE('',#427,7.50000000000007);
#287=CURVE_STYLE('',#428,POSITIVE_LENGTH_MEASURE(1.0E-006),#429);
#288=CIRCLE('',#430,8.00000000000005);
#289=POINT_STYLE(' ',#431,POSITIVE_LENGTH_MEASURE(1.0E-006),#432);
#290=CARTESIAN_POINT('',(10.7158010278439,6.95478561827579E-014,21.8815659040235));
#291=PRODUCT_CONTEXT('',#58,'mechanical');
#292=PRODUCT_DEFINITION_FORMATION_WITH_SPECIFIED_SOURCE(' ','NONE',#167,.NOT_KNOWN.);
#293=CARTESIAN_POINT('',(0.0,0.0,0.0));
#294=DIRECTION('',(0.0,0.0,1.0));
#295=DIRECTION('',(1.0,0.0,0.0));
#296= (NAMED_UNIT(#175)LENGTH_UNIT()SI_UNIT(.MILLI.,.METRE.));
#297=SURFACE_SIDE_STYLE('',(#434));
#298=EDGE_LOOP('',(#435,#436,#437,#438));
#299=AXIS2_PLACEMENT_3D('',#439,#440,#441);
#300=DRAUGHTING_PRE_DEFINED_CURVE_FONT('continuous');
#301=COLOUR_RGB('',0.509803950786591,0.509803950786591,0.588235318660736);
#302=AXIS2_PLACEMENT_3D('',#442,#443,#444);
#303=DRAUGHTING_PRE_DEFINED_CURVE_FONT('continuous');
#304=COLOUR_RGB('',0.509803950786591,0.509803950786591,0.588235318660736);
#305=AXIS2_PLACEMENT_3D('',#445,#446,#447);
#306=DRAUGHTING_PRE_DEFINED_CURVE_FONT('continuous');
#307=COLOUR_RGB('',0.509803950786591,0.509803950786591,0.588235318660736);
#308=AXIS2_PLACEMENT_3D('',#448,#449,#450);
#309=SURFACE_SIDE_STYLE('',(#451));
#310=EDGE_LOOP('',(#452,#453,#454));
#311=AXIS2_PLACEMENT_3D('',#455,#456,#457);
#312=DRAUGHTING_PRE_DEFINED_CURVE_FONT('continuous');
#313=COLOUR_RGB('',0.509803950786591,0.509803950786591,0.588235318660736);
#314=CARTESIAN_POINT('',(7.45868412263467,8.06413228854645E-015,0.312528867513431));
#315=VECTOR('',#458,1.0);
#316=PRE_DEFINED_MARKER('');
#317=COLOUR_RGB('',0.509803950786591,0.509803950786591,0.588235318660736);
#318=SURFACE_SIDE_STYLE('',(#459));
#319=EDGE_LOOP('',(#460,#461,#462,#463));
#320=AXIS2_PLACEMENT_3D('',#464,#465,#466);
#321=DRAUGHTING_PRE_DEFINED_CURVE_FONT('continuous');
#322=COLOUR_RGB('',0.509803950786591,0.509803950786591,0.588235318660736);
#323=AXIS2_PLACEMENT_3D('',#467,#468,#469);
#324=DRAUGHTING_PRE_DEFINED_CURVE_FONT('continuous');
#325=COLOUR_RGB('',0.509803950786591,0.509803950786591,0.588235318660736);
#326=AXIS2_PLACEMENT_3D('',#470,#471,#472);
#327=DRAUGHTING_PRE_DEFINED_CURVE_FONT('continuous');
#328=COLOUR_RGB('',0.509803950786591,0.509803950786591,0.588235318660736);
#329=AXIS2_PLACEMENT_3D('',#473,#474,#475);
#330=SURFACE_SIDE_STYLE('',(#476));
#331=EDGE_LOOP('',(#477,#478,#479,#480));
#332=AXIS2_PLACEMENT_3D('',#481,#482,#483);
#333=DRAUGHTING_PRE_DEFINED_CURVE_FONT('continuous');
#334=COLOUR_RGB('',0.509803950786591,0.509803950786591,0.588235318660736);
#335=AXIS2_PLACEMENT_3D('',#484,#485,#486);
#336=SURFACE_SIDE_STYLE('',(#487));
#337=DRAUGHTING_PRE_DEFINED_CURVE_FONT('continuous');
#338=COLOUR_RGB('',0.509803950786591,0.509803950786591,0.588235318660736);
#339=AXIS2_PLACEMENT_3D('',#488,#489,#490);
#340=PRE_DEFINED_MARKER('');
#341=COLOUR_RGB('',0.509803950786591,0.509803950786591,0.588235318660736);
#342=DRAUGHTING_PRE_DEFINED_CURVE_FONT('continuous');
#343=COLOUR_RGB('',0.509803950786591,0.509803950786591,0.588235318660736);
#344=CARTESIAN_POINT('',(-7.45868412263478,1.16352954964474E-014,0.312528867513434));
#345=VECTOR('',#491,1.0);
#346=SURFACE_SIDE_STYLE('',(#492));
#347=EDGE_LOOP('',(#493,#494,#495,#496));
#348=AXIS2_PLACEMENT_3D('',#497,#498,#499);
#349=SURFACE_SIDE_STYLE('',(#500));
#350=EDGE_LOOP('',(#501,#502,#503));
#351=AXIS2_PLACEMENT_3D('',#504,#505,#506);
#352=DRAUGHTING_PRE_DEFINED_CURVE_FONT('continuous');
#353=COLOUR_RGB('',0.509803950786591,0.509803950786591,0.588235318660736);
#354=CARTESIAN_POINT('',(63.5483918878034,3.48434884878591E-012,23.8198051702366));
#355=VECTOR('',#507,1.0);
#356=PRE_DEFINED_MARKER('');
#357=COLOUR_RGB('',0.509803950786591,0.509803950786591,0.588235318660736);
#358=SURFACE_SIDE_STYLE('',(#508));
#359=EDGE_LOOP('',(#509,#510,#511,#512,#513,#514));
#360=AXIS2_PLACEMENT_3D('',#515,#516,#517);
#361=DRAUGHTING_PRE_DEFINED_CURVE_FONT('continuous');
#362=COLOUR_RGB('',0.509803950786591,0.509803950786591,0.588235318660736);
#363=CARTESIAN_POINT('',(57.5640920065091,-3.33386183347214E-012,40.2615339653376));
#364=VECTOR('',#518,1.0);
#365=DRAUGHTING_PRE_DEFINED_CURVE_FONT('continuous');
#366=COLOUR_RGB('',0.509803950786591,0.509803950786591,0.588235318660736);
#367=AXIS2_PLACEMENT_3D('',#519,#520,#521);
#368=DRAUGHTING_PRE_DEFINED_CURVE_FONT('continuous');
#369=COLOUR_RGB('',0.509803950786591,0.509803950786591,0.588235318660736);
#370=AXIS2_PLACEMENT_3D('',#522,#523,#524);
#371=SURFACE_SIDE_STYLE('',(#525));
#372=EDGE_LOOP('',(#526,#527,#528,#529,#530,#531));
#373=AXIS2_PLACEMENT_3D('',#532,#533,#534);
#374=SURFACE_SIDE_STYLE('',(#535));
#375=EDGE_LOOP('',(#536,#537,#538,#539));
#376=AXIS2_PLACEMENT_3D('',#540,#541,#542);
#377=PRE_DEFINED_MARKER('');
#378=COLOUR_RGB('',0.509803950786591,0.509803950786591,0.588235318660736);
#379=DRAUGHTING_PRE_DEFINED_CURVE_FONT('continuous');
#380=COLOUR_RGB('',0.509803950786591,0.509803950786591,0.588235318660736);
#381=AXIS2_PLACEMENT_3D('',#543,#544,#545);
#382=PRE_DEFINED_MARKER('');
#383=COLOUR_RGB('',0.509803950786591,0.509803950786591,0.588235318660736);
#384=PRE_DEFINED_MARKER('');
#385=COLOUR_RGB('',0.509803950786591,0.509803950786591,0.588235318660736);
#386=PRE_DEFINED_MARKER('');
#387=COLOUR_RGB('',0.509803950786591,0.509803950786591,0.588235318660736);
#388=PRE_DEFINED_MARKER('');
#389=COLOUR_RGB('',0.509803950786591,0.509803950786591,0.588235318660736);
#390=DRAUGHTING_PRE_DEFINED_CURVE_FONT('continuous');
#391=COLOUR_RGB('',0.509803950786591,0.509803950786591,0.588235318660736);
#392=AXIS2_PLACEMENT_3D('',#546,#547,#548);
#393=PRE_DEFINED_MARKER('');
#394=COLOUR_RGB('',0.509803950786591,0.509803950786591,0.588235318660736);
#395=DRAUGHTING_PRE_DEFINED_CURVE_FONT('continuous');
#396=COLOUR_RGB('',0.509803950786591,0.509803950786591,0.588235318660736);
#397=AXIS2_PLACEMENT_3D('',#549,#550,#551);
#398=SURFACE_SIDE_STYLE('',(#552));
#399=EDGE_LOOP('',(#553,#554));
#400=EDGE_LOOP('',(#555,#556));
#401=AXIS2_PLACEMENT_3D('',#557,#558,#559);
#402=DRAUGHTING_PRE_DEFINED_CURVE_FONT('continuous');
#403=COLOUR_RGB('',0.509803950786591,0.509803950786591,0.588235318660736);
#404=AXIS2_PLACEMENT_3D('',#560,#561,#562);
#405=PRE_DEFINED_MARKER('');
#406=COLOUR_RGB('',0.509803950786591,0.509803950786591,0.588235318660736);
#407=PRE_DEFINED_MARKER('');
#408=COLOUR_RGB('',0.509803950786591,0.509803950786591,0.588235318660736);
#409=DRAUGHTING_PRE_DEFINED_CURVE_FONT('continuous');
#410=COLOUR_RGB('',0.509803950786591,0.509803950786591,0.588235318660736);
#411=AXIS2_PLACEMENT_3D('',#563,#564,#565);
#412=DRAUGHTING_PRE_DEFINED_CURVE_FONT('continuous');
#413=COLOUR_RGB('',0.509803950786591,0.509803950786591,0.588235318660736);
#414=CARTESIAN_POINT('',(-7.0,1.6613535947201E-015,12.193747284969));
#415=VECTOR('',#566,1.0);
#416=SURFACE_SIDE_STYLE('',(#567));
#417=EDGE_LOOP('',(#568,#569,#570,#571));
#418=AXIS2_PLACEMENT_3D('',#572,#573,#574);
#419=PRE_DEFINED_MARKER('');
#420=COLOUR_RGB('',0.509803950786591,0.509803950786591,0.588235318660736);
#421=DRAUGHTING_PRE_DEFINED_CURVE_FONT('continuous');
#422=COLOUR_RGB('',0.509803950786591,0.509803950786591,0.588235318660736);
#423=CARTESIAN_POINT('',(7.0,3.42130262246468E-015,12.193747284969));
#424=VECTOR('',#575,1.0);
#425=DRAUGHTING_PRE_DEFINED_CURVE_FONT('continuous');
#426=COLOUR_RGB('',0.509803950786591,0.509803950786591,0.588235318660736);
#427=AXIS2_PLACEMENT_3D('',#576,#577,#578);
#428=DRAUGHTING_PRE_DEFINED_CURVE_FONT('continuous');
#429=COLOUR_RGB('',0.509803950786591,0.509803950786591,0.588235318660736);
#430=AXIS2_PLACEMENT_3D('',#579,#580,#581);
#431=PRE_DEFINED_MARKER('');
#432=COLOUR_RGB('',0.509803950786591,0.509803950786591,0.588235318660736);
#434=SURFACE_STYLE_FILL_AREA(#582);
#435=ORIENTED_EDGE('',*,*,#160,.T.);
#436=ORIENTED_EDGE('',*,*,#146,.T.);
#437=ORIENTED_EDGE('',*,*,#154,.T.);
#438=ORIENTED_EDGE('',*,*,#120,.F.);
#439=CARTESIAN_POINT('',(0.0,2.54132810859239E-015,12.193747284969));
#440=DIRECTION('',(-0.0,-0.0,1.0));
#441=DIRECTION('',(1.0,3.25000945666128E-018,0.0));
#442=CARTESIAN_POINT('',(0.0,2.54132810859239E-015,-5.6843418860808E-014));
#443=DIRECTION('',(0.0,0.0,-1.0));
#444=DIRECTION('',(1.0,3.25000945666128E-018,0.0));
#445=CARTESIAN_POINT('',(1.07881802459828E-031,1.66037724529583E-015,9.99999999999993));
#446=DIRECTION('',(-2.44921270764475E-016,1.0,0.0));
#447=DIRECTION('',(0.0,0.0,-1.0));
#448=CARTESIAN_POINT('',(0.0,2.54132810859239E-015,24.3874945699381));
#449=DIRECTION('',(0.0,0.0,-1.0));
#450=DIRECTION('',(1.0,3.25000945666128E-018,0.0));
#451=SURFACE_STYLE_FILL_AREA(#583);
#452=ORIENTED_EDGE('',*,*,#142,.T.);
#453=ORIENTED_EDGE('',*,*,#128,.T.);
#454=ORIENTED_EDGE('',*,*,#118,.T.);
#455=CARTESIAN_POINT('',(108.06465139038,7.44127493602896E-014,49.3323164824517));
#456=DIRECTION('',(0.939692620785909,1.22845103914193E-016,0.342020143325668));
#457=DIRECTION('',(-0.342020143325668,1.79998313084964E-016,0.939692620785909));
#458=DIRECTION('',(-0.866025403784439,3.29783938544864E-016,0.5));
#459=SURFACE_STYLE_FILL_AREA(#584);
#460=ORIENTED_EDGE('',*,*,#116,.F.);
#461=ORIENTED_EDGE('',*,*,#162,.F.);
#462=ORIENTED_EDGE('',*,*,#110,.F.);
#463=ORIENTED_EDGE('',*,*,#96,.F.);
#464=CARTESIAN_POINT('',(60.5562419471563,7.52435076568794E-014,32.0406695677871));
#465=DIRECTION('',(0.939692620785909,1.22845103914187E-016,0.342020143325668));
#466=DIRECTION('',(-0.342020143325668,-3.89803031634134E-013,0.939692620785909));
#467=CARTESIAN_POINT('',(-5.6843418860808E-014,9.77316892511493E-015,-5.44564393578639E-014));
#468=DIRECTION('',(0.0,0.0,1.0));
#469=DIRECTION('',(-1.0,1.16935694398212E-016,0.0));
#470=CARTESIAN_POINT('',(0.0,2.54132810859239E-015,0.577350269189598));
#471=DIRECTION('',(0.0,0.0,-1.0));
#472=DIRECTION('',(1.0,3.25000945666128E-018,0.0));
#473=CARTESIAN_POINT('',(13.2809521027864,3.39658321845939E-015,14.8338712481293));
#474=DIRECTION('',(-0.939692620785909,-1.22845103914193E-016,-0.342020143325668));
#475=DIRECTION('',(0.342020143325668,0.0,-0.939692620785909));
#476=SURFACE_STYLE_FILL_AREA(#585);
#477=ORIENTED_EDGE('',*,*,#104,.T.);
#478=ORIENTED_EDGE('',*,*,#88,.F.);
#479=ORIENTED_EDGE('',*,*,#82,.T.);
#480=ORIENTED_EDGE('',*,*,#90,.F.);
#481=CARTESIAN_POINT('',(-5.6766873893426E-014,9.84971389249691E-015,0.312528867513432));
#482=DIRECTION('',(-2.44921270764476E-016,-2.44921270764475E-016,-1.0));
#483=DIRECTION('',(-1.0,1.16935694398212E-016,2.44921270764475E-016));
#484=CARTESIAN_POINT('',(107.831531791526,8.14237603959593E-014,49.247467887445));
#485=DIRECTION('',(0.939692620785909,1.22845103914178E-016,0.342020143325668));
#486=DIRECTION('',(-0.342020143325668,-3.89803031634134E-013,0.939692620785909));
#487=SURFACE_STYLE_FILL_AREA(#586);
#488=CARTESIAN_POINT('',(1.07881802459828E-031,1.66037724529583E-015,9.99999999999993));
#489=DIRECTION('',(-2.44921270764475E-016,1.0,0.0));
#490=DIRECTION('',(0.0,0.0,-1.0));
#491=DIRECTION('',(-0.866025403784439,8.48626677803886E-017,-0.5));
#492=SURFACE_STYLE_FILL_AREA(#587);
#493=ORIENTED_EDGE('',*,*,#116,.T.);
#494=ORIENTED_EDGE('',*,*,#118,.F.);
#495=ORIENTED_EDGE('',*,*,#110,.T.);
#496=ORIENTED_EDGE('',*,*,#92,.F.);
#497=CARTESIAN_POINT('',(60.5562419471563,7.52435076568794E-014,32.0406695677871));
#498=DIRECTION('',(0.939692620785909,1.22845103914187E-016,0.342020143325668));
#499=DIRECTION('',(-0.342020143325668,-3.89803031634134E-013,0.939692620785909));
#500=SURFACE_STYLE_FILL_AREA(#588);
#501=ORIENTED_EDGE('',*,*,#142,.F.);
#502=ORIENTED_EDGE('',*,*,#96,.T.);
#503=ORIENTED_EDGE('',*,*,#128,.F.);
#504=CARTESIAN_POINT('',(108.06465139038,7.44127493602896E-014,49.3323164824517));
#505=DIRECTION('',(0.939692620785909,1.22845103914193E-016,0.342020143325668));
#506=DIRECTION('',(-0.342020143325668,1.79998313084964E-016,0.939692620785909));
#507=DIRECTION('',(-0.947888273421336,-9.79003000101166E-015,-0.318602920749823));
#508=SURFACE_STYLE_FILL_AREA(#589);
#509=ORIENTED_EDGE('',*,*,#76,.F.);
#510=ORIENTED_EDGE('',*,*,#120,.T.);
#511=ORIENTED_EDGE('',*,*,#100,.F.);
#512=ORIENTED_EDGE('',*,*,#152,.F.);
#513=ORIENTED_EDGE('',*,*,#138,.F.);
#514=ORIENTED_EDGE('',*,*,#162,.T.);
#515=CARTESIAN_POINT('',(1.07881802459828E-031,1.66037724529583E-015,9.99999999999993));
#516=DIRECTION('',(0.0,0.0,-1.0));
#517=DIRECTION('',(1.0,1.22460635382238E-016,0.0));
#518=DIRECTION('',(0.930918554419987,-9.54441540864864E-015,0.365226840520522));
#519=CARTESIAN_POINT('',(107.831531791526,8.14237603959593E-014,49.247467887445));
#520=DIRECTION('',(0.939692620785909,1.22845103914178E-016,0.342020143325668));
#521=DIRECTION('',(-0.342020143325668,-3.89803031634134E-013,0.939692620785909));
#522=CARTESIAN_POINT('',(0.0,2.54132810859239E-015,24.3874945699381));
#523=DIRECTION('',(0.0,0.0,-1.0));
#524=DIRECTION('',(1.0,3.25000945666128E-018,0.0));
#525=SURFACE_STYLE_FILL_AREA(#590);
#526=ORIENTED_EDGE('',*,*,#76,.T.);
#527=ORIENTED_EDGE('',*,*,#92,.T.);
#528=ORIENTED_EDGE('',*,*,#138,.T.);
#529=ORIENTED_EDGE('',*,*,#74,.F.);
#530=ORIENTED_EDGE('',*,*,#100,.T.);
#531=ORIENTED_EDGE('',*,*,#78,.T.);
#532=CARTESIAN_POINT('',(1.07881802459828E-031,1.66037724529583E-015,9.99999999999993));
#533=DIRECTION('',(0.0,0.0,-1.0));
#534=DIRECTION('',(1.0,1.22460635382238E-016,0.0));
#535=SURFACE_STYLE_FILL_AREA(#591);
#536=ORIENTED_EDGE('',*,*,#160,.F.);
#537=ORIENTED_EDGE('',*,*,#78,.F.);
#538=ORIENTED_EDGE('',*,*,#154,.F.);
#539=ORIENTED_EDGE('',*,*,#90,.T.);
#540=CARTESIAN_POINT('',(0.0,2.54132810859239E-015,12.193747284969));
#541=DIRECTION('',(-0.0,-0.0,1.0));
#542=DIRECTION('',(1.0,3.25000945666128E-018,0.0));
#543=CARTESIAN_POINT('',(108.06465139038,7.44127493602896E-014,49.3323164824517));
#544=DIRECTION('',(-1.19895847429617E-017,1.0,-3.26233942012884E-016));
#545=DIRECTION('',(0.0,-3.26233942012884E-016,-1.0));
#546=CARTESIAN_POINT('',(1.07881802459828E-031,1.66037724529583E-015,9.99999999999993));
#547=DIRECTION('',(-2.44921270764475E-016,1.0,0.0));
#548=DIRECTION('',(0.0,0.0,-1.0));
#549=CARTESIAN_POINT('',(108.06465139038,7.44127493602896E-014,49.3323164824517));
#550=DIRECTION('',(-1.19895847429617E-017,1.0,-3.26233942012884E-016));
#551=DIRECTION('',(0.0,-3.26233942012884E-016,-1.0));
#552=SURFACE_STYLE_FILL_AREA(#592);
#553=ORIENTED_EDGE('',*,*,#164,.T.);
#554=ORIENTED_EDGE('',*,*,#88,.T.);
#555=ORIENTED_EDGE('',*,*,#152,.T.);
#556=ORIENTED_EDGE('',*,*,#74,.T.);
#557=CARTESIAN_POINT('',(9.7449979983984,2.24145271506714E-015,-5.6843418860808E-014));
#558=DIRECTION('',(0.0,0.0,-1.0));
#559=DIRECTION('',(1.0,1.22460635382238E-016,0.0));
#560=CARTESIAN_POINT('',(0.0,2.54132810859239E-015,0.577350269189598));
#561=DIRECTION('',(0.0,0.0,-1.0));
#562=DIRECTION('',(1.0,3.25000945666128E-018,0.0));
#563=CARTESIAN_POINT('',(0.0,2.54132810859239E-015,-5.6843418860808E-014));
#564=DIRECTION('',(0.0,0.0,-1.0));
#565=DIRECTION('',(1.0,3.25000945666128E-018,0.0));
#566=DIRECTION('',(-0.0,-0.0,1.0));
#567=SURFACE_STYLE_FILL_AREA(#593);
#568=ORIENTED_EDGE('',*,*,#104,.F.);
#569=ORIENTED_EDGE('',*,*,#146,.F.);
#570=ORIENTED_EDGE('',*,*,#82,.F.);
#571=ORIENTED_EDGE('',*,*,#164,.F.);
#572=CARTESIAN_POINT('',(-5.6766873893426E-014,9.84971389249691E-015,0.312528867513432));
#573=DIRECTION('',(-2.44921270764476E-016,-2.44921270764475E-016,-1.0));
#574=DIRECTION('',(-1.0,1.16935694398212E-016,2.44921270764475E-016));
#575=DIRECTION('',(-0.0,-0.0,-1.0));
#576=CARTESIAN_POINT('',(13.2809521027864,3.39658321845939E-015,14.8338712481293));
#577=DIRECTION('',(-0.939692620785909,-1.22845103914193E-016,-0.342020143325668));
#578=DIRECTION('',(0.342020143325668,0.0,-0.939692620785909));
#579=CARTESIAN_POINT('',(-5.6843418860808E-014,9.77316892511493E-015,-5.44564393578639E-014));
#580=DIRECTION('',(0.0,0.0,1.0));
#581=DIRECTION('',(-1.0,1.16935694398212E-016,0.0));
#582=FILL_AREA_STYLE('',(#594));
#583=FILL_AREA_STYLE('',(#595));
#584=FILL_AREA_STYLE('',(#596));
#585=FILL_AREA_STYLE('',(#597));
#586=FILL_AREA_STYLE('',(#598));
#587=FILL_AREA_STYLE('',(#599));
#588=FILL_AREA_STYLE('',(#600));
#589=FILL_AREA_STYLE('',(#601));
#590=FILL_AREA_STYLE('',(#602));
#591=FILL_AREA_STYLE('',(#603));
#592=FILL_AREA_STYLE('',(#604));
#593=FILL_AREA_STYLE('',(#605));
#594=FILL_AREA_STYLE_COLOUR('',#606);
#595=FILL_AREA_STYLE_COLOUR('',#607);
#596=FILL_AREA_STYLE_COLOUR('',#608);
#597=FILL_AREA_STYLE_COLOUR('',#609);
#598=FILL_AREA_STYLE_COLOUR('',#610);
#599=FILL_AREA_STYLE_COLOUR('',#611);
#600=FILL_AREA_STYLE_COLOUR('',#612);
#601=FILL_AREA_STYLE_COLOUR('',#613);
#602=FILL_AREA_STYLE_COLOUR('',#614);
#603=FILL_AREA_STYLE_COLOUR('',#615);
#604=FILL_AREA_STYLE_COLOUR('',#616);
#605=FILL_AREA_STYLE_COLOUR('',#617);
#606=COLOUR_RGB('',0.509803950786591,0.509803950786591,0.588235318660736);
#607=COLOUR_RGB('',0.509803950786591,0.509803950786591,0.588235318660736);
#608=COLOUR_RGB('',0.509803950786591,0.509803950786591,0.588235318660736);
#609=COLOUR_RGB('',0.509803950786591,0.509803950786591,0.588235318660736);
#610=COLOUR_RGB('',0.509803950786591,0.509803950786591,0.588235318660736);
#611=COLOUR_RGB('',0.509803950786591,0.509803950786591,0.588235318660736);
#612=COLOUR_RGB('',0.509803950786591,0.509803950786591,0.588235318660736);
#613=COLOUR_RGB('',0.509803950786591,0.509803950786591,0.588235318660736);
#614=COLOUR_RGB('',0.509803950786591,0.509803950786591,0.588235318660736);
#615=COLOUR_RGB('',0.509803950786591,0.509803950786591,0.588235318660736);
#616=COLOUR_RGB('',0.509803950786591,0.509803950786591,0.588235318660736);
#617=COLOUR_RGB('',0.509803950786591,0.509803950786591,0.588235318660736);
ENDSEC;
END-ISO-10303-21;
