ISO-10303-21;
HEADER;
FILE_DESCRIPTION(('STEP AP214'),'1');
FILE_NAME(' ','  ',('TraceParts'),('TraceParts S.A.'),'XStep 1.0',' ',' ');
FILE_SCHEMA(('automotive_design'));
ENDSEC;
DATA;
#1=MECHANICAL_DESIGN_GEOMETRIC_PRESENTATION_REPRESENTATION(' ',(#10,#11,#12,#13,#14,#15,#16,#17,#18,#19,#20,#21,#22,#23,#24,#25,#26,#27,#28,#29,#30,#31,#32,#33,#34,#35,#36,#37,#38,#39,#40,#41,#42,#43,#44,#45,#46,#47,#48,#49),#6);
#2=PRODUCT_DEFINITION_CONTEXT('',#50,'design');
#3=APPLICATION_PROTOCOL_DEFINITION('INTERNATIONAL STANDARD','automotive_design',1994,#50);
#4=PRODUCT_CATEGORY_RELATIONSHIP('NONE','NONE',#51,#52);
#5=SHAPE_DEFINITION_REPRESENTATION(#53,#54);
#6= (GEOMETRIC_REPRESENTATION_CONTEXT(3)GLOBAL_UNCERTAINTY_ASSIGNED_CONTEXT((#57))GLOBAL_UNIT_ASSIGNED_CONTEXT((#59,#60,#61))REPRESENTATION_CONTEXT('NONE','WORKSPACE'));
#10=STYLED_ITEM('',(#63),#64);
#11=STYLED_ITEM('',(#65),#66);
#12=STYLED_ITEM('',(#67),#68);
#13=STYLED_ITEM('',(#69),#70);
#14=STYLED_ITEM('',(#71),#72);
#15=STYLED_ITEM('',(#73),#74);
#16=STYLED_ITEM('',(#75),#76);
#17=STYLED_ITEM('',(#77),#78);
#18=STYLED_ITEM('',(#79),#80);
#19=STYLED_ITEM('',(#81),#82);
#20=STYLED_ITEM('',(#83),#84);
#21=STYLED_ITEM('',(#85),#86);
#22=STYLED_ITEM('',(#87),#88);
#23=STYLED_ITEM('',(#89),#90);
#24=STYLED_ITEM('',(#91),#92);
#25=STYLED_ITEM('',(#93),#94);
#26=STYLED_ITEM('',(#95),#96);
#27=STYLED_ITEM('',(#97),#98);
#28=STYLED_ITEM('',(#99),#100);
#29=STYLED_ITEM('',(#101),#102);
#30=STYLED_ITEM('',(#103),#104);
#31=STYLED_ITEM('',(#105),#106);
#32=STYLED_ITEM('',(#107),#108);
#33=STYLED_ITEM('',(#109),#110);
#34=STYLED_ITEM('',(#111),#112);
#35=STYLED_ITEM('',(#113),#114);
#36=STYLED_ITEM('',(#115),#116);
#37=STYLED_ITEM('',(#117),#118);
#38=STYLED_ITEM('',(#119),#120);
#39=STYLED_ITEM('',(#121),#122);
#40=STYLED_ITEM('',(#123),#124);
#41=STYLED_ITEM('',(#125),#126);
#42=STYLED_ITEM('',(#127),#128);
#43=STYLED_ITEM('',(#129),#130);
#44=STYLED_ITEM('',(#131),#132);
#45=STYLED_ITEM('',(#133),#134);
#46=STYLED_ITEM('',(#135),#136);
#47=STYLED_ITEM('',(#137),#138);
#48=STYLED_ITEM('',(#139),#140);
#49=STYLED_ITEM('',(#141),#142);
#50=APPLICATION_CONTEXT(' ');
#51=PRODUCT_CATEGORY('part','NONE');
#52=PRODUCT_RELATED_PRODUCT_CATEGORY('detail',' ',(#143));
#53=PRODUCT_DEFINITION_SHAPE('NONE','NONE',#144);
#54=ADVANCED_BREP_SHAPE_REPRESENTATION('1',(#98,#145),#6);
#57=UNCERTAINTY_MEASURE_WITH_UNIT(LENGTH_MEASURE(1.0E-006),#59,'','');
#59= (CONVERSION_BASED_UNIT('MILLIMETRE',#148)LENGTH_UNIT()NAMED_UNIT(#151));
#60= (NAMED_UNIT(#153)PLANE_ANGLE_UNIT()SI_UNIT($,.RADIAN.));
#61= (NAMED_UNIT(#153)SOLID_ANGLE_UNIT()SI_UNIT($,.STERADIAN.));
#63=PRESENTATION_STYLE_ASSIGNMENT((#159));
#64=VERTEX_POINT('',#160);
#65=PRESENTATION_STYLE_ASSIGNMENT((#161));
#66=ADVANCED_FACE('',(#162),#163,.F.);
#67=PRESENTATION_STYLE_ASSIGNMENT((#164));
#68=EDGE_CURVE('',#110,#142,#165,.T.);
#69=PRESENTATION_STYLE_ASSIGNMENT((#166));
#70=ADVANCED_FACE('',(#167),#168,.T.);
#71=PRESENTATION_STYLE_ASSIGNMENT((#169));
#72=VERTEX_POINT('',#170);
#73=PRESENTATION_STYLE_ASSIGNMENT((#171));
#74=EDGE_CURVE('',#136,#78,#172,.T.);
#75=PRESENTATION_STYLE_ASSIGNMENT((#173));
#76=ADVANCED_FACE('',(#174,#175),#176,.T.);
#77=PRESENTATION_STYLE_ASSIGNMENT((#177));
#78=VERTEX_POINT('',#178);
#79=PRESENTATION_STYLE_ASSIGNMENT((#179));
#80=ADVANCED_FACE('',(#180),#181,.T.);
#81=PRESENTATION_STYLE_ASSIGNMENT((#182));
#82=EDGE_CURVE('',#78,#136,#183,.T.);
#83=PRESENTATION_STYLE_ASSIGNMENT((#184));
#84=EDGE_CURVE('',#72,#110,#185,.T.);
#85=PRESENTATION_STYLE_ASSIGNMENT((#186));
#86=VERTEX_POINT('',#187);
#87=PRESENTATION_STYLE_ASSIGNMENT((#188));
#88=EDGE_CURVE('',#118,#114,#189,.T.);
#89=PRESENTATION_STYLE_ASSIGNMENT((#190));
#90=ADVANCED_FACE('',(#191),#192,.T.);
#91=PRESENTATION_STYLE_ASSIGNMENT((#193));
#92=EDGE_CURVE('',#114,#78,#194,.T.);
#93=PRESENTATION_STYLE_ASSIGNMENT((#195));
#94=EDGE_CURVE('',#136,#118,#196,.T.);
#95=PRESENTATION_STYLE_ASSIGNMENT((#197));
#96=EDGE_CURVE('',#142,#86,#198,.T.);
#97=PRESENTATION_STYLE_ASSIGNMENT((#199));
#98=MANIFOLD_SOLID_BREP('1',#200);
#99=PRESENTATION_STYLE_ASSIGNMENT((#201));
#100=EDGE_CURVE('',#114,#118,#202,.T.);
#101=PRESENTATION_STYLE_ASSIGNMENT((#203));
#102=ADVANCED_FACE('',(#204),#205,.T.);
#103=PRESENTATION_STYLE_ASSIGNMENT((#206));
#104=EDGE_CURVE('',#138,#114,#207,.T.);
#105=PRESENTATION_STYLE_ASSIGNMENT((#208));
#106=EDGE_CURVE('',#64,#140,#209,.T.);
#107=PRESENTATION_STYLE_ASSIGNMENT((#210));
#108=EDGE_CURVE('',#86,#72,#211,.T.);
#109=PRESENTATION_STYLE_ASSIGNMENT((#212));
#110=VERTEX_POINT('',#213);
#111=PRESENTATION_STYLE_ASSIGNMENT((#214));
#112=EDGE_CURVE('',#78,#140,#215,.T.);
#113=PRESENTATION_STYLE_ASSIGNMENT((#216));
#114=VERTEX_POINT('',#217);
#115=PRESENTATION_STYLE_ASSIGNMENT((#218));
#116=EDGE_CURVE('',#140,#64,#219,.T.);
#117=PRESENTATION_STYLE_ASSIGNMENT((#220));
#118=VERTEX_POINT('',#221);
#119=PRESENTATION_STYLE_ASSIGNMENT((#222));
#120=EDGE_CURVE('',#64,#86,#223,.T.);
#121=PRESENTATION_STYLE_ASSIGNMENT((#224));
#122=ADVANCED_FACE('',(#225),#226,.F.);
#123=PRESENTATION_STYLE_ASSIGNMENT((#227));
#124=EDGE_CURVE('',#142,#110,#228,.T.);
#125=PRESENTATION_STYLE_ASSIGNMENT((#229));
#126=ADVANCED_FACE('',(#230),#231,.T.);
#127=PRESENTATION_STYLE_ASSIGNMENT((#232));
#128=EDGE_CURVE('',#118,#138,#233,.T.);
#129=PRESENTATION_STYLE_ASSIGNMENT((#234));
#130=EDGE_CURVE('',#72,#136,#235,.T.);
#131=PRESENTATION_STYLE_ASSIGNMENT((#236));
#132=ADVANCED_FACE('',(#237),#238,.T.);
#133=PRESENTATION_STYLE_ASSIGNMENT((#239));
#134=EDGE_CURVE('',#72,#86,#240,.T.);
#135=PRESENTATION_STYLE_ASSIGNMENT((#241));
#136=VERTEX_POINT('',#242);
#137=PRESENTATION_STYLE_ASSIGNMENT((#243));
#138=VERTEX_POINT('',#244);
#139=PRESENTATION_STYLE_ASSIGNMENT((#245));
#140=VERTEX_POINT('',#246);
#141=PRESENTATION_STYLE_ASSIGNMENT((#247));
#142=VERTEX_POINT('',#248);
#143=PRODUCT('1','1','PART-1-DESC',(#249));
#144=PRODUCT_DEFINITION('NONE','NONE',#250,#2);
#145=AXIS2_PLACEMENT_3D('',#251,#252,#253);
#148=LENGTH_MEASURE_WITH_UNIT(LENGTH_MEASURE(1.0),#254);
#151=DIMENSIONAL_EXPONENTS(1.0,0.0,0.0,0.0,0.0,0.0,0.0);
#153=DIMENSIONAL_EXPONENTS(0.0,0.0,0.0,0.0,0.0,0.0,0.0);
#159=POINT_STYLE(' ',#255,POSITIVE_LENGTH_MEASURE(1.0E-006),#256);
#160=CARTESIAN_POINT('',(-7.99999999999994,1.24289189252964E-015,-3.5527136788005E-014));
#161=SURFACE_STYLE_USAGE(.BOTH.,#257);
#162=FACE_OUTER_BOUND('',#258,.T.);
#163=CYLINDRICAL_SURFACE('',#259,4.99999999999999);
#164=CURVE_STYLE('',#260,POSITIVE_LENGTH_MEASURE(1.0E-006),#261);
#165=CIRCLE('',#262,5.0);
#166=SURFACE_STYLE_USAGE(.BOTH.,#263);
#167=FACE_OUTER_BOUND('',#264,.T.);
#168=CONICAL_SURFACE('',#265,5.49843721477273,0.03101275657513);
#169=POINT_STYLE(' ',#266,POSITIVE_LENGTH_MEASURE(1.0E-006),#267);
#170=CARTESIAN_POINT('',(5.00000000000005,4.34483534157963E-015,14.6602540378444));
#171=CURVE_STYLE('',#268,POSITIVE_LENGTH_MEASURE(1.0E-006),#269);
#172=CIRCLE('',#270,4.49999999999995);
#173=SURFACE_STYLE_USAGE(.BOTH.,#271);
#174=FACE_BOUND('',#272,.T.);
#175=FACE_OUTER_BOUND('',#273,.T.);
#176=PLANE('',#274);
#177=POINT_STYLE(' ',#275,POSITIVE_LENGTH_MEASURE(1.0E-006),#276);
#178=CARTESIAN_POINT('',(9.9308140775728,1.78734085398933E-012,4.82572075012666));
#179=SURFACE_STYLE_USAGE(.BOTH.,#277);
#180=FACE_OUTER_BOUND('',#278,.T.);
#181=CONICAL_SURFACE('',#279,5.49843721477273,0.03101275657513);
#182=CURVE_STYLE('',#280,POSITIVE_LENGTH_MEASURE(1.0E-006),#281);
#183=CIRCLE('',#282,4.49999999999995);
#184=CURVE_STYLE('',#283,POSITIVE_LENGTH_MEASURE(1.0E-006),#284);
#185=LINE('',#285,#286);
#186=POINT_STYLE(' ',#287,POSITIVE_LENGTH_MEASURE(1.0E-006),#288);
#187=CARTESIAN_POINT('',(-4.99999999999993,3.06744970014791E-015,14.6602540378444));
#188=CURVE_STYLE('',#289,POSITIVE_LENGTH_MEASURE(1.0E-006),#290);
#189=CIRCLE('',#291,6.49687442954543);
#190=SURFACE_STYLE_USAGE(.BOTH.,#292);
#191=FACE_OUTER_BOUND('',#293,.T.);
#192=SPHERICAL_SURFACE('',#294,6.50000000000001);
#193=CURVE_STYLE('',#295,POSITIVE_LENGTH_MEASURE(1.0E-006),#296);
#194=LINE('',#297,#298);
#195=CURVE_STYLE('',#299,POSITIVE_LENGTH_MEASURE(1.0E-006),#300);
#196=LINE('',#301,#302);
#197=CURVE_STYLE('',#303,POSITIVE_LENGTH_MEASURE(1.0E-006),#304);
#198=LINE('',#305,#306);
#199=SURFACE_STYLE_USAGE(.BOTH.,#307);
#200=CLOSED_SHELL('',(#102,#122,#126,#80,#70,#90,#76,#66,#132));
#201=CURVE_STYLE('',#308,POSITIVE_LENGTH_MEASURE(1.0E-006),#309);
#202=CIRCLE('',#310,6.49687442954543);
#203=SURFACE_STYLE_USAGE(.BOTH.,#311);
#204=FACE_OUTER_BOUND('',#312,.T.);
#205=SPHERICAL_SURFACE('',#313,10.0);
#206=CURVE_STYLE('',#314,POSITIVE_LENGTH_MEASURE(1.0E-006),#315);
#207=CIRCLE('',#316,6.50000000000001);
#208=CURVE_STYLE('',#317,POSITIVE_LENGTH_MEASURE(1.0E-006),#318);
#209=CIRCLE('',#319,8.0);
#210=CURVE_STYLE('',#320,POSITIVE_LENGTH_MEASURE(1.0E-006),#321);
#211=CIRCLE('',#322,4.99999999999999);
#212=POINT_STYLE(' ',#323,POSITIVE_LENGTH_MEASURE(1.0E-006),#324);
#213=CARTESIAN_POINT('',(5.00000000000005,3.44718332940992E-015,-2.8421709430404E-014));
#214=CURVE_STYLE('',#325,POSITIVE_LENGTH_MEASURE(1.0E-006),#326);
#215=CIRCLE('',#327,10.0);
#216=POINT_STYLE(' ',#328,POSITIVE_LENGTH_MEASURE(1.0E-006),#329);
#217=CARTESIAN_POINT('',(71.1000739342937,2.55844172213668E-012,24.9644812077196));
#218=CURVE_STYLE('',#330,POSITIVE_LENGTH_MEASURE(1.0E-006),#331);
#219=CIRCLE('',#332,8.0);
#220=POINT_STYLE(' ',#333,POSITIVE_LENGTH_MEASURE(1.0E-006),#334);
#221=CARTESIAN_POINT('',(66.6559500871697,7.20562169554059E-014,37.1746111269526));
#222=CURVE_STYLE('',#335,POSITIVE_LENGTH_MEASURE(1.0E-006),#336);
#223=CIRCLE('',#337,10.0);
#224=SURFACE_STYLE_USAGE(.BOTH.,#338);
#225=FACE_OUTER_BOUND('',#339,.T.);
#226=CYLINDRICAL_SURFACE('',#340,4.99999999999999);
#227=CURVE_STYLE('',#341,POSITIVE_LENGTH_MEASURE(1.0E-006),#342);
#228=CIRCLE('',#343,5.0);
#229=SURFACE_STYLE_USAGE(.BOTH.,#344);
#230=FACE_OUTER_BOUND('',#345,.T.);
#231=SPHERICAL_SURFACE('',#346,6.50000000000001);
#232=CURVE_STYLE('',#347,POSITIVE_LENGTH_MEASURE(1.0E-006),#348);
#233=CIRCLE('',#349,6.50000000000001);
#234=CURVE_STYLE('',#350,POSITIVE_LENGTH_MEASURE(1.0E-006),#351);
#235=CIRCLE('',#352,10.0);
#236=SURFACE_STYLE_USAGE(.BOTH.,#353);
#237=FACE_OUTER_BOUND('',#354,.T.);
#238=SPHERICAL_SURFACE('',#355,10.0);
#239=CURVE_STYLE('',#356,POSITIVE_LENGTH_MEASURE(1.0E-006),#357);
#240=CIRCLE('',#358,4.99999999999999);
#241=POINT_STYLE(' ',#359,POSITIVE_LENGTH_MEASURE(1.0E-006),#360);
#242=CARTESIAN_POINT('',(6.85263278764182,6.77307522717998E-014,13.2829543371998));
#243=POINT_STYLE(' ',#361,POSITIVE_LENGTH_MEASURE(1.0E-006),#362);
#244=CARTESIAN_POINT('',(75.1754096628728,7.12997051257056E-014,33.3616114660533));
#245=POINT_STYLE(' ',#363,POSITIVE_LENGTH_MEASURE(1.0E-006),#364);
#246=CARTESIAN_POINT('',(8.00000000000005,3.81456523555663E-015,-3.5527136788005E-014));
#247=POINT_STYLE(' ',#365,POSITIVE_LENGTH_MEASURE(1.0E-006),#366);
#248=CARTESIAN_POINT('',(-4.99999999999994,3.0674497001479E-015,-2.8421709430404E-014));
#249=PRODUCT_CONTEXT('',#50,'mechanical');
#250=PRODUCT_DEFINITION_FORMATION_WITH_SPECIFIED_SOURCE(' ','NONE',#143,.NOT_KNOWN.);
#251=CARTESIAN_POINT('',(0.0,0.0,0.0));
#252=DIRECTION('',(0.0,0.0,1.0));
#253=DIRECTION('',(1.0,0.0,0.0));
#254= (NAMED_UNIT(#151)LENGTH_UNIT()SI_UNIT(.MILLI.,.METRE.));
#255=PRE_DEFINED_MARKER('');
#256=COLOUR_RGB('',0.509803950786591,0.509803950786591,0.588235318660736);
#257=SURFACE_SIDE_STYLE('',(#368));
#258=EDGE_LOOP('',(#369,#370,#371,#372));
#259=AXIS2_PLACEMENT_3D('',#373,#374,#375);
#260=DRAUGHTING_PRE_DEFINED_CURVE_FONT('continuous');
#261=COLOUR_RGB('',0.509803950786591,0.509803950786591,0.588235318660736);
#262=AXIS2_PLACEMENT_3D('',#376,#377,#378);
#263=SURFACE_SIDE_STYLE('',(#379));
#264=EDGE_LOOP('',(#380,#381,#382,#383));
#265=AXIS2_PLACEMENT_3D('',#384,#385,#386);
#266=PRE_DEFINED_MARKER('');
#267=COLOUR_RGB('',0.509803950786591,0.509803950786591,0.588235318660736);
#268=DRAUGHTING_PRE_DEFINED_CURVE_FONT('continuous');
#269=COLOUR_RGB('',0.509803950786591,0.509803950786591,0.588235318660736);
#270=AXIS2_PLACEMENT_3D('',#387,#388,#389);
#271=SURFACE_SIDE_STYLE('',(#390));
#272=EDGE_LOOP('',(#391,#392));
#273=EDGE_LOOP('',(#393,#394));
#274=AXIS2_PLACEMENT_3D('',#395,#396,#397);
#275=PRE_DEFINED_MARKER('');
#276=COLOUR_RGB('',0.509803950786591,0.509803950786591,0.588235318660736);
#277=SURFACE_SIDE_STYLE('',(#398));
#278=EDGE_LOOP('',(#399,#400,#401,#402));
#279=AXIS2_PLACEMENT_3D('',#403,#404,#405);
#280=DRAUGHTING_PRE_DEFINED_CURVE_FONT('continuous');
#281=COLOUR_RGB('',0.509803950786591,0.509803950786591,0.588235318660736);
#282=AXIS2_PLACEMENT_3D('',#406,#407,#408);
#283=DRAUGHTING_PRE_DEFINED_CURVE_FONT('continuous');
#284=COLOUR_RGB('',0.509803950786591,0.509803950786591,0.588235318660736);
#285=CARTESIAN_POINT('',(5.00000000000005,4.39761462918899E-015,7.33012701892216));
#286=VECTOR('',#409,1.0);
#287=PRE_DEFINED_MARKER('');
#288=COLOUR_RGB('',0.509803950786591,0.509803950786591,0.588235318660736);
#289=DRAUGHTING_PRE_DEFINED_CURVE_FONT('continuous');
#290=COLOUR_RGB('',0.509803950786591,0.509803950786591,0.588235318660736);
#291=AXIS2_PLACEMENT_3D('',#410,#411,#412);
#292=SURFACE_SIDE_STYLE('',(#413));
#293=EDGE_LOOP('',(#414,#415,#416));
#294=AXIS2_PLACEMENT_3D('',#417,#418,#419);
#295=DRAUGHTING_PRE_DEFINED_CURVE_FONT('continuous');
#296=COLOUR_RGB('',0.509803950786591,0.509803950786591,0.588235318660736);
#297=CARTESIAN_POINT('',(40.5154440059333,2.17289128806303E-012,14.8951009789231));
#298=VECTOR('',#420,1.0);
#299=DRAUGHTING_PRE_DEFINED_CURVE_FONT('continuous');
#300=COLOUR_RGB('',0.509803950786591,0.509803950786591,0.588235318660736);
#301=CARTESIAN_POINT('',(36.7542914374057,-2.0300488461184E-012,25.2287827320762));
#302=VECTOR('',#421,1.0);
#303=DRAUGHTING_PRE_DEFINED_CURVE_FONT('continuous');
#304=COLOUR_RGB('',0.509803950786591,0.509803950786591,0.588235318660736);
#305=CARTESIAN_POINT('',(-4.99999999999994,3.0674497001479E-015,7.33012701892216));
#306=VECTOR('',#422,1.0);
#307=SURFACE_SIDE_STYLE('',(#423));
#308=DRAUGHTING_PRE_DEFINED_CURVE_FONT('continuous');
#309=COLOUR_RGB('',0.509803950786591,0.509803950786591,0.588235318660736);
#310=AXIS2_PLACEMENT_3D('',#424,#425,#426);
#311=SURFACE_SIDE_STYLE('',(#427));
#312=EDGE_LOOP('',(#428,#429,#430,#431,#432,#433));
#313=AXIS2_PLACEMENT_3D('',#434,#435,#436);
#314=DRAUGHTING_PRE_DEFINED_CURVE_FONT('continuous');
#315=COLOUR_RGB('',0.509803950786591,0.509803950786591,0.588235318660736);
#316=AXIS2_PLACEMENT_3D('',#437,#438,#439);
#317=DRAUGHTING_PRE_DEFINED_CURVE_FONT('continuous');
#318=COLOUR_RGB('',0.509803950786591,0.509803950786591,0.588235318660736);
#319=AXIS2_PLACEMENT_3D('',#440,#441,#442);
#320=DRAUGHTING_PRE_DEFINED_CURVE_FONT('continuous');
#321=COLOUR_RGB('',0.509803950786591,0.509803950786591,0.588235318660736);
#322=AXIS2_PLACEMENT_3D('',#443,#444,#445);
#323=PRE_DEFINED_MARKER('');
#324=COLOUR_RGB('',0.509803950786591,0.509803950786591,0.588235318660736);
#325=DRAUGHTING_PRE_DEFINED_CURVE_FONT('continuous');
#326=COLOUR_RGB('',0.509803950786591,0.509803950786591,0.588235318660736);
#327=AXIS2_PLACEMENT_3D('',#446,#447,#448);
#328=PRE_DEFINED_MARKER('');
#329=COLOUR_RGB('',0.509803950786591,0.509803950786591,0.588235318660736);
#330=DRAUGHTING_PRE_DEFINED_CURVE_FONT('continuous');
#331=COLOUR_RGB('',0.509803950786591,0.509803950786591,0.588235318660736);
#332=AXIS2_PLACEMENT_3D('',#449,#450,#451);
#333=PRE_DEFINED_MARKER('');
#334=COLOUR_RGB('',0.509803950786591,0.509803950786591,0.588235318660736);
#335=DRAUGHTING_PRE_DEFINED_CURVE_FONT('continuous');
#336=COLOUR_RGB('',0.509803950786591,0.509803950786591,0.588235318660736);
#337=AXIS2_PLACEMENT_3D('',#452,#453,#454);
#338=SURFACE_SIDE_STYLE('',(#455));
#339=EDGE_LOOP('',(#456,#457,#458,#459));
#340=AXIS2_PLACEMENT_3D('',#460,#461,#462);
#341=DRAUGHTING_PRE_DEFINED_CURVE_FONT('continuous');
#342=COLOUR_RGB('',0.509803950786591,0.509803950786591,0.588235318660736);
#343=AXIS2_PLACEMENT_3D('',#463,#464,#465);
#344=SURFACE_SIDE_STYLE('',(#466));
#345=EDGE_LOOP('',(#467,#468,#469));
#346=AXIS2_PLACEMENT_3D('',#470,#471,#472);
#347=DRAUGHTING_PRE_DEFINED_CURVE_FONT('continuous');
#348=COLOUR_RGB('',0.509803950786591,0.509803950786591,0.588235318660736);
#349=AXIS2_PLACEMENT_3D('',#473,#474,#475);
#350=DRAUGHTING_PRE_DEFINED_CURVE_FONT('continuous');
#351=COLOUR_RGB('',0.509803950786591,0.509803950786591,0.588235318660736);
#352=AXIS2_PLACEMENT_3D('',#476,#477,#478);
#353=SURFACE_SIDE_STYLE('',(#479));
#354=EDGE_LOOP('',(#480,#481,#482,#483,#484,#485));
#355=AXIS2_PLACEMENT_3D('',#486,#487,#488);
#356=DRAUGHTING_PRE_DEFINED_CURVE_FONT('continuous');
#357=COLOUR_RGB('',0.509803950786591,0.509803950786591,0.588235318660736);
#358=AXIS2_PLACEMENT_3D('',#489,#490,#491);
#359=PRE_DEFINED_MARKER('');
#360=COLOUR_RGB('',0.509803950786591,0.509803950786591,0.588235318660736);
#361=PRE_DEFINED_MARKER('');
#362=COLOUR_RGB('',0.509803950786591,0.509803950786591,0.588235318660736);
#363=PRE_DEFINED_MARKER('');
#364=COLOUR_RGB('',0.509803950786591,0.509803950786591,0.588235318660736);
#365=PRE_DEFINED_MARKER('');
#366=COLOUR_RGB('',0.509803950786591,0.509803950786591,0.588235318660736);
#368=SURFACE_STYLE_FILL_AREA(#492);
#369=ORIENTED_EDGE('',*,*,#84,.T.);
#370=ORIENTED_EDGE('',*,*,#68,.T.);
#371=ORIENTED_EDGE('',*,*,#96,.T.);
#372=ORIENTED_EDGE('',*,*,#134,.F.);
#373=CARTESIAN_POINT('',(5.6843418860808E-014,3.73253216466845E-015,7.33012701892216));
#374=DIRECTION('',(-0.0,-0.0,1.0));
#375=DIRECTION('',(1.0,1.0555857521871E-017,0.0));
#376=CARTESIAN_POINT('',(5.6843418860808E-014,3.73253216466845E-015,-2.8421709430404E-014));
#377=DIRECTION('',(0.0,0.0,-1.0));
#378=DIRECTION('',(1.0,1.0555857521871E-017,0.0));
#379=SURFACE_STYLE_FILL_AREA(#493);
#380=ORIENTED_EDGE('',*,*,#94,.T.);
#381=ORIENTED_EDGE('',*,*,#100,.F.);
#382=ORIENTED_EDGE('',*,*,#92,.T.);
#383=ORIENTED_EDGE('',*,*,#74,.F.);
#384=CARTESIAN_POINT('',(38.6348677216695,7.14212209723169E-014,20.0619418554996));
#385=DIRECTION('',(0.939692620785909,1.22845103914233E-016,0.342020143325668));
#386=DIRECTION('',(-0.342020143325668,-3.82316525058754E-013,0.939692620785909));
#387=CARTESIAN_POINT('',(8.39172343260731,4.29930391498749E-015,9.0543375436632));
#388=DIRECTION('',(-0.939692620785909,-1.22845103914205E-016,-0.342020143325668));
#389=DIRECTION('',(0.342020143325668,-6.06157612568984E-033,-0.939692620785909));
#390=SURFACE_STYLE_FILL_AREA(#494);
#391=ORIENTED_EDGE('',*,*,#68,.F.);
#392=ORIENTED_EDGE('',*,*,#124,.F.);
#393=ORIENTED_EDGE('',*,*,#116,.T.);
#394=ORIENTED_EDGE('',*,*,#106,.T.);
#395=CARTESIAN_POINT('',(6.50000000000005,3.63087428248327E-015,-3.19744231092045E-014));
#396=DIRECTION('',(0.0,0.0,-1.0));
#397=DIRECTION('',(1.0,1.22460635382238E-016,0.0));
#398=SURFACE_STYLE_FILL_AREA(#495);
#399=ORIENTED_EDGE('',*,*,#94,.F.);
#400=ORIENTED_EDGE('',*,*,#82,.F.);
#401=ORIENTED_EDGE('',*,*,#92,.F.);
#402=ORIENTED_EDGE('',*,*,#88,.F.);
#403=CARTESIAN_POINT('',(38.6348677216695,7.14212209723169E-014,20.0619418554996));
#404=DIRECTION('',(0.939692620785909,1.22845103914233E-016,0.342020143325668));
#405=DIRECTION('',(-0.342020143325668,-3.82316525058754E-013,0.939692620785909));
#406=CARTESIAN_POINT('',(8.39172343260731,4.29930391498749E-015,9.0543375436632));
#407=DIRECTION('',(-0.939692620785909,-1.22845103914205E-016,-0.342020143325668));
#408=DIRECTION('',(0.342020143325668,-6.06157612568984E-033,-0.939692620785909));
#409=DIRECTION('',(-0.0,-0.0,-1.0));
#410=CARTESIAN_POINT('',(68.8780120107317,7.53748778604331E-014,31.0695461673361));
#411=DIRECTION('',(0.939692620785909,1.22845103914242E-016,0.342020143325668));
#412=DIRECTION('',(-0.342020143325668,-3.82316525058754E-013,0.939692620785909));
#413=SURFACE_STYLE_FILL_AREA(#496);
#414=ORIENTED_EDGE('',*,*,#128,.F.);
#415=ORIENTED_EDGE('',*,*,#88,.T.);
#416=ORIENTED_EDGE('',*,*,#104,.F.);
#417=CARTESIAN_POINT('',(69.0674076277644,7.08992090152555E-014,31.1384805344365));
#418=DIRECTION('',(0.939692620785909,1.22845103914204E-016,0.342020143325668));
#419=DIRECTION('',(-0.342020143325668,1.79998313084964E-016,0.939692620785909));
#420=DIRECTION('',(-0.949846050264135,-1.19737776079119E-014,-0.312717893312202));
#421=DIRECTION('',(0.928635475771711,-1.17282055419381E-014,0.370993467783797));
#422=DIRECTION('',(-0.0,-0.0,1.0));
#423=SURFACE_STYLE_FILL_AREA(#497);
#424=CARTESIAN_POINT('',(68.8780120107317,7.53748778604331E-014,31.0695461673361));
#425=DIRECTION('',(0.939692620785909,1.22845103914242E-016,0.342020143325668));
#426=DIRECTION('',(-0.342020143325668,-3.82316525058754E-013,0.939692620785909));
#427=SURFACE_STYLE_FILL_AREA(#498);
#428=ORIENTED_EDGE('',*,*,#130,.F.);
#429=ORIENTED_EDGE('',*,*,#134,.T.);
#430=ORIENTED_EDGE('',*,*,#120,.F.);
#431=ORIENTED_EDGE('',*,*,#116,.F.);
#432=ORIENTED_EDGE('',*,*,#112,.F.);
#433=ORIENTED_EDGE('',*,*,#82,.T.);
#434=CARTESIAN_POINT('',(5.77315972805081E-014,3.20226205864544E-015,5.99999999999996));
#435=DIRECTION('',(0.0,0.0,-1.0));
#436=DIRECTION('',(1.0,1.22460635382238E-016,0.0));
#437=CARTESIAN_POINT('',(69.0674076277644,7.08992090152555E-014,31.1384805344365));
#438=DIRECTION('',(-1.19895847429725E-017,1.0,-3.26233942012889E-016));
#439=DIRECTION('',(0.0,-3.26233942012889E-016,-1.0));
#440=CARTESIAN_POINT('',(5.6843418860808E-014,3.73253216466845E-015,-3.5527136788005E-014));
#441=DIRECTION('',(0.0,0.0,-1.0));
#442=DIRECTION('',(1.0,1.0555857521871E-017,0.0));
#443=CARTESIAN_POINT('',(5.6843418860808E-014,3.73253216466845E-015,14.6602540378444));
#444=DIRECTION('',(0.0,0.0,-1.0));
#445=DIRECTION('',(1.0,1.0555857521871E-017,0.0));
#446=CARTESIAN_POINT('',(5.77315972805081E-014,3.20226205864544E-015,5.99999999999996));
#447=DIRECTION('',(-2.44921270764476E-016,1.0,0.0));
#448=DIRECTION('',(0.0,0.0,-1.0));
#449=CARTESIAN_POINT('',(5.6843418860808E-014,3.73253216466845E-015,-3.5527136788005E-014));
#450=DIRECTION('',(0.0,0.0,-1.0));
#451=DIRECTION('',(1.0,1.0555857521871E-017,0.0));
#452=CARTESIAN_POINT('',(5.77315972805081E-014,3.20226205864544E-015,5.99999999999996));
#453=DIRECTION('',(-2.44921270764476E-016,1.0,0.0));
#454=DIRECTION('',(0.0,0.0,-1.0));
#455=SURFACE_STYLE_FILL_AREA(#499);
#456=ORIENTED_EDGE('',*,*,#84,.F.);
#457=ORIENTED_EDGE('',*,*,#108,.F.);
#458=ORIENTED_EDGE('',*,*,#96,.F.);
#459=ORIENTED_EDGE('',*,*,#124,.T.);
#460=CARTESIAN_POINT('',(5.6843418860808E-014,3.73253216466845E-015,7.33012701892216));
#461=DIRECTION('',(-0.0,-0.0,1.0));
#462=DIRECTION('',(1.0,1.0555857521871E-017,0.0));
#463=CARTESIAN_POINT('',(5.6843418860808E-014,3.73253216466845E-015,-2.8421709430404E-014));
#464=DIRECTION('',(0.0,0.0,-1.0));
#465=DIRECTION('',(1.0,1.0555857521871E-017,0.0));
#466=SURFACE_STYLE_FILL_AREA(#500);
#467=ORIENTED_EDGE('',*,*,#128,.T.);
#468=ORIENTED_EDGE('',*,*,#104,.T.);
#469=ORIENTED_EDGE('',*,*,#100,.T.);
#470=CARTESIAN_POINT('',(69.0674076277644,7.08992090152555E-014,31.1384805344365));
#471=DIRECTION('',(0.939692620785909,1.22845103914204E-016,0.342020143325668));
#472=DIRECTION('',(-0.342020143325668,1.79998313084964E-016,0.939692620785909));
#473=CARTESIAN_POINT('',(69.0674076277644,7.08992090152555E-014,31.1384805344365));
#474=DIRECTION('',(-1.19895847429725E-017,1.0,-3.26233942012889E-016));
#475=DIRECTION('',(0.0,-3.26233942012889E-016,-1.0));
#476=CARTESIAN_POINT('',(5.77315972805081E-014,3.20226205864544E-015,5.99999999999996));
#477=DIRECTION('',(-2.44921270764476E-016,1.0,0.0));
#478=DIRECTION('',(0.0,0.0,-1.0));
#479=SURFACE_STYLE_FILL_AREA(#501);
#480=ORIENTED_EDGE('',*,*,#130,.T.);
#481=ORIENTED_EDGE('',*,*,#74,.T.);
#482=ORIENTED_EDGE('',*,*,#112,.T.);
#483=ORIENTED_EDGE('',*,*,#106,.F.);
#484=ORIENTED_EDGE('',*,*,#120,.T.);
#485=ORIENTED_EDGE('',*,*,#108,.T.);
#486=CARTESIAN_POINT('',(5.77315972805081E-014,3.20226205864544E-015,5.99999999999996));
#487=DIRECTION('',(0.0,0.0,-1.0));
#488=DIRECTION('',(1.0,1.22460635382238E-016,0.0));
#489=CARTESIAN_POINT('',(5.6843418860808E-014,3.73253216466845E-015,14.6602540378444));
#490=DIRECTION('',(0.0,0.0,-1.0));
#491=DIRECTION('',(1.0,1.0555857521871E-017,0.0));
#492=FILL_AREA_STYLE('',(#502));
#493=FILL_AREA_STYLE('',(#503));
#494=FILL_AREA_STYLE('',(#504));
#495=FILL_AREA_STYLE('',(#505));
#496=FILL_AREA_STYLE('',(#506));
#497=FILL_AREA_STYLE('',(#507));
#498=FILL_AREA_STYLE('',(#508));
#499=FILL_AREA_STYLE('',(#509));
#500=FILL_AREA_STYLE('',(#510));
#501=FILL_AREA_STYLE('',(#511));
#502=FILL_AREA_STYLE_COLOUR('',#512);
#503=FILL_AREA_STYLE_COLOUR('',#513);
#504=FILL_AREA_STYLE_COLOUR('',#514);
#505=FILL_AREA_STYLE_COLOUR('',#515);
#506=FILL_AREA_STYLE_COLOUR('',#516);
#507=FILL_AREA_STYLE_COLOUR('',#517);
#508=FILL_AREA_STYLE_COLOUR('',#518);
#509=FILL_AREA_STYLE_COLOUR('',#519);
#510=FILL_AREA_STYLE_COLOUR('',#520);
#511=FILL_AREA_STYLE_COLOUR('',#521);
#512=COLOUR_RGB('',0.509803950786591,0.509803950786591,0.588235318660736);
#513=COLOUR_RGB('',0.509803950786591,0.509803950786591,0.588235318660736);
#514=COLOUR_RGB('',0.509803950786591,0.509803950786591,0.588235318660736);
#515=COLOUR_RGB('',0.509803950786591,0.509803950786591,0.588235318660736);
#516=COLOUR_RGB('',0.509803950786591,0.509803950786591,0.588235318660736);
#517=COLOUR_RGB('',0.509803950786591,0.509803950786591,0.588235318660736);
#518=COLOUR_RGB('',0.509803950786591,0.509803950786591,0.588235318660736);
#519=COLOUR_RGB('',0.509803950786591,0.509803950786591,0.588235318660736);
#520=COLOUR_RGB('',0.509803950786591,0.509803950786591,0.588235318660736);
#521=COLOUR_RGB('',0.509803950786591,0.509803950786591,0.588235318660736);
ENDSEC;
END-ISO-10303-21;
