ISO-10303-21;
HEADER;
FILE_DESCRIPTION(('STEP AP214'),'1');
FILE_NAME(' ','  ',('TraceParts'),('TraceParts S.A.'),'XStep 1.0',' ',' ');
FILE_SCHEMA(('automotive_design'));
ENDSEC;
DATA;
#1=MECHANICAL_DESIGN_GEOMETRIC_PRESENTATION_REPRESENTATION(' ',(#10,#11,#12,#13,#14,#15,#16,#17,#18,#19,#20,#21,#22,#23,#24,#25,#26,#27,#28,#29,#30,#31,#32,#33,#34,#35,#36,#37,#38,#39,#40,#41,#42,#43,#44,#45,#46,#47,#48,#49),#6);
#2=PRODUCT_DEFINITION_CONTEXT('',#50,'design');
#3=APPLICATION_PROTOCOL_DEFINITION('INTERNATIONAL STANDARD','automotive_design',1994,#50);
#4=PRODUCT_CATEGORY_RELATIONSHIP('NONE','NONE',#51,#52);
#5=SHAPE_DEFINITION_REPRESENTATION(#53,#54);
#6= (GEOMETRIC_REPRESENTATION_CONTEXT(3)GLOBAL_UNCERTAINTY_ASSIGNED_CONTEXT((#57))GLOBAL_UNIT_ASSIGNED_CONTEXT((#59,#60,#61))REPRESENTATION_CONTEXT('NONE','WORKSPACE'));
#10=STYLED_ITEM('',(#63),#64);
#11=STYLED_ITEM('',(#65),#66);
#12=STYLED_ITEM('',(#67),#68);
#13=STYLED_ITEM('',(#69),#70);
#14=STYLED_ITEM('',(#71),#72);
#15=STYLED_ITEM('',(#73),#74);
#16=STYLED_ITEM('',(#75),#76);
#17=STYLED_ITEM('',(#77),#78);
#18=STYLED_ITEM('',(#79),#80);
#19=STYLED_ITEM('',(#81),#82);
#20=STYLED_ITEM('',(#83),#84);
#21=STYLED_ITEM('',(#85),#86);
#22=STYLED_ITEM('',(#87),#88);
#23=STYLED_ITEM('',(#89),#90);
#24=STYLED_ITEM('',(#91),#92);
#25=STYLED_ITEM('',(#93),#94);
#26=STYLED_ITEM('',(#95),#96);
#27=STYLED_ITEM('',(#97),#98);
#28=STYLED_ITEM('',(#99),#100);
#29=STYLED_ITEM('',(#101),#102);
#30=STYLED_ITEM('',(#103),#104);
#31=STYLED_ITEM('',(#105),#106);
#32=STYLED_ITEM('',(#107),#108);
#33=STYLED_ITEM('',(#109),#110);
#34=STYLED_ITEM('',(#111),#112);
#35=STYLED_ITEM('',(#113),#114);
#36=STYLED_ITEM('',(#115),#116);
#37=STYLED_ITEM('',(#117),#118);
#38=STYLED_ITEM('',(#119),#120);
#39=STYLED_ITEM('',(#121),#122);
#40=STYLED_ITEM('',(#123),#124);
#41=STYLED_ITEM('',(#125),#126);
#42=STYLED_ITEM('',(#127),#128);
#43=STYLED_ITEM('',(#129),#130);
#44=STYLED_ITEM('',(#131),#132);
#45=STYLED_ITEM('',(#133),#134);
#46=STYLED_ITEM('',(#135),#136);
#47=STYLED_ITEM('',(#137),#138);
#48=STYLED_ITEM('',(#139),#140);
#49=STYLED_ITEM('',(#141),#142);
#50=APPLICATION_CONTEXT(' ');
#51=PRODUCT_CATEGORY('part','NONE');
#52=PRODUCT_RELATED_PRODUCT_CATEGORY('detail',' ',(#143));
#53=PRODUCT_DEFINITION_SHAPE('NONE','NONE',#144);
#54=ADVANCED_BREP_SHAPE_REPRESENTATION('1',(#112,#145),#6);
#57=UNCERTAINTY_MEASURE_WITH_UNIT(LENGTH_MEASURE(1.0E-006),#59,'','');
#59= (CONVERSION_BASED_UNIT('MILLIMETRE',#148)LENGTH_UNIT()NAMED_UNIT(#151));
#60= (NAMED_UNIT(#153)PLANE_ANGLE_UNIT()SI_UNIT($,.RADIAN.));
#61= (NAMED_UNIT(#153)SOLID_ANGLE_UNIT()SI_UNIT($,.STERADIAN.));
#63=PRESENTATION_STYLE_ASSIGNMENT((#159));
#64=VERTEX_POINT('',#160);
#65=PRESENTATION_STYLE_ASSIGNMENT((#161));
#66=EDGE_CURVE('',#134,#136,#162,.T.);
#67=PRESENTATION_STYLE_ASSIGNMENT((#163));
#68=ADVANCED_FACE('',(#164,#165),#166,.T.);
#69=PRESENTATION_STYLE_ASSIGNMENT((#167));
#70=ADVANCED_FACE('',(#168),#169,.F.);
#71=PRESENTATION_STYLE_ASSIGNMENT((#170));
#72=ADVANCED_FACE('',(#171),#172,.T.);
#73=PRESENTATION_STYLE_ASSIGNMENT((#173));
#74=ADVANCED_FACE('',(#174),#175,.T.);
#75=PRESENTATION_STYLE_ASSIGNMENT((#176));
#76=ADVANCED_FACE('',(#177),#178,.F.);
#77=PRESENTATION_STYLE_ASSIGNMENT((#179));
#78=ADVANCED_FACE('',(#180),#181,.T.);
#79=PRESENTATION_STYLE_ASSIGNMENT((#182));
#80=EDGE_CURVE('',#64,#126,#183,.T.);
#81=PRESENTATION_STYLE_ASSIGNMENT((#184));
#82=VERTEX_POINT('',#185);
#83=PRESENTATION_STYLE_ASSIGNMENT((#186));
#84=EDGE_CURVE('',#82,#110,#187,.T.);
#85=PRESENTATION_STYLE_ASSIGNMENT((#188));
#86=EDGE_CURVE('',#126,#64,#189,.T.);
#87=PRESENTATION_STYLE_ASSIGNMENT((#190));
#88=EDGE_CURVE('',#100,#98,#191,.T.);
#89=PRESENTATION_STYLE_ASSIGNMENT((#192));
#90=VERTEX_POINT('',#193);
#91=PRESENTATION_STYLE_ASSIGNMENT((#194));
#92=EDGE_CURVE('',#98,#82,#195,.T.);
#93=PRESENTATION_STYLE_ASSIGNMENT((#196));
#94=EDGE_CURVE('',#90,#132,#197,.T.);
#95=PRESENTATION_STYLE_ASSIGNMENT((#198));
#96=EDGE_CURVE('',#64,#136,#199,.T.);
#97=PRESENTATION_STYLE_ASSIGNMENT((#200));
#98=VERTEX_POINT('',#201);
#99=PRESENTATION_STYLE_ASSIGNMENT((#202));
#100=VERTEX_POINT('',#203);
#101=PRESENTATION_STYLE_ASSIGNMENT((#204));
#102=EDGE_CURVE('',#132,#64,#205,.T.);
#103=PRESENTATION_STYLE_ASSIGNMENT((#206));
#104=EDGE_CURVE('',#100,#126,#207,.T.);
#105=PRESENTATION_STYLE_ASSIGNMENT((#208));
#106=EDGE_CURVE('',#126,#90,#209,.T.);
#107=PRESENTATION_STYLE_ASSIGNMENT((#210));
#108=EDGE_CURVE('',#136,#134,#211,.T.);
#109=PRESENTATION_STYLE_ASSIGNMENT((#212));
#110=VERTEX_POINT('',#213);
#111=PRESENTATION_STYLE_ASSIGNMENT((#214));
#112=MANIFOLD_SOLID_BREP('1',#215);
#113=PRESENTATION_STYLE_ASSIGNMENT((#216));
#114=EDGE_CURVE('',#134,#110,#217,.T.);
#115=PRESENTATION_STYLE_ASSIGNMENT((#218));
#116=EDGE_CURVE('',#132,#90,#219,.T.);
#117=PRESENTATION_STYLE_ASSIGNMENT((#220));
#118=EDGE_CURVE('',#110,#100,#221,.T.);
#119=PRESENTATION_STYLE_ASSIGNMENT((#222));
#120=EDGE_CURVE('',#82,#98,#223,.T.);
#121=PRESENTATION_STYLE_ASSIGNMENT((#224));
#122=ADVANCED_FACE('',(#225),#226,.T.);
#123=PRESENTATION_STYLE_ASSIGNMENT((#227));
#124=EDGE_CURVE('',#142,#132,#228,.T.);
#125=PRESENTATION_STYLE_ASSIGNMENT((#229));
#126=VERTEX_POINT('',#230);
#127=PRESENTATION_STYLE_ASSIGNMENT((#231));
#128=ADVANCED_FACE('',(#232),#233,.T.);
#129=PRESENTATION_STYLE_ASSIGNMENT((#234));
#130=EDGE_CURVE('',#100,#110,#235,.T.);
#131=PRESENTATION_STYLE_ASSIGNMENT((#236));
#132=VERTEX_POINT('',#237);
#133=PRESENTATION_STYLE_ASSIGNMENT((#238));
#134=VERTEX_POINT('',#239);
#135=PRESENTATION_STYLE_ASSIGNMENT((#240));
#136=VERTEX_POINT('',#241);
#137=PRESENTATION_STYLE_ASSIGNMENT((#242));
#138=EDGE_CURVE('',#90,#142,#243,.T.);
#139=PRESENTATION_STYLE_ASSIGNMENT((#244));
#140=ADVANCED_FACE('',(#245),#246,.T.);
#141=PRESENTATION_STYLE_ASSIGNMENT((#247));
#142=VERTEX_POINT('',#248);
#143=PRODUCT('1','1','PART-1-DESC',(#249));
#144=PRODUCT_DEFINITION('NONE','NONE',#250,#2);
#145=AXIS2_PLACEMENT_3D('',#251,#252,#253);
#148=LENGTH_MEASURE_WITH_UNIT(LENGTH_MEASURE(1.0),#254);
#151=DIMENSIONAL_EXPONENTS(1.0,0.0,0.0,0.0,0.0,0.0,0.0);
#153=DIMENSIONAL_EXPONENTS(0.0,0.0,0.0,0.0,0.0,0.0,0.0);
#159=POINT_STYLE(' ',#255,POSITIVE_LENGTH_MEASURE(1.0E-006),#256);
#160=CARTESIAN_POINT('',(24.8582685917458,4.34194083508109E-012,15.3417143455548));
#161=CURVE_STYLE('',#257,POSITIVE_LENGTH_MEASURE(1.0E-006),#258);
#162=CIRCLE('',#259,17.3493515728975);
#163=SURFACE_STYLE_USAGE(.BOTH.,#260);
#164=FACE_BOUND('',#261,.T.);
#165=FACE_OUTER_BOUND('',#262,.T.);
#166=PLANE('',#263);
#167=SURFACE_STYLE_USAGE(.BOTH.,#264);
#168=FACE_OUTER_BOUND('',#265,.T.);
#169=CYLINDRICAL_SURFACE('',#266,12.0);
#170=SURFACE_STYLE_USAGE(.BOTH.,#267);
#171=FACE_OUTER_BOUND('',#268,.T.);
#172=CONICAL_SURFACE('',#269,13.4961593304427,0.0309878076985043);
#173=SURFACE_STYLE_USAGE(.BOTH.,#270);
#174=FACE_OUTER_BOUND('',#271,.T.);
#175=SPHERICAL_SURFACE('',#272,16.0);
#176=SURFACE_STYLE_USAGE(.BOTH.,#273);
#177=FACE_OUTER_BOUND('',#274,.T.);
#178=CYLINDRICAL_SURFACE('',#275,12.0);
#179=SURFACE_STYLE_USAGE(.BOTH.,#276);
#180=FACE_OUTER_BOUND('',#277,.T.);
#181=SPHERICAL_SURFACE('',#278,25.0);
#182=CURVE_STYLE('',#279,POSITIVE_LENGTH_MEASURE(1.0E-006),#280);
#183=CIRCLE('',#281,11.0);
#184=POINT_STYLE(' ',#282,POSITIVE_LENGTH_MEASURE(1.0E-006),#283);
#185=CARTESIAN_POINT('',(-11.9999999999999,-6.15852349449312E-016,-2.8421709430404E-014));
#186=CURVE_STYLE('',#284,POSITIVE_LENGTH_MEASURE(1.0E-006),#285);
#187=LINE('',#286,#287);
#188=CURVE_STYLE('',#288,POSITIVE_LENGTH_MEASURE(1.0E-006),#289);
#189=CIRCLE('',#290,11.0);
#190=CURVE_STYLE('',#291,POSITIVE_LENGTH_MEASURE(1.0E-006),#292);
#191=LINE('',#293,#294);
#192=POINT_STYLE(' ',#295,POSITIVE_LENGTH_MEASURE(1.0E-006),#296);
#193=CARTESIAN_POINT('',(166.967917436504,8.34252693989982E-014,95.7900220735701));
#194=CURVE_STYLE('',#297,POSITIVE_LENGTH_MEASURE(1.0E-006),#298);
#195=CIRCLE('',#299,12.0);
#196=CURVE_STYLE('',#300,POSITIVE_LENGTH_MEASURE(1.0E-006),#301);
#197=CIRCLE('',#302,15.9923186608853);
#198=CURVE_STYLE('',#303,POSITIVE_LENGTH_MEASURE(1.0E-006),#304);
#199=CIRCLE('',#305,25.0);
#200=POINT_STYLE(' ',#306,POSITIVE_LENGTH_MEASURE(1.0E-006),#307);
#201=CARTESIAN_POINT('',(12.0,-3.37730458175285E-016,-2.8421709430404E-014));
#202=POINT_STYLE(' ',#308,POSITIVE_LENGTH_MEASURE(1.0E-006),#309);
#203=CARTESIAN_POINT('',(12.0,2.10730096574806E-015,39.9317121994613));
#204=CURVE_STYLE('',#310,POSITIVE_LENGTH_MEASURE(1.0E-006),#311);
#205=LINE('',#312,#313);
#206=CURVE_STYLE('',#314,POSITIVE_LENGTH_MEASURE(1.0E-006),#315);
#207=CIRCLE('',#316,25.0);
#208=CURVE_STYLE('',#317,POSITIVE_LENGTH_MEASURE(1.0E-006),#318);
#209=LINE('',#319,#320);
#210=CURVE_STYLE('',#321,POSITIVE_LENGTH_MEASURE(1.0E-006),#322);
#211=CIRCLE('',#323,17.3493515728975);
#212=POINT_STYLE(' ',#324,POSITIVE_LENGTH_MEASURE(1.0E-006),#325);
#213=CARTESIAN_POINT('',(-11.9999999999999,-6.15852349449313E-016,39.9317121994613));
#214=SURFACE_STYLE_USAGE(.BOTH.,#326);
#215=CLOSED_SHELL('',(#140,#70,#128,#72,#122,#74,#68,#76,#78));
#216=CURVE_STYLE('',#327,POSITIVE_LENGTH_MEASURE(1.0E-006),#328);
#217=CIRCLE('',#329,25.0);
#218=CURVE_STYLE('',#330,POSITIVE_LENGTH_MEASURE(1.0E-006),#331);
#219=CIRCLE('',#332,15.9923186608853);
#220=CURVE_STYLE('',#333,POSITIVE_LENGTH_MEASURE(1.0E-006),#334);
#221=CIRCLE('',#335,12.0);
#222=CURVE_STYLE('',#336,POSITIVE_LENGTH_MEASURE(1.0E-006),#337);
#223=CIRCLE('',#338,12.0);
#224=SURFACE_STYLE_USAGE(.BOTH.,#339);
#225=FACE_OUTER_BOUND('',#340,.T.);
#226=CONICAL_SURFACE('',#341,13.4961593304427,0.0309878076985043);
#227=CURVE_STYLE('',#342,POSITIVE_LENGTH_MEASURE(1.0E-006),#343);
#228=CIRCLE('',#344,16.0);
#229=POINT_STYLE(' ',#345,POSITIVE_LENGTH_MEASURE(1.0E-006),#346);
#230=CARTESIAN_POINT('',(17.3338254385811,7.26033323421618E-014,36.0149520028448));
#231=SURFACE_STYLE_USAGE(.BOTH.,#347);
#232=FACE_OUTER_BOUND('',#348,.T.);
#233=SPHERICAL_SURFACE('',#349,16.0);
#234=CURVE_STYLE('',#350,POSITIVE_LENGTH_MEASURE(1.0E-006),#351);
#235=CIRCLE('',#352,12.0);
#236=POINT_STYLE(' ',#353,POSITIVE_LENGTH_MEASURE(1.0E-006),#354);
#237=CARTESIAN_POINT('',(177.907307677516,6.29962697605632E-012,65.7342944037886));
#238=POINT_STYLE(' ',#355,POSITIVE_LENGTH_MEASURE(1.0E-006),#356);
#239=CARTESIAN_POINT('',(-17.3493515728974,-4.9543375984957E-015,-4.2632564145606E-014));
#240=POINT_STYLE(' ',#357,POSITIVE_LENGTH_MEASURE(1.0E-006),#358);
#241=CARTESIAN_POINT('',(17.3493515728975,3.17354534324713E-016,-4.2632564145606E-014));
#242=CURVE_STYLE('',#359,POSITIVE_LENGTH_MEASURE(1.0E-006),#360);
#243=CIRCLE('',#361,16.0);
#244=SURFACE_STYLE_USAGE(.BOTH.,#362);
#245=FACE_OUTER_BOUND('',#363,.T.);
#246=SPHERICAL_SURFACE('',#364,25.0);
#247=POINT_STYLE(' ',#365,POSITIVE_LENGTH_MEASURE(1.0E-006),#366);
#248=CARTESIAN_POINT('',(187.938524157182,8.15630596228056E-014,86.4040286651335));
#249=PRODUCT_CONTEXT('',#50,'mechanical');
#250=PRODUCT_DEFINITION_FORMATION_WITH_SPECIFIED_SOURCE(' ','NONE',#143,.NOT_KNOWN.);
#251=CARTESIAN_POINT('',(0.0,0.0,0.0));
#252=DIRECTION('',(0.0,0.0,1.0));
#253=DIRECTION('',(1.0,0.0,0.0));
#254= (NAMED_UNIT(#151)LENGTH_UNIT()SI_UNIT(.MILLI.,.METRE.));
#255=PRE_DEFINED_MARKER('');
#256=COLOUR_RGB('',0.509803950786591,0.509803950786591,0.588235318660736);
#257=DRAUGHTING_PRE_DEFINED_CURVE_FONT('continuous');
#258=COLOUR_RGB('',0.509803950786591,0.509803950786591,0.588235318660736);
#259=AXIS2_PLACEMENT_3D('',#368,#369,#370);
#260=SURFACE_SIDE_STYLE('',(#371));
#261=EDGE_LOOP('',(#372,#373));
#262=EDGE_LOOP('',(#374,#375));
#263=AXIS2_PLACEMENT_3D('',#376,#377,#378);
#264=SURFACE_SIDE_STYLE('',(#379));
#265=EDGE_LOOP('',(#380,#381,#382,#383));
#266=AXIS2_PLACEMENT_3D('',#384,#385,#386);
#267=SURFACE_SIDE_STYLE('',(#387));
#268=EDGE_LOOP('',(#388,#389,#390,#391));
#269=AXIS2_PLACEMENT_3D('',#392,#393,#394);
#270=SURFACE_SIDE_STYLE('',(#395));
#271=EDGE_LOOP('',(#396,#397,#398));
#272=AXIS2_PLACEMENT_3D('',#399,#400,#401);
#273=SURFACE_SIDE_STYLE('',(#402));
#274=EDGE_LOOP('',(#403,#404,#405,#406));
#275=AXIS2_PLACEMENT_3D('',#407,#408,#409);
#276=SURFACE_SIDE_STYLE('',(#410));
#277=EDGE_LOOP('',(#411,#412,#413,#414,#415,#416));
#278=AXIS2_PLACEMENT_3D('',#417,#418,#419);
#279=DRAUGHTING_PRE_DEFINED_CURVE_FONT('continuous');
#280=COLOUR_RGB('',0.509803950786591,0.509803950786591,0.588235318660736);
#281=AXIS2_PLACEMENT_3D('',#420,#421,#422);
#282=PRE_DEFINED_MARKER('');
#283=COLOUR_RGB('',0.509803950786591,0.509803950786591,0.588235318660736);
#284=DRAUGHTING_PRE_DEFINED_CURVE_FONT('continuous');
#285=COLOUR_RGB('',0.509803950786591,0.509803950786591,0.588235318660736);
#286=CARTESIAN_POINT('',(-11.9999999999999,-6.15852349449312E-016,19.9658560997306));
#287=VECTOR('',#423,1.0);
#288=DRAUGHTING_PRE_DEFINED_CURVE_FONT('continuous');
#289=COLOUR_RGB('',0.509803950786591,0.509803950786591,0.588235318660736);
#290=AXIS2_PLACEMENT_3D('',#424,#425,#426);
#291=DRAUGHTING_PRE_DEFINED_CURVE_FONT('continuous');
#292=COLOUR_RGB('',0.509803950786591,0.509803950786591,0.588235318660736);
#293=CARTESIAN_POINT('',(12.0,1.89139903177173E-015,19.9658560997306));
#294=VECTOR('',#427,1.0);
#295=PRE_DEFINED_MARKER('');
#296=COLOUR_RGB('',0.509803950786591,0.509803950786591,0.588235318660736);
#297=DRAUGHTING_PRE_DEFINED_CURVE_FONT('continuous');
#298=COLOUR_RGB('',0.509803950786591,0.509803950786591,0.588235318660736);
#299=AXIS2_PLACEMENT_3D('',#428,#429,#430);
#300=DRAUGHTING_PRE_DEFINED_CURVE_FONT('continuous');
#301=COLOUR_RGB('',0.509803950786591,0.509803950786591,0.588235318660736);
#302=AXIS2_PLACEMENT_3D('',#431,#432,#433);
#303=DRAUGHTING_PRE_DEFINED_CURVE_FONT('continuous');
#304=COLOUR_RGB('',0.509803950786591,0.509803950786591,0.588235318660736);
#305=AXIS2_PLACEMENT_3D('',#434,#435,#436);
#306=PRE_DEFINED_MARKER('');
#307=COLOUR_RGB('',0.509803950786591,0.509803950786591,0.588235318660736);
#308=PRE_DEFINED_MARKER('');
#309=COLOUR_RGB('',0.509803950786591,0.509803950786591,0.588235318660736);
#310=DRAUGHTING_PRE_DEFINED_CURVE_FONT('continuous');
#311=COLOUR_RGB('',0.509803950786591,0.509803950786591,0.588235318660736);
#312=CARTESIAN_POINT('',(101.382788134631,5.32078390556874E-012,40.5380043746716));
#313=VECTOR('',#437,1.0);
#314=DRAUGHTING_PRE_DEFINED_CURVE_FONT('continuous');
#315=COLOUR_RGB('',0.509803950786591,0.509803950786591,0.588235318660736);
#316=AXIS2_PLACEMENT_3D('',#438,#439,#440);
#317=DRAUGHTING_PRE_DEFINED_CURVE_FONT('continuous');
#318=COLOUR_RGB('',0.509803950786591,0.509803950786591,0.588235318660736);
#319=CARTESIAN_POINT('',(92.1508714375428,-5.15700323340935E-012,65.9024870382074));
#320=VECTOR('',#441,1.0);
#321=DRAUGHTING_PRE_DEFINED_CURVE_FONT('continuous');
#322=COLOUR_RGB('',0.509803950786591,0.509803950786591,0.588235318660736);
#323=AXIS2_PLACEMENT_3D('',#442,#443,#444);
#324=PRE_DEFINED_MARKER('');
#325=COLOUR_RGB('',0.509803950786591,0.509803950786591,0.588235318660736);
#326=SURFACE_SIDE_STYLE('',(#445));
#327=DRAUGHTING_PRE_DEFINED_CURVE_FONT('continuous');
#328=COLOUR_RGB('',0.509803950786591,0.509803950786591,0.588235318660736);
#329=AXIS2_PLACEMENT_3D('',#446,#447,#448);
#330=DRAUGHTING_PRE_DEFINED_CURVE_FONT('continuous');
#331=COLOUR_RGB('',0.509803950786591,0.509803950786591,0.588235318660736);
#332=AXIS2_PLACEMENT_3D('',#449,#450,#451);
#333=DRAUGHTING_PRE_DEFINED_CURVE_FONT('continuous');
#334=COLOUR_RGB('',0.509803950786591,0.509803950786591,0.588235318660736);
#335=AXIS2_PLACEMENT_3D('',#452,#453,#454);
#336=DRAUGHTING_PRE_DEFINED_CURVE_FONT('continuous');
#337=COLOUR_RGB('',0.509803950786591,0.509803950786591,0.588235318660736);
#338=AXIS2_PLACEMENT_3D('',#455,#456,#457);
#339=SURFACE_SIDE_STYLE('',(#458));
#340=EDGE_LOOP('',(#459,#460,#461,#462));
#341=AXIS2_PLACEMENT_3D('',#463,#464,#465);
#342=DRAUGHTING_PRE_DEFINED_CURVE_FONT('continuous');
#343=COLOUR_RGB('',0.509803950786591,0.509803950786591,0.588235318660736);
#344=AXIS2_PLACEMENT_3D('',#466,#467,#468);
#345=PRE_DEFINED_MARKER('');
#346=COLOUR_RGB('',0.509803950786591,0.509803950786591,0.588235318660736);
#347=SURFACE_SIDE_STYLE('',(#469));
#348=EDGE_LOOP('',(#470,#471,#472));
#349=AXIS2_PLACEMENT_3D('',#473,#474,#475);
#350=DRAUGHTING_PRE_DEFINED_CURVE_FONT('continuous');
#351=COLOUR_RGB('',0.509803950786591,0.509803950786591,0.588235318660736);
#352=AXIS2_PLACEMENT_3D('',#476,#477,#478);
#353=PRE_DEFINED_MARKER('');
#354=COLOUR_RGB('',0.509803950786591,0.509803950786591,0.588235318660736);
#355=PRE_DEFINED_MARKER('');
#356=COLOUR_RGB('',0.509803950786591,0.509803950786591,0.588235318660736);
#357=PRE_DEFINED_MARKER('');
#358=COLOUR_RGB('',0.509803950786591,0.509803950786591,0.588235318660736);
#359=DRAUGHTING_PRE_DEFINED_CURVE_FONT('continuous');
#360=COLOUR_RGB('',0.509803950786591,0.509803950786591,0.588235318660736);
#361=AXIS2_PLACEMENT_3D('',#479,#480,#481);
#362=SURFACE_SIDE_STYLE('',(#482));
#363=EDGE_LOOP('',(#483,#484,#485,#486,#487,#488));
#364=AXIS2_PLACEMENT_3D('',#489,#490,#491);
#365=PRE_DEFINED_MARKER('');
#366=COLOUR_RGB('',0.509803950786591,0.509803950786591,0.588235318660736);
#368=CARTESIAN_POINT('',(5.6843418860808E-014,6.37773341161207E-016,-4.2632564145606E-014));
#369=DIRECTION('',(0.0,0.0,-1.0));
#370=DIRECTION('',(1.0,-1.79918278313609E-017,0.0));
#371=SURFACE_STYLE_FILL_AREA(#492);
#372=ORIENTED_EDGE('',*,*,#92,.F.);
#373=ORIENTED_EDGE('',*,*,#120,.F.);
#374=ORIENTED_EDGE('',*,*,#108,.T.);
#375=ORIENTED_EDGE('',*,*,#66,.T.);
#376=CARTESIAN_POINT('',(14.6746757864488,-1.01879619252859E-017,-3.5527136788005E-014));
#377=DIRECTION('',(0.0,0.0,-1.0));
#378=DIRECTION('',(1.0,1.22460635382238E-016,0.0));
#379=SURFACE_STYLE_FILL_AREA(#493);
#380=ORIENTED_EDGE('',*,*,#88,.F.);
#381=ORIENTED_EDGE('',*,*,#118,.F.);
#382=ORIENTED_EDGE('',*,*,#84,.F.);
#383=ORIENTED_EDGE('',*,*,#120,.T.);
#384=CARTESIAN_POINT('',(5.6843418860808E-014,6.37773341161207E-016,19.9658560997306));
#385=DIRECTION('',(-0.0,-0.0,1.0));
#386=DIRECTION('',(1.0,-1.79918278313609E-017,0.0));
#387=SURFACE_STYLE_FILL_AREA(#494);
#388=ORIENTED_EDGE('',*,*,#106,.F.);
#389=ORIENTED_EDGE('',*,*,#80,.F.);
#390=ORIENTED_EDGE('',*,*,#102,.F.);
#391=ORIENTED_EDGE('',*,*,#94,.F.);
#392=CARTESIAN_POINT('',(96.7668297860868,8.1890336079693E-014,53.2202457064395));
#393=DIRECTION('',(0.939692620785909,1.22845103914201E-016,0.342020143325668));
#394=DIRECTION('',(-0.342020143325668,-3.88299084904473E-013,0.939692620785909));
#395=SURFACE_STYLE_FILL_AREA(#495);
#396=ORIENTED_EDGE('',*,*,#138,.F.);
#397=ORIENTED_EDGE('',*,*,#94,.T.);
#398=ORIENTED_EDGE('',*,*,#124,.F.);
#399=CARTESIAN_POINT('',(172.903442224607,8.05772230432364E-014,80.9317063719228));
#400=DIRECTION('',(0.939692620785909,1.22845103914193E-016,0.342020143325668));
#401=DIRECTION('',(-0.342020143325668,1.79998313084964E-016,0.939692620785909));
#402=SURFACE_STYLE_FILL_AREA(#496);
#403=ORIENTED_EDGE('',*,*,#88,.T.);
#404=ORIENTED_EDGE('',*,*,#92,.T.);
#405=ORIENTED_EDGE('',*,*,#84,.T.);
#406=ORIENTED_EDGE('',*,*,#130,.F.);
#407=CARTESIAN_POINT('',(5.6843418860808E-014,6.37773341161207E-016,19.9658560997306));
#408=DIRECTION('',(-0.0,-0.0,1.0));
#409=DIRECTION('',(1.0,-1.79918278313609E-017,0.0));
#410=SURFACE_STYLE_FILL_AREA(#497);
#411=ORIENTED_EDGE('',*,*,#104,.T.);
#412=ORIENTED_EDGE('',*,*,#86,.T.);
#413=ORIENTED_EDGE('',*,*,#96,.T.);
#414=ORIENTED_EDGE('',*,*,#66,.F.);
#415=ORIENTED_EDGE('',*,*,#114,.T.);
#416=ORIENTED_EDGE('',*,*,#118,.T.);
#417=CARTESIAN_POINT('',(5.6843418860808E-014,-7.05112364321997E-016,18.0));
#418=DIRECTION('',(0.0,0.0,-1.0));
#419=DIRECTION('',(1.0,1.22460635382238E-016,0.0));
#420=CARTESIAN_POINT('',(21.0960470151634,2.05275337861531E-015,25.6783331741998));
#421=DIRECTION('',(-0.939692620785909,-1.22845103914193E-016,-0.342020143325668));
#422=DIRECTION('',(0.342020143325668,0.0,-0.939692620785909));
#423=DIRECTION('',(-0.0,-0.0,1.0));
#424=CARTESIAN_POINT('',(21.0960470151634,2.05275337861531E-015,25.6783331741998));
#425=DIRECTION('',(-0.939692620785909,-1.22845103914193E-016,-0.342020143325668));
#426=DIRECTION('',(0.342020143325668,0.0,-0.939692620785909));
#427=DIRECTION('',(-0.0,-0.0,-1.0));
#428=CARTESIAN_POINT('',(5.6843418860808E-014,6.37773341161207E-016,-2.8421709430404E-014));
#429=DIRECTION('',(0.0,0.0,-1.0));
#430=DIRECTION('',(1.0,-1.79918278313609E-017,0.0));
#431=CARTESIAN_POINT('',(172.43761255701,9.17827040382579E-014,80.7621582386794));
#432=DIRECTION('',(0.939692620785909,1.22845103914188E-016,0.342020143325668));
#433=DIRECTION('',(-0.342020143325668,-3.88299084904473E-013,0.939692620785909));
#434=CARTESIAN_POINT('',(5.6843418860808E-014,-7.05112364321997E-016,18.0));
#435=DIRECTION('',(-2.44921270764475E-016,1.0,0.0));
#436=DIRECTION('',(0.0,0.0,-1.0));
#437=DIRECTION('',(-0.949838248008383,-1.2149603717878E-014,-0.312741590806796));
#438=CARTESIAN_POINT('',(5.6843418860808E-014,-7.05112364321997E-016,18.0));
#439=DIRECTION('',(-2.44921270764475E-016,1.0,0.0));
#440=DIRECTION('',(0.0,0.0,-1.0));
#441=DIRECTION('',(0.928644731352954,-1.19040314619123E-014,0.370970299256423));
#442=CARTESIAN_POINT('',(5.6843418860808E-014,6.37773341161207E-016,-4.2632564145606E-014));
#443=DIRECTION('',(0.0,0.0,-1.0));
#444=DIRECTION('',(1.0,-1.79918278313609E-017,0.0));
#445=SURFACE_STYLE_FILL_AREA(#498);
#446=CARTESIAN_POINT('',(5.6843418860808E-014,-7.05112364321997E-016,18.0));
#447=DIRECTION('',(-2.44921270764475E-016,1.0,0.0));
#448=DIRECTION('',(0.0,0.0,-1.0));
#449=CARTESIAN_POINT('',(172.43761255701,9.17827040382579E-014,80.7621582386794));
#450=DIRECTION('',(0.939692620785909,1.22845103914188E-016,0.342020143325668));
#451=DIRECTION('',(-0.342020143325668,-3.88299084904473E-013,0.939692620785909));
#452=CARTESIAN_POINT('',(5.6843418860808E-014,6.37773341161207E-016,39.9317121994613));
#453=DIRECTION('',(0.0,0.0,-1.0));
#454=DIRECTION('',(1.0,-1.79918278313609E-017,0.0));
#455=CARTESIAN_POINT('',(5.6843418860808E-014,6.37773341161207E-016,-2.8421709430404E-014));
#456=DIRECTION('',(0.0,0.0,-1.0));
#457=DIRECTION('',(1.0,-1.79918278313609E-017,0.0));
#458=SURFACE_STYLE_FILL_AREA(#499);
#459=ORIENTED_EDGE('',*,*,#106,.T.);
#460=ORIENTED_EDGE('',*,*,#116,.F.);
#461=ORIENTED_EDGE('',*,*,#102,.T.);
#462=ORIENTED_EDGE('',*,*,#86,.F.);
#463=CARTESIAN_POINT('',(96.7668297860868,8.1890336079693E-014,53.2202457064395));
#464=DIRECTION('',(0.939692620785909,1.22845103914201E-016,0.342020143325668));
#465=DIRECTION('',(-0.342020143325668,-3.88299084904473E-013,0.939692620785909));
#466=CARTESIAN_POINT('',(172.903442224607,8.05772230432364E-014,80.9317063719228));
#467=DIRECTION('',(-1.19895847429617E-017,1.0,-3.26233942012884E-016));
#468=DIRECTION('',(0.0,-3.26233942012884E-016,-1.0));
#469=SURFACE_STYLE_FILL_AREA(#500);
#470=ORIENTED_EDGE('',*,*,#138,.T.);
#471=ORIENTED_EDGE('',*,*,#124,.T.);
#472=ORIENTED_EDGE('',*,*,#116,.T.);
#473=CARTESIAN_POINT('',(172.903442224607,8.05772230432364E-014,80.9317063719228));
#474=DIRECTION('',(0.939692620785909,1.22845103914193E-016,0.342020143325668));
#475=DIRECTION('',(-0.342020143325668,1.79998313084964E-016,0.939692620785909));
#476=CARTESIAN_POINT('',(5.6843418860808E-014,6.37773341161207E-016,39.9317121994613));
#477=DIRECTION('',(0.0,0.0,-1.0));
#478=DIRECTION('',(1.0,-1.79918278313609E-017,0.0));
#479=CARTESIAN_POINT('',(172.903442224607,8.05772230432364E-014,80.9317063719228));
#480=DIRECTION('',(-1.19895847429617E-017,1.0,-3.26233942012884E-016));
#481=DIRECTION('',(0.0,-3.26233942012884E-016,-1.0));
#482=SURFACE_STYLE_FILL_AREA(#501);
#483=ORIENTED_EDGE('',*,*,#104,.F.);
#484=ORIENTED_EDGE('',*,*,#130,.T.);
#485=ORIENTED_EDGE('',*,*,#114,.F.);
#486=ORIENTED_EDGE('',*,*,#108,.F.);
#487=ORIENTED_EDGE('',*,*,#96,.F.);
#488=ORIENTED_EDGE('',*,*,#80,.T.);
#489=CARTESIAN_POINT('',(5.6843418860808E-014,-7.05112364321997E-016,18.0));
#490=DIRECTION('',(0.0,0.0,-1.0));
#491=DIRECTION('',(1.0,1.22460635382238E-016,0.0));
#492=FILL_AREA_STYLE('',(#502));
#493=FILL_AREA_STYLE('',(#503));
#494=FILL_AREA_STYLE('',(#504));
#495=FILL_AREA_STYLE('',(#505));
#496=FILL_AREA_STYLE('',(#506));
#497=FILL_AREA_STYLE('',(#507));
#498=FILL_AREA_STYLE('',(#508));
#499=FILL_AREA_STYLE('',(#509));
#500=FILL_AREA_STYLE('',(#510));
#501=FILL_AREA_STYLE('',(#511));
#502=FILL_AREA_STYLE_COLOUR('',#512);
#503=FILL_AREA_STYLE_COLOUR('',#513);
#504=FILL_AREA_STYLE_COLOUR('',#514);
#505=FILL_AREA_STYLE_COLOUR('',#515);
#506=FILL_AREA_STYLE_COLOUR('',#516);
#507=FILL_AREA_STYLE_COLOUR('',#517);
#508=FILL_AREA_STYLE_COLOUR('',#518);
#509=FILL_AREA_STYLE_COLOUR('',#519);
#510=FILL_AREA_STYLE_COLOUR('',#520);
#511=FILL_AREA_STYLE_COLOUR('',#521);
#512=COLOUR_RGB('',0.509803950786591,0.509803950786591,0.588235318660736);
#513=COLOUR_RGB('',0.509803950786591,0.509803950786591,0.588235318660736);
#514=COLOUR_RGB('',0.509803950786591,0.509803950786591,0.588235318660736);
#515=COLOUR_RGB('',0.509803950786591,0.509803950786591,0.588235318660736);
#516=COLOUR_RGB('',0.509803950786591,0.509803950786591,0.588235318660736);
#517=COLOUR_RGB('',0.509803950786591,0.509803950786591,0.588235318660736);
#518=COLOUR_RGB('',0.509803950786591,0.509803950786591,0.588235318660736);
#519=COLOUR_RGB('',0.509803950786591,0.509803950786591,0.588235318660736);
#520=COLOUR_RGB('',0.509803950786591,0.509803950786591,0.588235318660736);
#521=COLOUR_RGB('',0.509803950786591,0.509803950786591,0.588235318660736);
ENDSEC;
END-ISO-10303-21;
