ISO-10303-21;
HEADER;
FILE_DESCRIPTION(('STEP AP214'),'1');
FILE_NAME(' ','  ',('TraceParts'),('TraceParts S.A.'),'XStep 1.0',' ',' ');
FILE_SCHEMA(('automotive_design'));
ENDSEC;
DATA;
#1=MECHANICAL_DESIGN_GEOMETRIC_PRESENTATION_REPRESENTATION(' ',(#10,#11,#12,#13,#14,#15,#16,#17,#18,#19,#20,#21,#22,#23,#24,#25,#26,#27,#28,#29,#30,#31,#32,#33,#34,#35,#36,#37,#38,#39,#40,#41,#42,#43,#44,#45,#46,#47,#48,#49),#6);
#2=PRODUCT_DEFINITION_CONTEXT('',#50,'design');
#3=APPLICATION_PROTOCOL_DEFINITION('INTERNATIONAL STANDARD','automotive_design',1994,#50);
#4=PRODUCT_CATEGORY_RELATIONSHIP('NONE','NONE',#51,#52);
#5=SHAPE_DEFINITION_REPRESENTATION(#53,#54);
#6= (GEOMETRIC_REPRESENTATION_CONTEXT(3)GLOBAL_UNCERTAINTY_ASSIGNED_CONTEXT((#57))GLOBAL_UNIT_ASSIGNED_CONTEXT((#59,#60,#61))REPRESENTATION_CONTEXT('NONE','WORKSPACE'));
#10=STYLED_ITEM('',(#63),#64);
#11=STYLED_ITEM('',(#65),#66);
#12=STYLED_ITEM('',(#67),#68);
#13=STYLED_ITEM('',(#69),#70);
#14=STYLED_ITEM('',(#71),#72);
#15=STYLED_ITEM('',(#73),#74);
#16=STYLED_ITEM('',(#75),#76);
#17=STYLED_ITEM('',(#77),#78);
#18=STYLED_ITEM('',(#79),#80);
#19=STYLED_ITEM('',(#81),#82);
#20=STYLED_ITEM('',(#83),#84);
#21=STYLED_ITEM('',(#85),#86);
#22=STYLED_ITEM('',(#87),#88);
#23=STYLED_ITEM('',(#89),#90);
#24=STYLED_ITEM('',(#91),#92);
#25=STYLED_ITEM('',(#93),#94);
#26=STYLED_ITEM('',(#95),#96);
#27=STYLED_ITEM('',(#97),#98);
#28=STYLED_ITEM('',(#99),#100);
#29=STYLED_ITEM('',(#101),#102);
#30=STYLED_ITEM('',(#103),#104);
#31=STYLED_ITEM('',(#105),#106);
#32=STYLED_ITEM('',(#107),#108);
#33=STYLED_ITEM('',(#109),#110);
#34=STYLED_ITEM('',(#111),#112);
#35=STYLED_ITEM('',(#113),#114);
#36=STYLED_ITEM('',(#115),#116);
#37=STYLED_ITEM('',(#117),#118);
#38=STYLED_ITEM('',(#119),#120);
#39=STYLED_ITEM('',(#121),#122);
#40=STYLED_ITEM('',(#123),#124);
#41=STYLED_ITEM('',(#125),#126);
#42=STYLED_ITEM('',(#127),#128);
#43=STYLED_ITEM('',(#129),#130);
#44=STYLED_ITEM('',(#131),#132);
#45=STYLED_ITEM('',(#133),#134);
#46=STYLED_ITEM('',(#135),#136);
#47=STYLED_ITEM('',(#137),#138);
#48=STYLED_ITEM('',(#139),#140);
#49=STYLED_ITEM('',(#141),#142);
#50=APPLICATION_CONTEXT(' ');
#51=PRODUCT_CATEGORY('part','NONE');
#52=PRODUCT_RELATED_PRODUCT_CATEGORY('detail',' ',(#143));
#53=PRODUCT_DEFINITION_SHAPE('NONE','NONE',#144);
#54=ADVANCED_BREP_SHAPE_REPRESENTATION('1',(#140,#145),#6);
#57=UNCERTAINTY_MEASURE_WITH_UNIT(LENGTH_MEASURE(1.0E-006),#59,'','');
#59= (CONVERSION_BASED_UNIT('MILLIMETRE',#148)LENGTH_UNIT()NAMED_UNIT(#151));
#60= (NAMED_UNIT(#153)PLANE_ANGLE_UNIT()SI_UNIT($,.RADIAN.));
#61= (NAMED_UNIT(#153)SOLID_ANGLE_UNIT()SI_UNIT($,.STERADIAN.));
#63=PRESENTATION_STYLE_ASSIGNMENT((#159));
#64=EDGE_CURVE('',#92,#124,#160,.T.);
#65=PRESENTATION_STYLE_ASSIGNMENT((#161));
#66=EDGE_CURVE('',#104,#96,#162,.T.);
#67=PRESENTATION_STYLE_ASSIGNMENT((#163));
#68=EDGE_CURVE('',#96,#104,#164,.T.);
#69=PRESENTATION_STYLE_ASSIGNMENT((#165));
#70=ADVANCED_FACE('',(#166),#167,.T.);
#71=PRESENTATION_STYLE_ASSIGNMENT((#168));
#72=ADVANCED_FACE('',(#169),#170,.T.);
#73=PRESENTATION_STYLE_ASSIGNMENT((#171));
#74=EDGE_CURVE('',#124,#92,#172,.T.);
#75=PRESENTATION_STYLE_ASSIGNMENT((#173));
#76=EDGE_CURVE('',#124,#102,#174,.T.);
#77=PRESENTATION_STYLE_ASSIGNMENT((#175));
#78=ADVANCED_FACE('',(#176),#177,.T.);
#79=PRESENTATION_STYLE_ASSIGNMENT((#178));
#80=EDGE_CURVE('',#102,#120,#179,.T.);
#81=PRESENTATION_STYLE_ASSIGNMENT((#180));
#82=ADVANCED_FACE('',(#181),#182,.T.);
#83=PRESENTATION_STYLE_ASSIGNMENT((#183));
#84=EDGE_CURVE('',#114,#128,#184,.T.);
#85=PRESENTATION_STYLE_ASSIGNMENT((#185));
#86=VERTEX_POINT('',#186);
#87=PRESENTATION_STYLE_ASSIGNMENT((#187));
#88=EDGE_CURVE('',#120,#110,#188,.T.);
#89=PRESENTATION_STYLE_ASSIGNMENT((#189));
#90=EDGE_CURVE('',#86,#110,#190,.T.);
#91=PRESENTATION_STYLE_ASSIGNMENT((#191));
#92=VERTEX_POINT('',#192);
#93=PRESENTATION_STYLE_ASSIGNMENT((#193));
#94=EDGE_CURVE('',#128,#120,#194,.T.);
#95=PRESENTATION_STYLE_ASSIGNMENT((#195));
#96=VERTEX_POINT('',#196);
#97=PRESENTATION_STYLE_ASSIGNMENT((#197));
#98=EDGE_CURVE('',#86,#92,#198,.T.);
#99=PRESENTATION_STYLE_ASSIGNMENT((#199));
#100=ADVANCED_FACE('',(#200),#201,.F.);
#101=PRESENTATION_STYLE_ASSIGNMENT((#202));
#102=VERTEX_POINT('',#203);
#103=PRESENTATION_STYLE_ASSIGNMENT((#204));
#104=VERTEX_POINT('',#205);
#105=PRESENTATION_STYLE_ASSIGNMENT((#206));
#106=EDGE_CURVE('',#102,#114,#207,.T.);
#107=PRESENTATION_STYLE_ASSIGNMENT((#208));
#108=ADVANCED_FACE('',(#209),#210,.T.);
#109=PRESENTATION_STYLE_ASSIGNMENT((#211));
#110=VERTEX_POINT('',#212);
#111=PRESENTATION_STYLE_ASSIGNMENT((#213));
#112=EDGE_CURVE('',#128,#114,#214,.T.);
#113=PRESENTATION_STYLE_ASSIGNMENT((#215));
#114=VERTEX_POINT('',#216);
#115=PRESENTATION_STYLE_ASSIGNMENT((#217));
#116=EDGE_CURVE('',#104,#92,#218,.T.);
#117=PRESENTATION_STYLE_ASSIGNMENT((#219));
#118=EDGE_CURVE('',#134,#128,#220,.T.);
#119=PRESENTATION_STYLE_ASSIGNMENT((#221));
#120=VERTEX_POINT('',#222);
#121=PRESENTATION_STYLE_ASSIGNMENT((#223));
#122=EDGE_CURVE('',#110,#86,#224,.T.);
#123=PRESENTATION_STYLE_ASSIGNMENT((#225));
#124=VERTEX_POINT('',#226);
#125=PRESENTATION_STYLE_ASSIGNMENT((#227));
#126=EDGE_CURVE('',#124,#96,#228,.T.);
#127=PRESENTATION_STYLE_ASSIGNMENT((#229));
#128=VERTEX_POINT('',#230);
#129=PRESENTATION_STYLE_ASSIGNMENT((#231));
#130=EDGE_CURVE('',#114,#134,#232,.T.);
#131=PRESENTATION_STYLE_ASSIGNMENT((#233));
#132=ADVANCED_FACE('',(#234),#235,.T.);
#133=PRESENTATION_STYLE_ASSIGNMENT((#236));
#134=VERTEX_POINT('',#237);
#135=PRESENTATION_STYLE_ASSIGNMENT((#238));
#136=EDGE_CURVE('',#120,#102,#239,.T.);
#137=PRESENTATION_STYLE_ASSIGNMENT((#240));
#138=ADVANCED_FACE('',(#241),#242,.F.);
#139=PRESENTATION_STYLE_ASSIGNMENT((#243));
#140=MANIFOLD_SOLID_BREP('1',#244);
#141=PRESENTATION_STYLE_ASSIGNMENT((#245));
#142=ADVANCED_FACE('',(#246,#247),#248,.T.);
#143=PRODUCT('1','1','PART-1-DESC',(#249));
#144=PRODUCT_DEFINITION('NONE','NONE',#250,#2);
#145=AXIS2_PLACEMENT_3D('',#251,#252,#253);
#148=LENGTH_MEASURE_WITH_UNIT(LENGTH_MEASURE(1.0),#254);
#151=DIMENSIONAL_EXPONENTS(1.0,0.0,0.0,0.0,0.0,0.0,0.0);
#153=DIMENSIONAL_EXPONENTS(0.0,0.0,0.0,0.0,0.0,0.0,0.0);
#159=CURVE_STYLE('',#255,POSITIVE_LENGTH_MEASURE(1.0E-006),#256);
#160=CIRCLE('',#257,4.99999999999999);
#161=CURVE_STYLE('',#258,POSITIVE_LENGTH_MEASURE(1.0E-006),#259);
#162=CIRCLE('',#260,5.0);
#163=CURVE_STYLE('',#261,POSITIVE_LENGTH_MEASURE(1.0E-006),#262);
#164=CIRCLE('',#263,5.0);
#165=SURFACE_STYLE_USAGE(.BOTH.,#264);
#166=FACE_OUTER_BOUND('',#265,.T.);
#167=CONICAL_SURFACE('',#266,5.49843721477273,0.03101275657513);
#168=SURFACE_STYLE_USAGE(.BOTH.,#267);
#169=FACE_OUTER_BOUND('',#268,.T.);
#170=CONICAL_SURFACE('',#269,5.49843721477273,0.03101275657513);
#171=CURVE_STYLE('',#270,POSITIVE_LENGTH_MEASURE(1.0E-006),#271);
#172=CIRCLE('',#272,4.99999999999999);
#173=CURVE_STYLE('',#273,POSITIVE_LENGTH_MEASURE(1.0E-006),#274);
#174=CIRCLE('',#275,10.0);
#175=SURFACE_STYLE_USAGE(.BOTH.,#276);
#176=FACE_OUTER_BOUND('',#277,.T.);
#177=SPHERICAL_SURFACE('',#278,6.50000000000001);
#178=CURVE_STYLE('',#279,POSITIVE_LENGTH_MEASURE(1.0E-006),#280);
#179=CIRCLE('',#281,4.49999999999995);
#180=SURFACE_STYLE_USAGE(.BOTH.,#282);
#181=FACE_OUTER_BOUND('',#283,.T.);
#182=SPHERICAL_SURFACE('',#284,10.0);
#183=CURVE_STYLE('',#285,POSITIVE_LENGTH_MEASURE(1.0E-006),#286);
#184=CIRCLE('',#287,6.49687442954543);
#185=POINT_STYLE(' ',#288,POSITIVE_LENGTH_MEASURE(1.0E-006),#289);
#186=CARTESIAN_POINT('',(-7.99999999999994,1.24289189252964E-015,-3.5527136788005E-014));
#187=CURVE_STYLE('',#290,POSITIVE_LENGTH_MEASURE(1.0E-006),#291);
#188=CIRCLE('',#292,10.0);
#189=CURVE_STYLE('',#293,POSITIVE_LENGTH_MEASURE(1.0E-006),#294);
#190=CIRCLE('',#295,8.0);
#191=POINT_STYLE(' ',#296,POSITIVE_LENGTH_MEASURE(1.0E-006),#297);
#192=CARTESIAN_POINT('',(-4.99999999999993,3.06744970014791E-015,14.6602540378444));
#193=CURVE_STYLE('',#298,POSITIVE_LENGTH_MEASURE(1.0E-006),#299);
#194=LINE('',#300,#301);
#195=POINT_STYLE(' ',#302,POSITIVE_LENGTH_MEASURE(1.0E-006),#303);
#196=CARTESIAN_POINT('',(5.00000000000005,3.44718332940992E-015,-2.8421709430404E-014));
#197=CURVE_STYLE('',#304,POSITIVE_LENGTH_MEASURE(1.0E-006),#305);
#198=CIRCLE('',#306,10.0);
#199=SURFACE_STYLE_USAGE(.BOTH.,#307);
#200=FACE_OUTER_BOUND('',#308,.T.);
#201=CYLINDRICAL_SURFACE('',#309,4.99999999999999);
#202=POINT_STYLE(' ',#310,POSITIVE_LENGTH_MEASURE(1.0E-006),#311);
#203=CARTESIAN_POINT('',(6.85263278764182,6.77307522717998E-014,13.2829543371998));
#204=POINT_STYLE(' ',#312,POSITIVE_LENGTH_MEASURE(1.0E-006),#313);
#205=CARTESIAN_POINT('',(-4.99999999999994,3.0674497001479E-015,-2.8421709430404E-014));
#206=CURVE_STYLE('',#314,POSITIVE_LENGTH_MEASURE(1.0E-006),#315);
#207=LINE('',#316,#317);
#208=SURFACE_STYLE_USAGE(.BOTH.,#318);
#209=FACE_OUTER_BOUND('',#319,.T.);
#210=SPHERICAL_SURFACE('',#320,6.50000000000001);
#211=POINT_STYLE(' ',#321,POSITIVE_LENGTH_MEASURE(1.0E-006),#322);
#212=CARTESIAN_POINT('',(8.00000000000005,3.81456523555663E-015,-3.5527136788005E-014));
#213=CURVE_STYLE('',#323,POSITIVE_LENGTH_MEASURE(1.0E-006),#324);
#214=CIRCLE('',#325,6.49687442954543);
#215=POINT_STYLE(' ',#326,POSITIVE_LENGTH_MEASURE(1.0E-006),#327);
#216=CARTESIAN_POINT('',(66.6559500871697,7.20562169554059E-014,37.1746111269526));
#217=CURVE_STYLE('',#328,POSITIVE_LENGTH_MEASURE(1.0E-006),#329);
#218=LINE('',#330,#331);
#219=CURVE_STYLE('',#332,POSITIVE_LENGTH_MEASURE(1.0E-006),#333);
#220=CIRCLE('',#334,6.50000000000001);
#221=POINT_STYLE(' ',#335,POSITIVE_LENGTH_MEASURE(1.0E-006),#336);
#222=CARTESIAN_POINT('',(9.9308140775728,1.78734085398933E-012,4.82572075012666));
#223=CURVE_STYLE('',#337,POSITIVE_LENGTH_MEASURE(1.0E-006),#338);
#224=CIRCLE('',#339,8.0);
#225=POINT_STYLE(' ',#340,POSITIVE_LENGTH_MEASURE(1.0E-006),#341);
#226=CARTESIAN_POINT('',(5.00000000000005,4.34483534157963E-015,14.6602540378444));
#227=CURVE_STYLE('',#342,POSITIVE_LENGTH_MEASURE(1.0E-006),#343);
#228=LINE('',#344,#345);
#229=POINT_STYLE(' ',#346,POSITIVE_LENGTH_MEASURE(1.0E-006),#347);
#230=CARTESIAN_POINT('',(71.1000739342937,2.55844172213668E-012,24.9644812077196));
#231=CURVE_STYLE('',#348,POSITIVE_LENGTH_MEASURE(1.0E-006),#349);
#232=CIRCLE('',#350,6.50000000000001);
#233=SURFACE_STYLE_USAGE(.BOTH.,#351);
#234=FACE_OUTER_BOUND('',#352,.T.);
#235=SPHERICAL_SURFACE('',#353,10.0);
#236=POINT_STYLE(' ',#354,POSITIVE_LENGTH_MEASURE(1.0E-006),#355);
#237=CARTESIAN_POINT('',(75.1754096628728,7.12997051257056E-014,33.3616114660533));
#238=CURVE_STYLE('',#356,POSITIVE_LENGTH_MEASURE(1.0E-006),#357);
#239=CIRCLE('',#358,4.49999999999995);
#240=SURFACE_STYLE_USAGE(.BOTH.,#359);
#241=FACE_OUTER_BOUND('',#360,.T.);
#242=CYLINDRICAL_SURFACE('',#361,4.99999999999999);
#243=SURFACE_STYLE_USAGE(.BOTH.,#362);
#244=CLOSED_SHELL('',(#132,#138,#108,#72,#70,#78,#142,#100,#82));
#245=SURFACE_STYLE_USAGE(.BOTH.,#363);
#246=FACE_BOUND('',#364,.T.);
#247=FACE_OUTER_BOUND('',#365,.T.);
#248=PLANE('',#366);
#249=PRODUCT_CONTEXT('',#50,'mechanical');
#250=PRODUCT_DEFINITION_FORMATION_WITH_SPECIFIED_SOURCE(' ','NONE',#143,.NOT_KNOWN.);
#251=CARTESIAN_POINT('',(0.0,0.0,0.0));
#252=DIRECTION('',(0.0,0.0,1.0));
#253=DIRECTION('',(1.0,0.0,0.0));
#254= (NAMED_UNIT(#151)LENGTH_UNIT()SI_UNIT(.MILLI.,.METRE.));
#255=DRAUGHTING_PRE_DEFINED_CURVE_FONT('continuous');
#256=COLOUR_RGB('',0.509803950786591,0.509803950786591,0.588235318660736);
#257=AXIS2_PLACEMENT_3D('',#368,#369,#370);
#258=DRAUGHTING_PRE_DEFINED_CURVE_FONT('continuous');
#259=COLOUR_RGB('',0.509803950786591,0.509803950786591,0.588235318660736);
#260=AXIS2_PLACEMENT_3D('',#371,#372,#373);
#261=DRAUGHTING_PRE_DEFINED_CURVE_FONT('continuous');
#262=COLOUR_RGB('',0.509803950786591,0.509803950786591,0.588235318660736);
#263=AXIS2_PLACEMENT_3D('',#374,#375,#376);
#264=SURFACE_SIDE_STYLE('',(#377));
#265=EDGE_LOOP('',(#378,#379,#380,#381));
#266=AXIS2_PLACEMENT_3D('',#382,#383,#384);
#267=SURFACE_SIDE_STYLE('',(#385));
#268=EDGE_LOOP('',(#386,#387,#388,#389));
#269=AXIS2_PLACEMENT_3D('',#390,#391,#392);
#270=DRAUGHTING_PRE_DEFINED_CURVE_FONT('continuous');
#271=COLOUR_RGB('',0.509803950786591,0.509803950786591,0.588235318660736);
#272=AXIS2_PLACEMENT_3D('',#393,#394,#395);
#273=DRAUGHTING_PRE_DEFINED_CURVE_FONT('continuous');
#274=COLOUR_RGB('',0.509803950786591,0.509803950786591,0.588235318660736);
#275=AXIS2_PLACEMENT_3D('',#396,#397,#398);
#276=SURFACE_SIDE_STYLE('',(#399));
#277=EDGE_LOOP('',(#400,#401,#402));
#278=AXIS2_PLACEMENT_3D('',#403,#404,#405);
#279=DRAUGHTING_PRE_DEFINED_CURVE_FONT('continuous');
#280=COLOUR_RGB('',0.509803950786591,0.509803950786591,0.588235318660736);
#281=AXIS2_PLACEMENT_3D('',#406,#407,#408);
#282=SURFACE_SIDE_STYLE('',(#409));
#283=EDGE_LOOP('',(#410,#411,#412,#413,#414,#415));
#284=AXIS2_PLACEMENT_3D('',#416,#417,#418);
#285=DRAUGHTING_PRE_DEFINED_CURVE_FONT('continuous');
#286=COLOUR_RGB('',0.509803950786591,0.509803950786591,0.588235318660736);
#287=AXIS2_PLACEMENT_3D('',#419,#420,#421);
#288=PRE_DEFINED_MARKER('');
#289=COLOUR_RGB('',0.509803950786591,0.509803950786591,0.588235318660736);
#290=DRAUGHTING_PRE_DEFINED_CURVE_FONT('continuous');
#291=COLOUR_RGB('',0.509803950786591,0.509803950786591,0.588235318660736);
#292=AXIS2_PLACEMENT_3D('',#422,#423,#424);
#293=DRAUGHTING_PRE_DEFINED_CURVE_FONT('continuous');
#294=COLOUR_RGB('',0.509803950786591,0.509803950786591,0.588235318660736);
#295=AXIS2_PLACEMENT_3D('',#425,#426,#427);
#296=PRE_DEFINED_MARKER('');
#297=COLOUR_RGB('',0.509803950786591,0.509803950786591,0.588235318660736);
#298=DRAUGHTING_PRE_DEFINED_CURVE_FONT('continuous');
#299=COLOUR_RGB('',0.509803950786591,0.509803950786591,0.588235318660736);
#300=CARTESIAN_POINT('',(40.5154440059333,2.17289128806303E-012,14.8951009789231));
#301=VECTOR('',#428,1.0);
#302=PRE_DEFINED_MARKER('');
#303=COLOUR_RGB('',0.509803950786591,0.509803950786591,0.588235318660736);
#304=DRAUGHTING_PRE_DEFINED_CURVE_FONT('continuous');
#305=COLOUR_RGB('',0.509803950786591,0.509803950786591,0.588235318660736);
#306=AXIS2_PLACEMENT_3D('',#429,#430,#431);
#307=SURFACE_SIDE_STYLE('',(#432));
#308=EDGE_LOOP('',(#433,#434,#435,#436));
#309=AXIS2_PLACEMENT_3D('',#437,#438,#439);
#310=PRE_DEFINED_MARKER('');
#311=COLOUR_RGB('',0.509803950786591,0.509803950786591,0.588235318660736);
#312=PRE_DEFINED_MARKER('');
#313=COLOUR_RGB('',0.509803950786591,0.509803950786591,0.588235318660736);
#314=DRAUGHTING_PRE_DEFINED_CURVE_FONT('continuous');
#315=COLOUR_RGB('',0.509803950786591,0.509803950786591,0.588235318660736);
#316=CARTESIAN_POINT('',(36.7542914374057,-2.0300488461184E-012,25.2287827320762));
#317=VECTOR('',#440,1.0);
#318=SURFACE_SIDE_STYLE('',(#441));
#319=EDGE_LOOP('',(#442,#443,#444));
#320=AXIS2_PLACEMENT_3D('',#445,#446,#447);
#321=PRE_DEFINED_MARKER('');
#322=COLOUR_RGB('',0.509803950786591,0.509803950786591,0.588235318660736);
#323=DRAUGHTING_PRE_DEFINED_CURVE_FONT('continuous');
#324=COLOUR_RGB('',0.509803950786591,0.509803950786591,0.588235318660736);
#325=AXIS2_PLACEMENT_3D('',#448,#449,#450);
#326=PRE_DEFINED_MARKER('');
#327=COLOUR_RGB('',0.509803950786591,0.509803950786591,0.588235318660736);
#328=DRAUGHTING_PRE_DEFINED_CURVE_FONT('continuous');
#329=COLOUR_RGB('',0.509803950786591,0.509803950786591,0.588235318660736);
#330=CARTESIAN_POINT('',(-4.99999999999994,3.0674497001479E-015,7.33012701892216));
#331=VECTOR('',#451,1.0);
#332=DRAUGHTING_PRE_DEFINED_CURVE_FONT('continuous');
#333=COLOUR_RGB('',0.509803950786591,0.509803950786591,0.588235318660736);
#334=AXIS2_PLACEMENT_3D('',#452,#453,#454);
#335=PRE_DEFINED_MARKER('');
#336=COLOUR_RGB('',0.509803950786591,0.509803950786591,0.588235318660736);
#337=DRAUGHTING_PRE_DEFINED_CURVE_FONT('continuous');
#338=COLOUR_RGB('',0.509803950786591,0.509803950786591,0.588235318660736);
#339=AXIS2_PLACEMENT_3D('',#455,#456,#457);
#340=PRE_DEFINED_MARKER('');
#341=COLOUR_RGB('',0.509803950786591,0.509803950786591,0.588235318660736);
#342=DRAUGHTING_PRE_DEFINED_CURVE_FONT('continuous');
#343=COLOUR_RGB('',0.509803950786591,0.509803950786591,0.588235318660736);
#344=CARTESIAN_POINT('',(5.00000000000005,4.39761462918899E-015,7.33012701892216));
#345=VECTOR('',#458,1.0);
#346=PRE_DEFINED_MARKER('');
#347=COLOUR_RGB('',0.509803950786591,0.509803950786591,0.588235318660736);
#348=DRAUGHTING_PRE_DEFINED_CURVE_FONT('continuous');
#349=COLOUR_RGB('',0.509803950786591,0.509803950786591,0.588235318660736);
#350=AXIS2_PLACEMENT_3D('',#459,#460,#461);
#351=SURFACE_SIDE_STYLE('',(#462));
#352=EDGE_LOOP('',(#463,#464,#465,#466,#467,#468));
#353=AXIS2_PLACEMENT_3D('',#469,#470,#471);
#354=PRE_DEFINED_MARKER('');
#355=COLOUR_RGB('',0.509803950786591,0.509803950786591,0.588235318660736);
#356=DRAUGHTING_PRE_DEFINED_CURVE_FONT('continuous');
#357=COLOUR_RGB('',0.509803950786591,0.509803950786591,0.588235318660736);
#358=AXIS2_PLACEMENT_3D('',#472,#473,#474);
#359=SURFACE_SIDE_STYLE('',(#475));
#360=EDGE_LOOP('',(#476,#477,#478,#479));
#361=AXIS2_PLACEMENT_3D('',#480,#481,#482);
#362=SURFACE_SIDE_STYLE('',(#483));
#363=SURFACE_SIDE_STYLE('',(#484));
#364=EDGE_LOOP('',(#485,#486));
#365=EDGE_LOOP('',(#487,#488));
#366=AXIS2_PLACEMENT_3D('',#489,#490,#491);
#368=CARTESIAN_POINT('',(5.6843418860808E-014,3.73253216466845E-015,14.6602540378444));
#369=DIRECTION('',(0.0,0.0,-1.0));
#370=DIRECTION('',(1.0,1.0555857521871E-017,0.0));
#371=CARTESIAN_POINT('',(5.6843418860808E-014,3.73253216466845E-015,-2.8421709430404E-014));
#372=DIRECTION('',(0.0,0.0,-1.0));
#373=DIRECTION('',(1.0,1.0555857521871E-017,0.0));
#374=CARTESIAN_POINT('',(5.6843418860808E-014,3.73253216466845E-015,-2.8421709430404E-014));
#375=DIRECTION('',(0.0,0.0,-1.0));
#376=DIRECTION('',(1.0,1.0555857521871E-017,0.0));
#377=SURFACE_STYLE_FILL_AREA(#492);
#378=ORIENTED_EDGE('',*,*,#106,.T.);
#379=ORIENTED_EDGE('',*,*,#112,.F.);
#380=ORIENTED_EDGE('',*,*,#94,.T.);
#381=ORIENTED_EDGE('',*,*,#80,.F.);
#382=CARTESIAN_POINT('',(38.6348677216695,7.14212209723169E-014,20.0619418554996));
#383=DIRECTION('',(0.939692620785909,1.22845103914233E-016,0.342020143325668));
#384=DIRECTION('',(-0.342020143325668,-3.82316525058754E-013,0.939692620785909));
#385=SURFACE_STYLE_FILL_AREA(#493);
#386=ORIENTED_EDGE('',*,*,#106,.F.);
#387=ORIENTED_EDGE('',*,*,#136,.F.);
#388=ORIENTED_EDGE('',*,*,#94,.F.);
#389=ORIENTED_EDGE('',*,*,#84,.F.);
#390=CARTESIAN_POINT('',(38.6348677216695,7.14212209723169E-014,20.0619418554996));
#391=DIRECTION('',(0.939692620785909,1.22845103914233E-016,0.342020143325668));
#392=DIRECTION('',(-0.342020143325668,-3.82316525058754E-013,0.939692620785909));
#393=CARTESIAN_POINT('',(5.6843418860808E-014,3.73253216466845E-015,14.6602540378444));
#394=DIRECTION('',(0.0,0.0,-1.0));
#395=DIRECTION('',(1.0,1.0555857521871E-017,0.0));
#396=CARTESIAN_POINT('',(5.77315972805081E-014,3.20226205864544E-015,5.99999999999996));
#397=DIRECTION('',(-2.44921270764476E-016,1.0,0.0));
#398=DIRECTION('',(0.0,0.0,-1.0));
#399=SURFACE_STYLE_FILL_AREA(#494);
#400=ORIENTED_EDGE('',*,*,#130,.F.);
#401=ORIENTED_EDGE('',*,*,#84,.T.);
#402=ORIENTED_EDGE('',*,*,#118,.F.);
#403=CARTESIAN_POINT('',(69.0674076277644,7.08992090152555E-014,31.1384805344365));
#404=DIRECTION('',(0.939692620785909,1.22845103914204E-016,0.342020143325668));
#405=DIRECTION('',(-0.342020143325668,1.79998313084964E-016,0.939692620785909));
#406=CARTESIAN_POINT('',(8.39172343260731,4.29930391498749E-015,9.0543375436632));
#407=DIRECTION('',(-0.939692620785909,-1.22845103914205E-016,-0.342020143325668));
#408=DIRECTION('',(0.342020143325668,-6.06157612568984E-033,-0.939692620785909));
#409=SURFACE_STYLE_FILL_AREA(#495);
#410=ORIENTED_EDGE('',*,*,#76,.T.);
#411=ORIENTED_EDGE('',*,*,#80,.T.);
#412=ORIENTED_EDGE('',*,*,#88,.T.);
#413=ORIENTED_EDGE('',*,*,#90,.F.);
#414=ORIENTED_EDGE('',*,*,#98,.T.);
#415=ORIENTED_EDGE('',*,*,#64,.T.);
#416=CARTESIAN_POINT('',(5.77315972805081E-014,3.20226205864544E-015,5.99999999999996));
#417=DIRECTION('',(0.0,0.0,-1.0));
#418=DIRECTION('',(1.0,1.22460635382238E-016,0.0));
#419=CARTESIAN_POINT('',(68.8780120107317,7.53748778604331E-014,31.0695461673361));
#420=DIRECTION('',(0.939692620785909,1.22845103914242E-016,0.342020143325668));
#421=DIRECTION('',(-0.342020143325668,-3.82316525058754E-013,0.939692620785909));
#422=CARTESIAN_POINT('',(5.77315972805081E-014,3.20226205864544E-015,5.99999999999996));
#423=DIRECTION('',(-2.44921270764476E-016,1.0,0.0));
#424=DIRECTION('',(0.0,0.0,-1.0));
#425=CARTESIAN_POINT('',(5.6843418860808E-014,3.73253216466845E-015,-3.5527136788005E-014));
#426=DIRECTION('',(0.0,0.0,-1.0));
#427=DIRECTION('',(1.0,1.0555857521871E-017,0.0));
#428=DIRECTION('',(-0.949846050264135,-1.19737776079119E-014,-0.312717893312202));
#429=CARTESIAN_POINT('',(5.77315972805081E-014,3.20226205864544E-015,5.99999999999996));
#430=DIRECTION('',(-2.44921270764476E-016,1.0,0.0));
#431=DIRECTION('',(0.0,0.0,-1.0));
#432=SURFACE_STYLE_FILL_AREA(#496);
#433=ORIENTED_EDGE('',*,*,#126,.T.);
#434=ORIENTED_EDGE('',*,*,#68,.T.);
#435=ORIENTED_EDGE('',*,*,#116,.T.);
#436=ORIENTED_EDGE('',*,*,#74,.F.);
#437=CARTESIAN_POINT('',(5.6843418860808E-014,3.73253216466845E-015,7.33012701892216));
#438=DIRECTION('',(-0.0,-0.0,1.0));
#439=DIRECTION('',(1.0,1.0555857521871E-017,0.0));
#440=DIRECTION('',(0.928635475771711,-1.17282055419381E-014,0.370993467783797));
#441=SURFACE_STYLE_FILL_AREA(#497);
#442=ORIENTED_EDGE('',*,*,#130,.T.);
#443=ORIENTED_EDGE('',*,*,#118,.T.);
#444=ORIENTED_EDGE('',*,*,#112,.T.);
#445=CARTESIAN_POINT('',(69.0674076277644,7.08992090152555E-014,31.1384805344365));
#446=DIRECTION('',(0.939692620785909,1.22845103914204E-016,0.342020143325668));
#447=DIRECTION('',(-0.342020143325668,1.79998313084964E-016,0.939692620785909));
#448=CARTESIAN_POINT('',(68.8780120107317,7.53748778604331E-014,31.0695461673361));
#449=DIRECTION('',(0.939692620785909,1.22845103914242E-016,0.342020143325668));
#450=DIRECTION('',(-0.342020143325668,-3.82316525058754E-013,0.939692620785909));
#451=DIRECTION('',(-0.0,-0.0,1.0));
#452=CARTESIAN_POINT('',(69.0674076277644,7.08992090152555E-014,31.1384805344365));
#453=DIRECTION('',(-1.19895847429725E-017,1.0,-3.26233942012889E-016));
#454=DIRECTION('',(0.0,-3.26233942012889E-016,-1.0));
#455=CARTESIAN_POINT('',(5.6843418860808E-014,3.73253216466845E-015,-3.5527136788005E-014));
#456=DIRECTION('',(0.0,0.0,-1.0));
#457=DIRECTION('',(1.0,1.0555857521871E-017,0.0));
#458=DIRECTION('',(-0.0,-0.0,-1.0));
#459=CARTESIAN_POINT('',(69.0674076277644,7.08992090152555E-014,31.1384805344365));
#460=DIRECTION('',(-1.19895847429725E-017,1.0,-3.26233942012889E-016));
#461=DIRECTION('',(0.0,-3.26233942012889E-016,-1.0));
#462=SURFACE_STYLE_FILL_AREA(#498);
#463=ORIENTED_EDGE('',*,*,#76,.F.);
#464=ORIENTED_EDGE('',*,*,#74,.T.);
#465=ORIENTED_EDGE('',*,*,#98,.F.);
#466=ORIENTED_EDGE('',*,*,#122,.F.);
#467=ORIENTED_EDGE('',*,*,#88,.F.);
#468=ORIENTED_EDGE('',*,*,#136,.T.);
#469=CARTESIAN_POINT('',(5.77315972805081E-014,3.20226205864544E-015,5.99999999999996));
#470=DIRECTION('',(0.0,0.0,-1.0));
#471=DIRECTION('',(1.0,1.22460635382238E-016,0.0));
#472=CARTESIAN_POINT('',(8.39172343260731,4.29930391498749E-015,9.0543375436632));
#473=DIRECTION('',(-0.939692620785909,-1.22845103914205E-016,-0.342020143325668));
#474=DIRECTION('',(0.342020143325668,-6.06157612568984E-033,-0.939692620785909));
#475=SURFACE_STYLE_FILL_AREA(#499);
#476=ORIENTED_EDGE('',*,*,#126,.F.);
#477=ORIENTED_EDGE('',*,*,#64,.F.);
#478=ORIENTED_EDGE('',*,*,#116,.F.);
#479=ORIENTED_EDGE('',*,*,#66,.T.);
#480=CARTESIAN_POINT('',(5.6843418860808E-014,3.73253216466845E-015,7.33012701892216));
#481=DIRECTION('',(-0.0,-0.0,1.0));
#482=DIRECTION('',(1.0,1.0555857521871E-017,0.0));
#483=SURFACE_STYLE_FILL_AREA(#500);
#484=SURFACE_STYLE_FILL_AREA(#501);
#485=ORIENTED_EDGE('',*,*,#68,.F.);
#486=ORIENTED_EDGE('',*,*,#66,.F.);
#487=ORIENTED_EDGE('',*,*,#122,.T.);
#488=ORIENTED_EDGE('',*,*,#90,.T.);
#489=CARTESIAN_POINT('',(6.50000000000005,3.63087428248327E-015,-3.19744231092045E-014));
#490=DIRECTION('',(0.0,0.0,-1.0));
#491=DIRECTION('',(1.0,1.22460635382238E-016,0.0));
#492=FILL_AREA_STYLE('',(#502));
#493=FILL_AREA_STYLE('',(#503));
#494=FILL_AREA_STYLE('',(#504));
#495=FILL_AREA_STYLE('',(#505));
#496=FILL_AREA_STYLE('',(#506));
#497=FILL_AREA_STYLE('',(#507));
#498=FILL_AREA_STYLE('',(#508));
#499=FILL_AREA_STYLE('',(#509));
#500=FILL_AREA_STYLE('',(#510));
#501=FILL_AREA_STYLE('',(#511));
#502=FILL_AREA_STYLE_COLOUR('',#512);
#503=FILL_AREA_STYLE_COLOUR('',#513);
#504=FILL_AREA_STYLE_COLOUR('',#514);
#505=FILL_AREA_STYLE_COLOUR('',#515);
#506=FILL_AREA_STYLE_COLOUR('',#516);
#507=FILL_AREA_STYLE_COLOUR('',#517);
#508=FILL_AREA_STYLE_COLOUR('',#518);
#509=FILL_AREA_STYLE_COLOUR('',#519);
#510=FILL_AREA_STYLE_COLOUR('',#520);
#511=FILL_AREA_STYLE_COLOUR('',#521);
#512=COLOUR_RGB('',0.509803950786591,0.509803950786591,0.588235318660736);
#513=COLOUR_RGB('',0.509803950786591,0.509803950786591,0.588235318660736);
#514=COLOUR_RGB('',0.509803950786591,0.509803950786591,0.588235318660736);
#515=COLOUR_RGB('',0.509803950786591,0.509803950786591,0.588235318660736);
#516=COLOUR_RGB('',0.509803950786591,0.509803950786591,0.588235318660736);
#517=COLOUR_RGB('',0.509803950786591,0.509803950786591,0.588235318660736);
#518=COLOUR_RGB('',0.509803950786591,0.509803950786591,0.588235318660736);
#519=COLOUR_RGB('',0.509803950786591,0.509803950786591,0.588235318660736);
#520=COLOUR_RGB('',0.509803950786591,0.509803950786591,0.588235318660736);
#521=COLOUR_RGB('',0.509803950786591,0.509803950786591,0.588235318660736);
ENDSEC;
END-ISO-10303-21;
