ISO-10303-21;
HEADER;
FILE_DESCRIPTION(('STEP AP214'),'1');
FILE_NAME(' ','  ',('TraceParts'),('TraceParts S.A.'),'XStep 1.0',' ',' ');
FILE_SCHEMA(('automotive_design'));
ENDSEC;
DATA;
#1=MECHANICAL_DESIGN_GEOMETRIC_PRESENTATION_REPRESENTATION(' ',(#10,#11,#12,#13,#14,#15,#16,#17,#18,#19,#20,#21,#22,#23,#24,#25,#26,#27,#28,#29,#30,#31,#32,#33,#34,#35,#36,#37,#38,#39,#40,#41,#42,#43,#44,#45,#46,#47,#48,#49),#6);
#2=PRODUCT_DEFINITION_CONTEXT('',#50,'design');
#3=APPLICATION_PROTOCOL_DEFINITION('INTERNATIONAL STANDARD','automotive_design',1994,#50);
#4=PRODUCT_CATEGORY_RELATIONSHIP('NONE','NONE',#51,#52);
#5=SHAPE_DEFINITION_REPRESENTATION(#53,#54);
#6= (GEOMETRIC_REPRESENTATION_CONTEXT(3)GLOBAL_UNCERTAINTY_ASSIGNED_CONTEXT((#57))GLOBAL_UNIT_ASSIGNED_CONTEXT((#59,#60,#61))REPRESENTATION_CONTEXT('NONE','WORKSPACE'));
#10=STYLED_ITEM('',(#63),#64);
#11=STYLED_ITEM('',(#65),#66);
#12=STYLED_ITEM('',(#67),#68);
#13=STYLED_ITEM('',(#69),#70);
#14=STYLED_ITEM('',(#71),#72);
#15=STYLED_ITEM('',(#73),#74);
#16=STYLED_ITEM('',(#75),#76);
#17=STYLED_ITEM('',(#77),#78);
#18=STYLED_ITEM('',(#79),#80);
#19=STYLED_ITEM('',(#81),#82);
#20=STYLED_ITEM('',(#83),#84);
#21=STYLED_ITEM('',(#85),#86);
#22=STYLED_ITEM('',(#87),#88);
#23=STYLED_ITEM('',(#89),#90);
#24=STYLED_ITEM('',(#91),#92);
#25=STYLED_ITEM('',(#93),#94);
#26=STYLED_ITEM('',(#95),#96);
#27=STYLED_ITEM('',(#97),#98);
#28=STYLED_ITEM('',(#99),#100);
#29=STYLED_ITEM('',(#101),#102);
#30=STYLED_ITEM('',(#103),#104);
#31=STYLED_ITEM('',(#105),#106);
#32=STYLED_ITEM('',(#107),#108);
#33=STYLED_ITEM('',(#109),#110);
#34=STYLED_ITEM('',(#111),#112);
#35=STYLED_ITEM('',(#113),#114);
#36=STYLED_ITEM('',(#115),#116);
#37=STYLED_ITEM('',(#117),#118);
#38=STYLED_ITEM('',(#119),#120);
#39=STYLED_ITEM('',(#121),#122);
#40=STYLED_ITEM('',(#123),#124);
#41=STYLED_ITEM('',(#125),#126);
#42=STYLED_ITEM('',(#127),#128);
#43=STYLED_ITEM('',(#129),#130);
#44=STYLED_ITEM('',(#131),#132);
#45=STYLED_ITEM('',(#133),#134);
#46=STYLED_ITEM('',(#135),#136);
#47=STYLED_ITEM('',(#137),#138);
#48=STYLED_ITEM('',(#139),#140);
#49=STYLED_ITEM('',(#141),#142);
#50=APPLICATION_CONTEXT(' ');
#51=PRODUCT_CATEGORY('part','NONE');
#52=PRODUCT_RELATED_PRODUCT_CATEGORY('detail',' ',(#143));
#53=PRODUCT_DEFINITION_SHAPE('NONE','NONE',#144);
#54=ADVANCED_BREP_SHAPE_REPRESENTATION('1',(#78,#145),#6);
#57=UNCERTAINTY_MEASURE_WITH_UNIT(LENGTH_MEASURE(1.0E-006),#59,'','');
#59= (CONVERSION_BASED_UNIT('MILLIMETRE',#148)LENGTH_UNIT()NAMED_UNIT(#151));
#60= (NAMED_UNIT(#153)PLANE_ANGLE_UNIT()SI_UNIT($,.RADIAN.));
#61= (NAMED_UNIT(#153)SOLID_ANGLE_UNIT()SI_UNIT($,.STERADIAN.));
#63=PRESENTATION_STYLE_ASSIGNMENT((#159));
#64=VERTEX_POINT('',#160);
#65=PRESENTATION_STYLE_ASSIGNMENT((#161));
#66=EDGE_CURVE('',#142,#94,#162,.T.);
#67=PRESENTATION_STYLE_ASSIGNMENT((#163));
#68=EDGE_CURVE('',#98,#120,#164,.T.);
#69=PRESENTATION_STYLE_ASSIGNMENT((#165));
#70=ADVANCED_FACE('',(#166),#167,.T.);
#71=PRESENTATION_STYLE_ASSIGNMENT((#168));
#72=EDGE_CURVE('',#64,#84,#169,.T.);
#73=PRESENTATION_STYLE_ASSIGNMENT((#170));
#74=EDGE_CURVE('',#84,#64,#171,.T.);
#75=PRESENTATION_STYLE_ASSIGNMENT((#172));
#76=EDGE_CURVE('',#114,#126,#173,.T.);
#77=PRESENTATION_STYLE_ASSIGNMENT((#174));
#78=MANIFOLD_SOLID_BREP('1',#175);
#79=PRESENTATION_STYLE_ASSIGNMENT((#176));
#80=EDGE_CURVE('',#98,#126,#177,.T.);
#81=PRESENTATION_STYLE_ASSIGNMENT((#178));
#82=ADVANCED_FACE('',(#179),#180,.F.);
#83=PRESENTATION_STYLE_ASSIGNMENT((#181));
#84=VERTEX_POINT('',#182);
#85=PRESENTATION_STYLE_ASSIGNMENT((#183));
#86=EDGE_CURVE('',#126,#98,#184,.T.);
#87=PRESENTATION_STYLE_ASSIGNMENT((#185));
#88=VERTEX_POINT('',#186);
#89=PRESENTATION_STYLE_ASSIGNMENT((#187));
#90=EDGE_CURVE('',#108,#98,#188,.T.);
#91=PRESENTATION_STYLE_ASSIGNMENT((#189));
#92=ADVANCED_FACE('',(#190,#191),#192,.T.);
#93=PRESENTATION_STYLE_ASSIGNMENT((#193));
#94=VERTEX_POINT('',#194);
#95=PRESENTATION_STYLE_ASSIGNMENT((#195));
#96=EDGE_CURVE('',#64,#114,#196,.T.);
#97=PRESENTATION_STYLE_ASSIGNMENT((#197));
#98=VERTEX_POINT('',#198);
#99=PRESENTATION_STYLE_ASSIGNMENT((#199));
#100=EDGE_CURVE('',#94,#84,#200,.T.);
#101=PRESENTATION_STYLE_ASSIGNMENT((#201));
#102=EDGE_CURVE('',#88,#140,#202,.T.);
#103=PRESENTATION_STYLE_ASSIGNMENT((#203));
#104=ADVANCED_FACE('',(#204),#205,.T.);
#105=PRESENTATION_STYLE_ASSIGNMENT((#206));
#106=EDGE_CURVE('',#120,#114,#207,.T.);
#107=PRESENTATION_STYLE_ASSIGNMENT((#208));
#108=VERTEX_POINT('',#209);
#109=PRESENTATION_STYLE_ASSIGNMENT((#210));
#110=EDGE_CURVE('',#126,#108,#211,.T.);
#111=PRESENTATION_STYLE_ASSIGNMENT((#212));
#112=EDGE_CURVE('',#64,#88,#213,.T.);
#113=PRESENTATION_STYLE_ASSIGNMENT((#214));
#114=VERTEX_POINT('',#215);
#115=PRESENTATION_STYLE_ASSIGNMENT((#216));
#116=ADVANCED_FACE('',(#217),#218,.F.);
#117=PRESENTATION_STYLE_ASSIGNMENT((#219));
#118=ADVANCED_FACE('',(#220),#221,.T.);
#119=PRESENTATION_STYLE_ASSIGNMENT((#222));
#120=VERTEX_POINT('',#223);
#121=PRESENTATION_STYLE_ASSIGNMENT((#224));
#122=ADVANCED_FACE('',(#225),#226,.T.);
#123=PRESENTATION_STYLE_ASSIGNMENT((#227));
#124=EDGE_CURVE('',#120,#142,#228,.T.);
#125=PRESENTATION_STYLE_ASSIGNMENT((#229));
#126=VERTEX_POINT('',#230);
#127=PRESENTATION_STYLE_ASSIGNMENT((#231));
#128=EDGE_CURVE('',#114,#120,#232,.T.);
#129=PRESENTATION_STYLE_ASSIGNMENT((#233));
#130=ADVANCED_FACE('',(#234),#235,.T.);
#131=PRESENTATION_STYLE_ASSIGNMENT((#236));
#132=EDGE_CURVE('',#140,#88,#237,.T.);
#133=PRESENTATION_STYLE_ASSIGNMENT((#238));
#134=ADVANCED_FACE('',(#239),#240,.T.);
#135=PRESENTATION_STYLE_ASSIGNMENT((#241));
#136=EDGE_CURVE('',#94,#142,#242,.T.);
#137=PRESENTATION_STYLE_ASSIGNMENT((#243));
#138=EDGE_CURVE('',#140,#84,#244,.T.);
#139=PRESENTATION_STYLE_ASSIGNMENT((#245));
#140=VERTEX_POINT('',#246);
#141=PRESENTATION_STYLE_ASSIGNMENT((#247));
#142=VERTEX_POINT('',#248);
#143=PRODUCT('1','1','PART-1-DESC',(#249));
#144=PRODUCT_DEFINITION('NONE','NONE',#250,#2);
#145=AXIS2_PLACEMENT_3D('',#251,#252,#253);
#148=LENGTH_MEASURE_WITH_UNIT(LENGTH_MEASURE(1.0),#254);
#151=DIMENSIONAL_EXPONENTS(1.0,0.0,0.0,0.0,0.0,0.0,0.0);
#153=DIMENSIONAL_EXPONENTS(0.0,0.0,0.0,0.0,0.0,0.0,0.0);
#159=POINT_STYLE(' ',#255,POSITIVE_LENGTH_MEASURE(1.0E-006),#256);
#160=CARTESIAN_POINT('',(4.00000000000006,4.55694338398884E-015,11.9282032302754));
#161=CURVE_STYLE('',#257,POSITIVE_LENGTH_MEASURE(1.0E-006),#258);
#162=CIRCLE('',#259,6.2449979983984);
#163=CURVE_STYLE('',#260,POSITIVE_LENGTH_MEASURE(1.0E-006),#261);
#164=LINE('',#262,#263);
#165=SURFACE_STYLE_USAGE(.BOTH.,#264);
#166=FACE_OUTER_BOUND('',#265,.T.);
#167=SPHERICAL_SURFACE('',#266,5.00000000000001);
#168=CURVE_STYLE('',#267,POSITIVE_LENGTH_MEASURE(1.0E-006),#268);
#169=CIRCLE('',#269,4.0);
#170=CURVE_STYLE('',#270,POSITIVE_LENGTH_MEASURE(1.0E-006),#271);
#171=CIRCLE('',#272,4.0);
#172=CURVE_STYLE('',#273,POSITIVE_LENGTH_MEASURE(1.0E-006),#274);
#173=LINE('',#275,#276);
#174=SURFACE_STYLE_USAGE(.BOTH.,#277);
#175=CLOSED_SHELL('',(#122,#116,#70,#118,#104,#134,#92,#82,#130));
#176=CURVE_STYLE('',#278,POSITIVE_LENGTH_MEASURE(1.0E-006),#279);
#177=CIRCLE('',#280,4.99903996675282);
#178=SURFACE_STYLE_USAGE(.BOTH.,#281);
#179=FACE_OUTER_BOUND('',#282,.T.);
#180=CYLINDRICAL_SURFACE('',#283,4.0);
#181=POINT_STYLE(' ',#284,POSITIVE_LENGTH_MEASURE(1.0E-006),#285);
#182=CARTESIAN_POINT('',(-3.99999999999995,3.55391597388951E-015,11.9282032302754));
#183=CURVE_STYLE('',#286,POSITIVE_LENGTH_MEASURE(1.0E-006),#287);
#184=CIRCLE('',#288,4.99903996675282);
#185=POINT_STYLE(' ',#289,POSITIVE_LENGTH_MEASURE(1.0E-006),#290);
#186=CARTESIAN_POINT('',(4.00000000000006,3.82657571071484E-015,-5.6843418860808E-014));
#187=CURVE_STYLE('',#291,POSITIVE_LENGTH_MEASURE(1.0E-006),#292);
#188=CIRCLE('',#293,5.00000000000001);
#189=SURFACE_STYLE_USAGE(.BOTH.,#294);
#190=FACE_BOUND('',#295,.T.);
#191=FACE_OUTER_BOUND('',#296,.T.);
#192=PLANE('',#297);
#193=POINT_STYLE(' ',#298,POSITIVE_LENGTH_MEASURE(1.0E-006),#299);
#194=CARTESIAN_POINT('',(-6.24499799839834,2.11335191195215E-015,-5.6843418860808E-014));
#195=CURVE_STYLE('',#300,POSITIVE_LENGTH_MEASURE(1.0E-006),#301);
#196=CIRCLE('',#302,8.0);
#197=POINT_STYLE(' ',#303,POSITIVE_LENGTH_MEASURE(1.0E-006),#304);
#198=CARTESIAN_POINT('',(56.1198764994876,2.04331207041403E-012,20.1060973801716));
#199=CURVE_STYLE('',#305,POSITIVE_LENGTH_MEASURE(1.0E-006),#306);
#200=CIRCLE('',#307,8.0);
#201=CURVE_STYLE('',#308,POSITIVE_LENGTH_MEASURE(1.0E-006),#309);
#202=CIRCLE('',#310,4.0);
#203=SURFACE_STYLE_USAGE(.BOTH.,#311);
#204=FACE_OUTER_BOUND('',#312,.T.);
#205=CONICAL_SURFACE('',#313,4.49951998337641,0.0195965708314896);
#206=CURVE_STYLE('',#314,POSITIVE_LENGTH_MEASURE(1.0E-006),#315);
#207=CIRCLE('',#316,3.99999999999995);
#208=POINT_STYLE(' ',#317,POSITIVE_LENGTH_MEASURE(1.0E-006),#318);
#209=CARTESIAN_POINT('',(59.2006351095124,7.00131220807188E-014,26.547269029517));
#210=CURVE_STYLE('',#319,POSITIVE_LENGTH_MEASURE(1.0E-006),#320);
#211=CIRCLE('',#321,5.00000000000001);
#212=CURVE_STYLE('',#322,POSITIVE_LENGTH_MEASURE(1.0E-006),#323);
#213=LINE('',#324,#325);
#214=POINT_STYLE(' ',#326,POSITIVE_LENGTH_MEASURE(1.0E-006),#327);
#215=CARTESIAN_POINT('',(5.14230087749243,6.72782635619478E-014,11.1283555449517));
#216=SURFACE_STYLE_USAGE(.BOTH.,#328);
#217=FACE_OUTER_BOUND('',#329,.T.);
#218=CYLINDRICAL_SURFACE('',#330,4.0);
#219=SURFACE_STYLE_USAGE(.BOTH.,#331);
#220=FACE_OUTER_BOUND('',#332,.T.);
#221=CONICAL_SURFACE('',#333,4.49951998337641,0.0195965708314896);
#222=POINT_STYLE(' ',#334,POSITIVE_LENGTH_MEASURE(1.0E-006),#335);
#223=CARTESIAN_POINT('',(7.87846202409773,1.64333931721326E-012,3.61081457866455));
#224=SURFACE_STYLE_USAGE(.BOTH.,#336);
#225=FACE_OUTER_BOUND('',#337,.T.);
#226=SPHERICAL_SURFACE('',#338,8.0);
#227=CURVE_STYLE('',#339,POSITIVE_LENGTH_MEASURE(1.0E-006),#340);
#228=CIRCLE('',#341,8.0);
#229=POINT_STYLE(' ',#342,POSITIVE_LENGTH_MEASURE(1.0E-006),#343);
#230=CARTESIAN_POINT('',(52.7003317676485,7.05988301044494E-014,29.5012193157145));
#231=CURVE_STYLE('',#344,POSITIVE_LENGTH_MEASURE(1.0E-006),#345);
#232=CIRCLE('',#346,3.99999999999995);
#233=SURFACE_STYLE_USAGE(.BOTH.,#347);
#234=FACE_OUTER_BOUND('',#348,.T.);
#235=SPHERICAL_SURFACE('',#349,8.0);
#236=CURVE_STYLE('',#350,POSITIVE_LENGTH_MEASURE(1.0E-006),#351);
#237=CIRCLE('',#352,4.0);
#238=SURFACE_STYLE_USAGE(.BOTH.,#353);
#239=FACE_OUTER_BOUND('',#354,.T.);
#240=SPHERICAL_SURFACE('',#355,5.00000000000001);
#241=CURVE_STYLE('',#356,POSITIVE_LENGTH_MEASURE(1.0E-006),#357);
#242=CIRCLE('',#358,6.2449979983984);
#243=CURVE_STYLE('',#359,POSITIVE_LENGTH_MEASURE(1.0E-006),#360);
#244=LINE('',#361,#362);
#245=POINT_STYLE(' ',#363,POSITIVE_LENGTH_MEASURE(1.0E-006),#364);
#246=CARTESIAN_POINT('',(-3.99999999999995,3.55391597388951E-015,-5.6843418860808E-014));
#247=POINT_STYLE(' ',#365,POSITIVE_LENGTH_MEASURE(1.0E-006),#366);
#248=CARTESIAN_POINT('',(6.24499799839845,4.10149959203056E-015,-5.6843418860808E-014));
#249=PRODUCT_CONTEXT('',#50,'mechanical');
#250=PRODUCT_DEFINITION_FORMATION_WITH_SPECIFIED_SOURCE(' ','NONE',#143,.NOT_KNOWN.);
#251=CARTESIAN_POINT('',(0.0,0.0,0.0));
#252=DIRECTION('',(0.0,0.0,1.0));
#253=DIRECTION('',(1.0,0.0,0.0));
#254= (NAMED_UNIT(#151)LENGTH_UNIT()SI_UNIT(.MILLI.,.METRE.));
#255=PRE_DEFINED_MARKER('');
#256=COLOUR_RGB('',0.509803950786591,0.509803950786591,0.588235318660736);
#257=DRAUGHTING_PRE_DEFINED_CURVE_FONT('continuous');
#258=COLOUR_RGB('',0.509803950786591,0.509803950786591,0.588235318660736);
#259=AXIS2_PLACEMENT_3D('',#368,#369,#370);
#260=DRAUGHTING_PRE_DEFINED_CURVE_FONT('continuous');
#261=COLOUR_RGB('',0.509803950786591,0.509803950786591,0.588235318660736);
#262=CARTESIAN_POINT('',(31.9991692617927,1.84332569381367E-012,11.858455979418));
#263=VECTOR('',#371,1.0);
#264=SURFACE_SIDE_STYLE('',(#372));
#265=EDGE_LOOP('',(#373,#374,#375));
#266=AXIS2_PLACEMENT_3D('',#376,#377,#378);
#267=DRAUGHTING_PRE_DEFINED_CURVE_FONT('continuous');
#268=COLOUR_RGB('',0.509803950786591,0.509803950786591,0.588235318660736);
#269=AXIS2_PLACEMENT_3D('',#379,#380,#381);
#270=DRAUGHTING_PRE_DEFINED_CURVE_FONT('continuous');
#271=COLOUR_RGB('',0.509803950786591,0.509803950786591,0.588235318660736);
#272=AXIS2_PLACEMENT_3D('',#382,#383,#384);
#273=DRAUGHTING_PRE_DEFINED_CURVE_FONT('continuous');
#274=COLOUR_RGB('',0.509803950786591,0.509803950786591,0.588235318660736);
#275=CARTESIAN_POINT('',(28.9213163225705,-1.70309883678707E-012,20.3147874303331));
#276=VECTOR('',#385,1.0);
#277=SURFACE_SIDE_STYLE('',(#386));
#278=DRAUGHTING_PRE_DEFINED_CURVE_FONT('continuous');
#279=COLOUR_RGB('',0.509803950786591,0.509803950786591,0.588235318660736);
#280=AXIS2_PLACEMENT_3D('',#387,#388,#389);
#281=SURFACE_SIDE_STYLE('',(#390));
#282=EDGE_LOOP('',(#391,#392,#393,#394));
#283=AXIS2_PLACEMENT_3D('',#395,#396,#397);
#284=PRE_DEFINED_MARKER('');
#285=COLOUR_RGB('',0.509803950786591,0.509803950786591,0.588235318660736);
#286=DRAUGHTING_PRE_DEFINED_CURVE_FONT('continuous');
#287=COLOUR_RGB('',0.509803950786591,0.509803950786591,0.588235318660736);
#288=AXIS2_PLACEMENT_3D('',#398,#399,#400);
#289=PRE_DEFINED_MARKER('');
#290=COLOUR_RGB('',0.509803950786591,0.509803950786591,0.588235318660736);
#291=DRAUGHTING_PRE_DEFINED_CURVE_FONT('continuous');
#292=COLOUR_RGB('',0.509803950786591,0.509803950786591,0.588235318660736);
#293=AXIS2_PLACEMENT_3D('',#401,#402,#403);
#294=SURFACE_SIDE_STYLE('',(#404));
#295=EDGE_LOOP('',(#405,#406));
#296=EDGE_LOOP('',(#407,#408));
#297=AXIS2_PLACEMENT_3D('',#409,#410,#411);
#298=PRE_DEFINED_MARKER('');
#299=COLOUR_RGB('',0.509803950786591,0.509803950786591,0.588235318660736);
#300=DRAUGHTING_PRE_DEFINED_CURVE_FONT('continuous');
#301=COLOUR_RGB('',0.509803950786591,0.509803950786591,0.588235318660736);
#302=AXIS2_PLACEMENT_3D('',#412,#413,#414);
#303=PRE_DEFINED_MARKER('');
#304=COLOUR_RGB('',0.509803950786591,0.509803950786591,0.588235318660736);
#305=DRAUGHTING_PRE_DEFINED_CURVE_FONT('continuous');
#306=COLOUR_RGB('',0.509803950786591,0.509803950786591,0.588235318660736);
#307=AXIS2_PLACEMENT_3D('',#415,#416,#417);
#308=DRAUGHTING_PRE_DEFINED_CURVE_FONT('continuous');
#309=COLOUR_RGB('',0.509803950786591,0.509803950786591,0.588235318660736);
#310=AXIS2_PLACEMENT_3D('',#418,#419,#420);
#311=SURFACE_SIDE_STYLE('',(#421));
#312=EDGE_LOOP('',(#422,#423,#424,#425));
#313=AXIS2_PLACEMENT_3D('',#426,#427,#428);
#314=DRAUGHTING_PRE_DEFINED_CURVE_FONT('continuous');
#315=COLOUR_RGB('',0.509803950786591,0.509803950786591,0.588235318660736);
#316=AXIS2_PLACEMENT_3D('',#429,#430,#431);
#317=PRE_DEFINED_MARKER('');
#318=COLOUR_RGB('',0.509803950786591,0.509803950786591,0.588235318660736);
#319=DRAUGHTING_PRE_DEFINED_CURVE_FONT('continuous');
#320=COLOUR_RGB('',0.509803950786591,0.509803950786591,0.588235318660736);
#321=AXIS2_PLACEMENT_3D('',#432,#433,#434);
#322=DRAUGHTING_PRE_DEFINED_CURVE_FONT('continuous');
#323=COLOUR_RGB('',0.509803950786591,0.509803950786591,0.588235318660736);
#324=CARTESIAN_POINT('',(4.00000000000006,4.58028571103027E-015,5.96410161513769));
#325=VECTOR('',#435,1.0);
#326=PRE_DEFINED_MARKER('');
#327=COLOUR_RGB('',0.509803950786591,0.509803950786591,0.588235318660736);
#328=SURFACE_SIDE_STYLE('',(#436));
#329=EDGE_LOOP('',(#437,#438,#439,#440));
#330=AXIS2_PLACEMENT_3D('',#441,#442,#443);
#331=SURFACE_SIDE_STYLE('',(#444));
#332=EDGE_LOOP('',(#445,#446,#447,#448));
#333=AXIS2_PLACEMENT_3D('',#449,#450,#451);
#334=PRE_DEFINED_MARKER('');
#335=COLOUR_RGB('',0.509803950786591,0.509803950786591,0.588235318660736);
#336=SURFACE_SIDE_STYLE('',(#452));
#337=EDGE_LOOP('',(#453,#454,#455,#456,#457,#458));
#338=AXIS2_PLACEMENT_3D('',#459,#460,#461);
#339=DRAUGHTING_PRE_DEFINED_CURVE_FONT('continuous');
#340=COLOUR_RGB('',0.509803950786591,0.509803950786591,0.588235318660736);
#341=AXIS2_PLACEMENT_3D('',#462,#463,#464);
#342=PRE_DEFINED_MARKER('');
#343=COLOUR_RGB('',0.509803950786591,0.509803950786591,0.588235318660736);
#344=DRAUGHTING_PRE_DEFINED_CURVE_FONT('continuous');
#345=COLOUR_RGB('',0.509803950786591,0.509803950786591,0.588235318660736);
#346=AXIS2_PLACEMENT_3D('',#465,#466,#467);
#347=SURFACE_SIDE_STYLE('',(#468));
#348=EDGE_LOOP('',(#469,#470,#471,#472,#473,#474));
#349=AXIS2_PLACEMENT_3D('',#475,#476,#477);
#350=DRAUGHTING_PRE_DEFINED_CURVE_FONT('continuous');
#351=COLOUR_RGB('',0.509803950786591,0.509803950786591,0.588235318660736);
#352=AXIS2_PLACEMENT_3D('',#478,#479,#480);
#353=SURFACE_SIDE_STYLE('',(#481));
#354=EDGE_LOOP('',(#482,#483,#484));
#355=AXIS2_PLACEMENT_3D('',#485,#486,#487);
#356=DRAUGHTING_PRE_DEFINED_CURVE_FONT('continuous');
#357=COLOUR_RGB('',0.509803950786591,0.509803950786591,0.588235318660736);
#358=AXIS2_PLACEMENT_3D('',#488,#489,#490);
#359=DRAUGHTING_PRE_DEFINED_CURVE_FONT('continuous');
#360=COLOUR_RGB('',0.509803950786591,0.509803950786591,0.588235318660736);
#361=CARTESIAN_POINT('',(-3.99999999999995,3.55391597388951E-015,5.96410161513769));
#362=VECTOR('',#491,1.0);
#363=PRE_DEFINED_MARKER('');
#364=COLOUR_RGB('',0.509803950786591,0.509803950786591,0.588235318660736);
#365=PRE_DEFINED_MARKER('');
#366=COLOUR_RGB('',0.509803950786591,0.509803950786591,0.588235318660736);
#368=CARTESIAN_POINT('',(5.6843418860808E-014,4.06710084245989E-015,-5.6843418860808E-014));
#369=DIRECTION('',(0.0,0.0,-1.0));
#370=DIRECTION('',(1.0,5.83558176035804E-018,0.0));
#371=DIRECTION('',(-0.946214186543416,-7.8451243070913E-015,-0.323540898780944));
#372=SURFACE_STYLE_FILL_AREA(#492);
#373=ORIENTED_EDGE('',*,*,#110,.T.);
#374=ORIENTED_EDGE('',*,*,#90,.T.);
#375=ORIENTED_EDGE('',*,*,#80,.T.);
#376=CARTESIAN_POINT('',(54.5021720055829,6.97050481496034E-014,24.8371683128887));
#377=DIRECTION('',(0.939692620785909,1.22845103914205E-016,0.342020143325668));
#378=DIRECTION('',(-0.342020143325668,1.79998313084964E-016,0.939692620785909));
#379=CARTESIAN_POINT('',(5.6843418860808E-014,4.06710084245989E-015,11.9282032302754));
#380=DIRECTION('',(0.0,0.0,-1.0));
#381=DIRECTION('',(1.0,5.83558176035804E-018,0.0));
#382=CARTESIAN_POINT('',(5.6843418860808E-014,4.06710084245989E-015,11.9282032302754));
#383=DIRECTION('',(0.0,0.0,-1.0));
#384=DIRECTION('',(1.0,5.83558176035804E-018,0.0));
#385=DIRECTION('',(0.932810200565166,-7.59948127341645E-015,0.360368047586872));
#386=SURFACE_STYLE_FILL_AREA(#493);
#387=CARTESIAN_POINT('',(54.4101041335681,7.32443706321737E-014,24.803658347943));
#388=DIRECTION('',(0.939692620785909,1.22845103914223E-016,0.342020143325668));
#389=DIRECTION('',(-0.342020143325668,-3.94211668340103E-013,0.939692620785909));
#390=SURFACE_STYLE_FILL_AREA(#494);
#391=ORIENTED_EDGE('',*,*,#112,.T.);
#392=ORIENTED_EDGE('',*,*,#102,.T.);
#393=ORIENTED_EDGE('',*,*,#138,.T.);
#394=ORIENTED_EDGE('',*,*,#72,.F.);
#395=CARTESIAN_POINT('',(5.6843418860808E-014,4.06710084245989E-015,5.96410161513769));
#396=DIRECTION('',(-0.0,-0.0,1.0));
#397=DIRECTION('',(1.0,5.83558176035804E-018,0.0));
#398=CARTESIAN_POINT('',(54.4101041335681,7.32443706321737E-014,24.803658347943));
#399=DIRECTION('',(0.939692620785909,1.22845103914223E-016,0.342020143325668));
#400=DIRECTION('',(-0.342020143325668,-3.94211668340103E-013,0.939692620785909));
#401=CARTESIAN_POINT('',(54.5021720055829,6.97050481496034E-014,24.8371683128887));
#402=DIRECTION('',(-1.1989584742973E-017,1.0,-3.26233942012887E-016));
#403=DIRECTION('',(0.0,-3.26233942012887E-016,-1.0));
#404=SURFACE_STYLE_FILL_AREA(#495);
#405=ORIENTED_EDGE('',*,*,#102,.F.);
#406=ORIENTED_EDGE('',*,*,#132,.F.);
#407=ORIENTED_EDGE('',*,*,#66,.T.);
#408=ORIENTED_EDGE('',*,*,#136,.T.);
#409=CARTESIAN_POINT('',(5.12249899919926,3.9640376513727E-015,-5.6843418860808E-014));
#410=DIRECTION('',(0.0,0.0,-1.0));
#411=DIRECTION('',(1.0,1.22460635382238E-016,0.0));
#412=CARTESIAN_POINT('',(5.95079541199084E-014,3.64288475764149E-015,4.99999999999994));
#413=DIRECTION('',(-2.44921270764475E-016,1.0,0.0));
#414=DIRECTION('',(0.0,0.0,-1.0));
#415=CARTESIAN_POINT('',(5.95079541199084E-014,3.64288475764149E-015,4.99999999999994));
#416=DIRECTION('',(-2.44921270764475E-016,1.0,0.0));
#417=DIRECTION('',(0.0,0.0,-1.0));
#418=CARTESIAN_POINT('',(5.6843418860808E-014,4.06710084245989E-015,-5.6843418860808E-014));
#419=DIRECTION('',(0.0,0.0,-1.0));
#420=DIRECTION('',(1.0,5.83558176035806E-018,0.0));
#421=SURFACE_STYLE_FILL_AREA(#496);
#422=ORIENTED_EDGE('',*,*,#76,.T.);
#423=ORIENTED_EDGE('',*,*,#80,.F.);
#424=ORIENTED_EDGE('',*,*,#68,.T.);
#425=ORIENTED_EDGE('',*,*,#128,.F.);
#426=CARTESIAN_POINT('',(30.4602427921816,7.01134285133E-014,16.0866217048756));
#427=DIRECTION('',(0.939692620785909,1.22845103914221E-016,0.342020143325668));
#428=DIRECTION('',(-0.342020143325668,-3.94211668340103E-013,0.939692620785909));
#429=CARTESIAN_POINT('',(6.51038145079507,4.49398060340341E-015,7.36958506180813));
#430=DIRECTION('',(-0.939692620785909,-1.22845103914205E-016,-0.342020143325668));
#431=DIRECTION('',(0.342020143325668,0.0,-0.939692620785909));
#432=CARTESIAN_POINT('',(54.5021720055829,6.97050481496034E-014,24.8371683128887));
#433=DIRECTION('',(-1.1989584742973E-017,1.0,-3.26233942012887E-016));
#434=DIRECTION('',(0.0,-3.26233942012887E-016,-1.0));
#435=DIRECTION('',(-0.0,-0.0,-1.0));
#436=SURFACE_STYLE_FILL_AREA(#497);
#437=ORIENTED_EDGE('',*,*,#112,.F.);
#438=ORIENTED_EDGE('',*,*,#74,.F.);
#439=ORIENTED_EDGE('',*,*,#138,.F.);
#440=ORIENTED_EDGE('',*,*,#132,.T.);
#441=CARTESIAN_POINT('',(5.6843418860808E-014,4.06710084245989E-015,5.96410161513769));
#442=DIRECTION('',(-0.0,-0.0,1.0));
#443=DIRECTION('',(1.0,5.83558176035804E-018,0.0));
#444=SURFACE_STYLE_FILL_AREA(#498);
#445=ORIENTED_EDGE('',*,*,#76,.F.);
#446=ORIENTED_EDGE('',*,*,#106,.F.);
#447=ORIENTED_EDGE('',*,*,#68,.F.);
#448=ORIENTED_EDGE('',*,*,#86,.F.);
#449=CARTESIAN_POINT('',(30.4602427921816,7.01134285133E-014,16.0866217048756));
#450=DIRECTION('',(0.939692620785909,1.22845103914221E-016,0.342020143325668));
#451=DIRECTION('',(-0.342020143325668,-3.94211668340103E-013,0.939692620785909));
#452=SURFACE_STYLE_FILL_AREA(#499);
#453=ORIENTED_EDGE('',*,*,#96,.F.);
#454=ORIENTED_EDGE('',*,*,#72,.T.);
#455=ORIENTED_EDGE('',*,*,#100,.F.);
#456=ORIENTED_EDGE('',*,*,#66,.F.);
#457=ORIENTED_EDGE('',*,*,#124,.F.);
#458=ORIENTED_EDGE('',*,*,#106,.T.);
#459=CARTESIAN_POINT('',(5.95079541199084E-014,3.64288475764149E-015,4.99999999999994));
#460=DIRECTION('',(0.0,0.0,-1.0));
#461=DIRECTION('',(1.0,1.22460635382238E-016,0.0));
#462=CARTESIAN_POINT('',(5.95079541199084E-014,3.64288475764149E-015,4.99999999999994));
#463=DIRECTION('',(-2.44921270764475E-016,1.0,0.0));
#464=DIRECTION('',(0.0,0.0,-1.0));
#465=CARTESIAN_POINT('',(6.51038145079507,4.49398060340341E-015,7.36958506180813));
#466=DIRECTION('',(-0.939692620785909,-1.22845103914205E-016,-0.342020143325668));
#467=DIRECTION('',(0.342020143325668,0.0,-0.939692620785909));
#468=SURFACE_STYLE_FILL_AREA(#500);
#469=ORIENTED_EDGE('',*,*,#96,.T.);
#470=ORIENTED_EDGE('',*,*,#128,.T.);
#471=ORIENTED_EDGE('',*,*,#124,.T.);
#472=ORIENTED_EDGE('',*,*,#136,.F.);
#473=ORIENTED_EDGE('',*,*,#100,.T.);
#474=ORIENTED_EDGE('',*,*,#74,.T.);
#475=CARTESIAN_POINT('',(5.95079541199084E-014,3.64288475764149E-015,4.99999999999994));
#476=DIRECTION('',(0.0,0.0,-1.0));
#477=DIRECTION('',(1.0,1.22460635382238E-016,0.0));
#478=CARTESIAN_POINT('',(5.6843418860808E-014,4.06710084245989E-015,-5.6843418860808E-014));
#479=DIRECTION('',(0.0,0.0,-1.0));
#480=DIRECTION('',(1.0,5.83558176035806E-018,0.0));
#481=SURFACE_STYLE_FILL_AREA(#501);
#482=ORIENTED_EDGE('',*,*,#110,.F.);
#483=ORIENTED_EDGE('',*,*,#86,.T.);
#484=ORIENTED_EDGE('',*,*,#90,.F.);
#485=CARTESIAN_POINT('',(54.5021720055829,6.97050481496034E-014,24.8371683128887));
#486=DIRECTION('',(0.939692620785909,1.22845103914205E-016,0.342020143325668));
#487=DIRECTION('',(-0.342020143325668,1.79998313084964E-016,0.939692620785909));
#488=CARTESIAN_POINT('',(5.6843418860808E-014,4.06710084245989E-015,-5.6843418860808E-014));
#489=DIRECTION('',(0.0,0.0,-1.0));
#490=DIRECTION('',(1.0,5.83558176035804E-018,0.0));
#491=DIRECTION('',(-0.0,-0.0,1.0));
#492=FILL_AREA_STYLE('',(#502));
#493=FILL_AREA_STYLE('',(#503));
#494=FILL_AREA_STYLE('',(#504));
#495=FILL_AREA_STYLE('',(#505));
#496=FILL_AREA_STYLE('',(#506));
#497=FILL_AREA_STYLE('',(#507));
#498=FILL_AREA_STYLE('',(#508));
#499=FILL_AREA_STYLE('',(#509));
#500=FILL_AREA_STYLE('',(#510));
#501=FILL_AREA_STYLE('',(#511));
#502=FILL_AREA_STYLE_COLOUR('',#512);
#503=FILL_AREA_STYLE_COLOUR('',#513);
#504=FILL_AREA_STYLE_COLOUR('',#514);
#505=FILL_AREA_STYLE_COLOUR('',#515);
#506=FILL_AREA_STYLE_COLOUR('',#516);
#507=FILL_AREA_STYLE_COLOUR('',#517);
#508=FILL_AREA_STYLE_COLOUR('',#518);
#509=FILL_AREA_STYLE_COLOUR('',#519);
#510=FILL_AREA_STYLE_COLOUR('',#520);
#511=FILL_AREA_STYLE_COLOUR('',#521);
#512=COLOUR_RGB('',0.509803950786591,0.509803950786591,0.588235318660736);
#513=COLOUR_RGB('',0.509803950786591,0.509803950786591,0.588235318660736);
#514=COLOUR_RGB('',0.509803950786591,0.509803950786591,0.588235318660736);
#515=COLOUR_RGB('',0.509803950786591,0.509803950786591,0.588235318660736);
#516=COLOUR_RGB('',0.509803950786591,0.509803950786591,0.588235318660736);
#517=COLOUR_RGB('',0.509803950786591,0.509803950786591,0.588235318660736);
#518=COLOUR_RGB('',0.509803950786591,0.509803950786591,0.588235318660736);
#519=COLOUR_RGB('',0.509803950786591,0.509803950786591,0.588235318660736);
#520=COLOUR_RGB('',0.509803950786591,0.509803950786591,0.588235318660736);
#521=COLOUR_RGB('',0.509803950786591,0.509803950786591,0.588235318660736);
ENDSEC;
END-ISO-10303-21;
