ISO-10303-21;
HEADER;
FILE_DESCRIPTION(('STEP AP214'),'1');
FILE_NAME(' ','  ',('TraceParts'),('TraceParts S.A.'),'XStep 1.0',' ',' ');
FILE_SCHEMA(('automotive_design'));
ENDSEC;
DATA;
#1=MECHANICAL_DESIGN_GEOMETRIC_PRESENTATION_REPRESENTATION(' ',(#10,#11,#12,#13,#14,#15,#16,#17,#18,#19,#20,#21,#22,#23,#24,#25,#26,#27,#28,#29,#30,#31,#32,#33,#34,#35,#36,#37,#38,#39,#40,#41,#42,#43,#44,#45,#46,#47,#48,#49),#6);
#2=PRODUCT_DEFINITION_CONTEXT('',#50,'design');
#3=APPLICATION_PROTOCOL_DEFINITION('INTERNATIONAL STANDARD','automotive_design',1994,#50);
#4=PRODUCT_CATEGORY_RELATIONSHIP('NONE','NONE',#51,#52);
#5=SHAPE_DEFINITION_REPRESENTATION(#53,#54);
#6= (GEOMETRIC_REPRESENTATION_CONTEXT(3)GLOBAL_UNCERTAINTY_ASSIGNED_CONTEXT((#57))GLOBAL_UNIT_ASSIGNED_CONTEXT((#59,#60,#61))REPRESENTATION_CONTEXT('NONE','WORKSPACE'));
#10=STYLED_ITEM('',(#63),#64);
#11=STYLED_ITEM('',(#65),#66);
#12=STYLED_ITEM('',(#67),#68);
#13=STYLED_ITEM('',(#69),#70);
#14=STYLED_ITEM('',(#71),#72);
#15=STYLED_ITEM('',(#73),#74);
#16=STYLED_ITEM('',(#75),#76);
#17=STYLED_ITEM('',(#77),#78);
#18=STYLED_ITEM('',(#79),#80);
#19=STYLED_ITEM('',(#81),#82);
#20=STYLED_ITEM('',(#83),#84);
#21=STYLED_ITEM('',(#85),#86);
#22=STYLED_ITEM('',(#87),#88);
#23=STYLED_ITEM('',(#89),#90);
#24=STYLED_ITEM('',(#91),#92);
#25=STYLED_ITEM('',(#93),#94);
#26=STYLED_ITEM('',(#95),#96);
#27=STYLED_ITEM('',(#97),#98);
#28=STYLED_ITEM('',(#99),#100);
#29=STYLED_ITEM('',(#101),#102);
#30=STYLED_ITEM('',(#103),#104);
#31=STYLED_ITEM('',(#105),#106);
#32=STYLED_ITEM('',(#107),#108);
#33=STYLED_ITEM('',(#109),#110);
#34=STYLED_ITEM('',(#111),#112);
#35=STYLED_ITEM('',(#113),#114);
#36=STYLED_ITEM('',(#115),#116);
#37=STYLED_ITEM('',(#117),#118);
#38=STYLED_ITEM('',(#119),#120);
#39=STYLED_ITEM('',(#121),#122);
#40=STYLED_ITEM('',(#123),#124);
#41=STYLED_ITEM('',(#125),#126);
#42=STYLED_ITEM('',(#127),#128);
#43=STYLED_ITEM('',(#129),#130);
#44=STYLED_ITEM('',(#131),#132);
#45=STYLED_ITEM('',(#133),#134);
#46=STYLED_ITEM('',(#135),#136);
#47=STYLED_ITEM('',(#137),#138);
#48=STYLED_ITEM('',(#139),#140);
#49=STYLED_ITEM('',(#141),#142);
#50=APPLICATION_CONTEXT(' ');
#51=PRODUCT_CATEGORY('part','NONE');
#52=PRODUCT_RELATED_PRODUCT_CATEGORY('detail',' ',(#143));
#53=PRODUCT_DEFINITION_SHAPE('NONE','NONE',#144);
#54=ADVANCED_BREP_SHAPE_REPRESENTATION('1',(#82,#145),#6);
#57=UNCERTAINTY_MEASURE_WITH_UNIT(LENGTH_MEASURE(1.0E-006),#59,'','');
#59= (CONVERSION_BASED_UNIT('MILLIMETRE',#148)LENGTH_UNIT()NAMED_UNIT(#151));
#60= (NAMED_UNIT(#153)PLANE_ANGLE_UNIT()SI_UNIT($,.RADIAN.));
#61= (NAMED_UNIT(#153)SOLID_ANGLE_UNIT()SI_UNIT($,.STERADIAN.));
#63=PRESENTATION_STYLE_ASSIGNMENT((#159));
#64=VERTEX_POINT('',#160);
#65=PRESENTATION_STYLE_ASSIGNMENT((#161));
#66=EDGE_CURVE('',#98,#92,#162,.T.);
#67=PRESENTATION_STYLE_ASSIGNMENT((#163));
#68=EDGE_CURVE('',#84,#64,#164,.T.);
#69=PRESENTATION_STYLE_ASSIGNMENT((#165));
#70=EDGE_CURVE('',#100,#98,#166,.T.);
#71=PRESENTATION_STYLE_ASSIGNMENT((#167));
#72=VERTEX_POINT('',#168);
#73=PRESENTATION_STYLE_ASSIGNMENT((#169));
#74=ADVANCED_FACE('',(#170),#171,.F.);
#75=PRESENTATION_STYLE_ASSIGNMENT((#172));
#76=VERTEX_POINT('',#173);
#77=PRESENTATION_STYLE_ASSIGNMENT((#174));
#78=EDGE_CURVE('',#114,#72,#175,.T.);
#79=PRESENTATION_STYLE_ASSIGNMENT((#176));
#80=EDGE_CURVE('',#118,#142,#177,.T.);
#81=PRESENTATION_STYLE_ASSIGNMENT((#178));
#82=MANIFOLD_SOLID_BREP('1',#179);
#83=PRESENTATION_STYLE_ASSIGNMENT((#180));
#84=VERTEX_POINT('',#181);
#85=PRESENTATION_STYLE_ASSIGNMENT((#182));
#86=EDGE_CURVE('',#142,#114,#183,.T.);
#87=PRESENTATION_STYLE_ASSIGNMENT((#184));
#88=ADVANCED_FACE('',(#185,#186),#187,.T.);
#89=PRESENTATION_STYLE_ASSIGNMENT((#188));
#90=ADVANCED_FACE('',(#189),#190,.T.);
#91=PRESENTATION_STYLE_ASSIGNMENT((#191));
#92=VERTEX_POINT('',#192);
#93=PRESENTATION_STYLE_ASSIGNMENT((#193));
#94=ADVANCED_FACE('',(#194),#195,.T.);
#95=PRESENTATION_STYLE_ASSIGNMENT((#196));
#96=EDGE_CURVE('',#84,#100,#197,.T.);
#97=PRESENTATION_STYLE_ASSIGNMENT((#198));
#98=VERTEX_POINT('',#199);
#99=PRESENTATION_STYLE_ASSIGNMENT((#200));
#100=VERTEX_POINT('',#201);
#101=PRESENTATION_STYLE_ASSIGNMENT((#202));
#102=VERTEX_POINT('',#203);
#103=PRESENTATION_STYLE_ASSIGNMENT((#204));
#104=ADVANCED_FACE('',(#205),#206,.T.);
#105=PRESENTATION_STYLE_ASSIGNMENT((#207));
#106=EDGE_CURVE('',#76,#118,#208,.T.);
#107=PRESENTATION_STYLE_ASSIGNMENT((#209));
#108=EDGE_CURVE('',#72,#92,#210,.T.);
#109=PRESENTATION_STYLE_ASSIGNMENT((#211));
#110=EDGE_CURVE('',#72,#114,#212,.T.);
#111=PRESENTATION_STYLE_ASSIGNMENT((#213));
#112=EDGE_CURVE('',#118,#76,#214,.T.);
#113=PRESENTATION_STYLE_ASSIGNMENT((#215));
#114=VERTEX_POINT('',#216);
#115=PRESENTATION_STYLE_ASSIGNMENT((#217));
#116=EDGE_CURVE('',#64,#76,#218,.T.);
#117=PRESENTATION_STYLE_ASSIGNMENT((#219));
#118=VERTEX_POINT('',#220);
#119=PRESENTATION_STYLE_ASSIGNMENT((#221));
#120=EDGE_CURVE('',#102,#118,#222,.T.);
#121=PRESENTATION_STYLE_ASSIGNMENT((#223));
#122=ADVANCED_FACE('',(#224),#225,.F.);
#123=PRESENTATION_STYLE_ASSIGNMENT((#226));
#124=EDGE_CURVE('',#64,#142,#227,.T.);
#125=PRESENTATION_STYLE_ASSIGNMENT((#228));
#126=EDGE_CURVE('',#84,#92,#229,.T.);
#127=PRESENTATION_STYLE_ASSIGNMENT((#230));
#128=EDGE_CURVE('',#142,#64,#231,.T.);
#129=PRESENTATION_STYLE_ASSIGNMENT((#232));
#130=ADVANCED_FACE('',(#233),#234,.T.);
#131=PRESENTATION_STYLE_ASSIGNMENT((#235));
#132=EDGE_CURVE('',#98,#100,#236,.T.);
#133=PRESENTATION_STYLE_ASSIGNMENT((#237));
#134=EDGE_CURVE('',#92,#84,#238,.T.);
#135=PRESENTATION_STYLE_ASSIGNMENT((#239));
#136=EDGE_CURVE('',#76,#102,#240,.T.);
#137=PRESENTATION_STYLE_ASSIGNMENT((#241));
#138=ADVANCED_FACE('',(#242),#243,.T.);
#139=PRESENTATION_STYLE_ASSIGNMENT((#244));
#140=ADVANCED_FACE('',(#245),#246,.T.);
#141=PRESENTATION_STYLE_ASSIGNMENT((#247));
#142=VERTEX_POINT('',#248);
#143=PRODUCT('1','1','PART-1-DESC',(#249));
#144=PRODUCT_DEFINITION('NONE','NONE',#250,#2);
#145=AXIS2_PLACEMENT_3D('',#251,#252,#253);
#148=LENGTH_MEASURE_WITH_UNIT(LENGTH_MEASURE(1.0),#254);
#151=DIMENSIONAL_EXPONENTS(1.0,0.0,0.0,0.0,0.0,0.0,0.0);
#153=DIMENSIONAL_EXPONENTS(0.0,0.0,0.0,0.0,0.0,0.0,0.0);
#159=POINT_STYLE(' ',#255,POSITIVE_LENGTH_MEASURE(1.0E-006),#256);
#160=CARTESIAN_POINT('',(4.27036777988633,6.75067718959519E-014,8.21473119243766));
#161=CURVE_STYLE('',#257,POSITIVE_LENGTH_MEASURE(1.0E-006),#258);
#162=LINE('',#259,#260);
#163=CURVE_STYLE('',#261,POSITIVE_LENGTH_MEASURE(1.0E-006),#262);
#164=CIRCLE('',#263,6.00000000000001);
#165=CURVE_STYLE('',#264,POSITIVE_LENGTH_MEASURE(1.0E-006),#265);
#166=CIRCLE('',#266,3.00000000000001);
#167=POINT_STYLE(' ',#267,POSITIVE_LENGTH_MEASURE(1.0E-006),#268);
#168=CARTESIAN_POINT('',(-4.47213595499965,2.98818623550751E-015,3.5527136788005E-015));
#169=SURFACE_STYLE_USAGE(.BOTH.,#269);
#170=FACE_OUTER_BOUND('',#270,.T.);
#171=CYLINDRICAL_SURFACE('',#271,3.00000000000001);
#172=POINT_STYLE(' ',#272,POSITIVE_LENGTH_MEASURE(1.0E-006),#273);
#173=CARTESIAN_POINT('',(41.7195026414819,7.64012307348663E-014,23.4384475864323));
#174=CURVE_STYLE('',#274,POSITIVE_LENGTH_MEASURE(1.0E-006),#275);
#175=CIRCLE('',#276,4.47213595499965);
#176=CURVE_STYLE('',#277,POSITIVE_LENGTH_MEASURE(1.0E-006),#278);
#177=LINE('',#279,#280);
#178=SURFACE_STYLE_USAGE(.BOTH.,#281);
#179=CLOSED_SHELL('',(#104,#74,#138,#94,#90,#140,#88,#122,#130));
#180=POINT_STYLE(' ',#282,POSITIVE_LENGTH_MEASURE(1.0E-006),#283);
#181=CARTESIAN_POINT('',(3.00000000000001,4.76905142639805E-015,9.19615242270658));
#182=CURVE_STYLE('',#284,POSITIVE_LENGTH_MEASURE(1.0E-006),#285);
#183=CIRCLE('',#286,6.00000000000001);
#184=SURFACE_STYLE_USAGE(.BOTH.,#287);
#185=FACE_BOUND('',#288,.T.);
#186=FACE_OUTER_BOUND('',#289,.T.);
#187=PLANE('',#290);
#188=SURFACE_STYLE_USAGE(.BOTH.,#291);
#189=FACE_OUTER_BOUND('',#292,.T.);
#190=CONICAL_SURFACE('',#293,3.24862774179448,0.0370461220453842);
#191=POINT_STYLE(' ',#294,POSITIVE_LENGTH_MEASURE(1.0E-006),#295);
#192=CARTESIAN_POINT('',(-3.00000000000001,4.04349633342114E-015,9.19615242270658));
#193=SURFACE_STYLE_USAGE(.BOTH.,#296);
#194=FACE_OUTER_BOUND('',#297,.T.);
#195=CONICAL_SURFACE('',#298,3.24862774179448,0.0370461220453842);
#196=CURVE_STYLE('',#299,POSITIVE_LENGTH_MEASURE(1.0E-006),#300);
#197=LINE('',#301,#302);
#198=POINT_STYLE(' ',#303,POSITIVE_LENGTH_MEASURE(1.0E-006),#304);
#199=CARTESIAN_POINT('',(-3.00000000000001,4.04349633342114E-015,-5.6843418860808E-014));
#200=POINT_STYLE(' ',#305,POSITIVE_LENGTH_MEASURE(1.0E-006),#306);
#201=CARTESIAN_POINT('',(3.00000000000001,4.20596809201977E-015,-5.6843418860808E-014));
#202=POINT_STYLE(' ',#307,POSITIVE_LENGTH_MEASURE(1.0E-006),#308);
#203=CARTESIAN_POINT('',(46.9846310392954,7.65673709407388E-014,21.1010071662833));
#204=SURFACE_STYLE_USAGE(.BOTH.,#309);
#205=FACE_OUTER_BOUND('',#310,.T.);
#206=SPHERICAL_SURFACE('',#311,6.00000000000001);
#207=CURVE_STYLE('',#312,POSITIVE_LENGTH_MEASURE(1.0E-006),#313);
#208=CIRCLE('',#314,3.99725548358901);
#209=CURVE_STYLE('',#315,POSITIVE_LENGTH_MEASURE(1.0E-006),#316);
#210=CIRCLE('',#317,6.00000000000001);
#211=CURVE_STYLE('',#318,POSITIVE_LENGTH_MEASURE(1.0E-006),#319);
#212=CIRCLE('',#320,4.47213595499965);
#213=CURVE_STYLE('',#321,POSITIVE_LENGTH_MEASURE(1.0E-006),#322);
#214=CIRCLE('',#323,3.99725548358901);
#215=POINT_STYLE(' ',#324,POSITIVE_LENGTH_MEASURE(1.0E-006),#325);
#216=CARTESIAN_POINT('',(4.47213595499965,4.38624679643806E-015,3.5527136788005E-015));
#217=CURVE_STYLE('',#326,POSITIVE_LENGTH_MEASURE(1.0E-006),#327);
#218=LINE('',#328,#329);
#219=POINT_STYLE(' ',#330,POSITIVE_LENGTH_MEASURE(1.0E-006),#331);
#220=CARTESIAN_POINT('',(44.4537864282948,1.62427929594215E-012,15.9260646237831));
#221=CURVE_STYLE('',#332,POSITIVE_LENGTH_MEASURE(1.0E-006),#333);
#222=CIRCLE('',#334,4.00000000000002);
#223=SURFACE_STYLE_USAGE(.BOTH.,#335);
#224=FACE_OUTER_BOUND('',#336,.T.);
#225=CYLINDRICAL_SURFACE('',#337,3.00000000000001);
#226=CURVE_STYLE('',#338,POSITIVE_LENGTH_MEASURE(1.0E-006),#339);
#227=CIRCLE('',#340,2.50000000000015);
#228=CURVE_STYLE('',#341,POSITIVE_LENGTH_MEASURE(1.0E-006),#342);
#229=CIRCLE('',#343,3.00000000000001);
#230=CURVE_STYLE('',#344,POSITIVE_LENGTH_MEASURE(1.0E-006),#345);
#231=CIRCLE('',#346,2.50000000000015);
#232=SURFACE_STYLE_USAGE(.BOTH.,#347);
#233=FACE_OUTER_BOUND('',#348,.T.);
#234=SPHERICAL_SURFACE('',#349,6.00000000000001);
#235=CURVE_STYLE('',#350,POSITIVE_LENGTH_MEASURE(1.0E-006),#351);
#236=CIRCLE('',#352,3.00000000000001);
#237=CURVE_STYLE('',#353,POSITIVE_LENGTH_MEASURE(1.0E-006),#354);
#238=CIRCLE('',#355,3.00000000000001);
#239=CURVE_STYLE('',#356,POSITIVE_LENGTH_MEASURE(1.0E-006),#357);
#240=CIRCLE('',#358,4.00000000000002);
#241=SURFACE_STYLE_USAGE(.BOTH.,#359);
#242=FACE_OUTER_BOUND('',#360,.T.);
#243=SPHERICAL_SURFACE('',#361,4.00000000000002);
#244=SURFACE_STYLE_USAGE(.BOTH.,#362);
#245=FACE_OUTER_BOUND('',#363,.T.);
#246=SPHERICAL_SURFACE('',#364,4.00000000000002);
#247=POINT_STYLE(' ',#365,POSITIVE_LENGTH_MEASURE(1.0E-006),#366);
#248=CARTESIAN_POINT('',(5.98046849651468,1.03417286112721E-012,3.51626808850809));
#249=PRODUCT_CONTEXT('',#50,'mechanical');
#250=PRODUCT_DEFINITION_FORMATION_WITH_SPECIFIED_SOURCE(' ','NONE',#143,.NOT_KNOWN.);
#251=CARTESIAN_POINT('',(0.0,0.0,0.0));
#252=DIRECTION('',(0.0,0.0,1.0));
#253=DIRECTION('',(1.0,0.0,0.0));
#254= (NAMED_UNIT(#151)LENGTH_UNIT()SI_UNIT(.MILLI.,.METRE.));
#255=PRE_DEFINED_MARKER('');
#256=COLOUR_RGB('',0.509803950786591,0.509803950786591,0.588235318660736);
#257=DRAUGHTING_PRE_DEFINED_CURVE_FONT('continuous');
#258=COLOUR_RGB('',0.509803950786591,0.509803950786591,0.588235318660736);
#259=CARTESIAN_POINT('',(-3.00000000000001,4.04349633342114E-015,4.59807621135326));
#260=VECTOR('',#368,1.0);
#261=DRAUGHTING_PRE_DEFINED_CURVE_FONT('continuous');
#262=COLOUR_RGB('',0.509803950786591,0.509803950786591,0.588235318660736);
#263=AXIS2_PLACEMENT_3D('',#369,#370,#371);
#264=DRAUGHTING_PRE_DEFINED_CURVE_FONT('continuous');
#265=COLOUR_RGB('',0.509803950786591,0.509803950786591,0.588235318660736);
#266=AXIS2_PLACEMENT_3D('',#372,#373,#374);
#267=PRE_DEFINED_MARKER('');
#268=COLOUR_RGB('',0.509803950786591,0.509803950786591,0.588235318660736);
#269=SURFACE_SIDE_STYLE('',(#375));
#270=EDGE_LOOP('',(#376,#377,#378,#379));
#271=AXIS2_PLACEMENT_3D('',#380,#381,#382);
#272=PRE_DEFINED_MARKER('');
#273=COLOUR_RGB('',0.509803950786591,0.509803950786591,0.588235318660736);
#274=DRAUGHTING_PRE_DEFINED_CURVE_FONT('continuous');
#275=COLOUR_RGB('',0.509803950786591,0.509803950786591,0.588235318660736);
#276=AXIS2_PLACEMENT_3D('',#383,#384,#385);
#277=DRAUGHTING_PRE_DEFINED_CURVE_FONT('continuous');
#278=COLOUR_RGB('',0.509803950786591,0.509803950786591,0.588235318660736);
#279=CARTESIAN_POINT('',(25.2171274624047,1.32922607853465E-012,9.72116635614568));
#280=VECTOR('',#386,1.0);
#281=SURFACE_SIDE_STYLE('',(#387));
#282=PRE_DEFINED_MARKER('');
#283=COLOUR_RGB('',0.509803950786591,0.509803950786591,0.588235318660736);
#284=DRAUGHTING_PRE_DEFINED_CURVE_FONT('continuous');
#285=COLOUR_RGB('',0.509803950786591,0.509803950786591,0.588235318660736);
#286=AXIS2_PLACEMENT_3D('',#388,#389,#390);
#287=SURFACE_SIDE_STYLE('',(#391));
#288=EDGE_LOOP('',(#392,#393));
#289=EDGE_LOOP('',(#394,#395));
#290=AXIS2_PLACEMENT_3D('',#396,#397,#398);
#291=SURFACE_SIDE_STYLE('',(#399));
#292=EDGE_LOOP('',(#400,#401,#402,#403));
#293=AXIS2_PLACEMENT_3D('',#404,#405,#406);
#294=PRE_DEFINED_MARKER('');
#295=COLOUR_RGB('',0.509803950786591,0.509803950786591,0.588235318660736);
#296=SURFACE_SIDE_STYLE('',(#407));
#297=EDGE_LOOP('',(#408,#409,#410,#411));
#298=AXIS2_PLACEMENT_3D('',#412,#413,#414);
#299=DRAUGHTING_PRE_DEFINED_CURVE_FONT('continuous');
#300=COLOUR_RGB('',0.509803950786591,0.509803950786591,0.588235318660736);
#301=CARTESIAN_POINT('',(3.00000000000001,4.75984270708152E-015,4.59807621135326));
#302=VECTOR('',#415,1.0);
#303=PRE_DEFINED_MARKER('');
#304=COLOUR_RGB('',0.509803950786591,0.509803950786591,0.588235318660736);
#305=PRE_DEFINED_MARKER('');
#306=COLOUR_RGB('',0.509803950786591,0.509803950786591,0.588235318660736);
#307=PRE_DEFINED_MARKER('');
#308=COLOUR_RGB('',0.509803950786591,0.509803950786591,0.588235318660736);
#309=SURFACE_SIDE_STYLE('',(#416));
#310=EDGE_LOOP('',(#417,#418,#419,#420,#421,#422));
#311=AXIS2_PLACEMENT_3D('',#423,#424,#425);
#312=DRAUGHTING_PRE_DEFINED_CURVE_FONT('continuous');
#313=COLOUR_RGB('',0.509803950786591,0.509803950786591,0.588235318660736);
#314=AXIS2_PLACEMENT_3D('',#426,#427,#428);
#315=DRAUGHTING_PRE_DEFINED_CURVE_FONT('continuous');
#316=COLOUR_RGB('',0.509803950786591,0.509803950786591,0.588235318660736);
#317=AXIS2_PLACEMENT_3D('',#429,#430,#431);
#318=DRAUGHTING_PRE_DEFINED_CURVE_FONT('continuous');
#319=COLOUR_RGB('',0.509803950786591,0.509803950786591,0.588235318660736);
#320=AXIS2_PLACEMENT_3D('',#432,#433,#434);
#321=DRAUGHTING_PRE_DEFINED_CURVE_FONT('continuous');
#322=COLOUR_RGB('',0.509803950786591,0.509803950786591,0.588235318660736);
#323=AXIS2_PLACEMENT_3D('',#435,#436,#437);
#324=PRE_DEFINED_MARKER('');
#325=COLOUR_RGB('',0.509803950786591,0.509803950786591,0.588235318660736);
#326=DRAUGHTING_PRE_DEFINED_CURVE_FONT('continuous');
#327=COLOUR_RGB('',0.509803950786591,0.509803950786591,0.588235318660736);
#328=CARTESIAN_POINT('',(22.9949352106841,-1.1833460756706E-012,15.826589389435));
#329=VECTOR('',#438,1.0);
#330=PRE_DEFINED_MARKER('');
#331=COLOUR_RGB('',0.509803950786591,0.509803950786591,0.588235318660736);
#332=DRAUGHTING_PRE_DEFINED_CURVE_FONT('continuous');
#333=COLOUR_RGB('',0.509803950786591,0.509803950786591,0.588235318660736);
#334=AXIS2_PLACEMENT_3D('',#439,#440,#441);
#335=SURFACE_SIDE_STYLE('',(#442));
#336=EDGE_LOOP('',(#443,#444,#445,#446));
#337=AXIS2_PLACEMENT_3D('',#447,#448,#449);
#338=DRAUGHTING_PRE_DEFINED_CURVE_FONT('continuous');
#339=COLOUR_RGB('',0.509803950786591,0.509803950786591,0.588235318660736);
#340=AXIS2_PLACEMENT_3D('',#450,#451,#452);
#341=DRAUGHTING_PRE_DEFINED_CURVE_FONT('continuous');
#342=COLOUR_RGB('',0.509803950786591,0.509803950786591,0.588235318660736);
#343=AXIS2_PLACEMENT_3D('',#453,#454,#455);
#344=DRAUGHTING_PRE_DEFINED_CURVE_FONT('continuous');
#345=COLOUR_RGB('',0.509803950786591,0.509803950786591,0.588235318660736);
#346=AXIS2_PLACEMENT_3D('',#456,#457,#458);
#347=SURFACE_SIDE_STYLE('',(#459));
#348=EDGE_LOOP('',(#460,#461,#462,#463,#464,#465));
#349=AXIS2_PLACEMENT_3D('',#466,#467,#468);
#350=DRAUGHTING_PRE_DEFINED_CURVE_FONT('continuous');
#351=COLOUR_RGB('',0.509803950786591,0.509803950786591,0.588235318660736);
#352=AXIS2_PLACEMENT_3D('',#469,#470,#471);
#353=DRAUGHTING_PRE_DEFINED_CURVE_FONT('continuous');
#354=COLOUR_RGB('',0.509803950786591,0.509803950786591,0.588235318660736);
#355=AXIS2_PLACEMENT_3D('',#472,#473,#474);
#356=DRAUGHTING_PRE_DEFINED_CURVE_FONT('continuous');
#357=COLOUR_RGB('',0.509803950786591,0.509803950786591,0.588235318660736);
#358=AXIS2_PLACEMENT_3D('',#475,#476,#477);
#359=SURFACE_SIDE_STYLE('',(#478));
#360=EDGE_LOOP('',(#479,#480,#481));
#361=AXIS2_PLACEMENT_3D('',#482,#483,#484);
#362=SURFACE_SIDE_STYLE('',(#485));
#363=EDGE_LOOP('',(#486,#487,#488));
#364=AXIS2_PLACEMENT_3D('',#489,#490,#491);
#365=PRE_DEFINED_MARKER('');
#366=COLOUR_RGB('',0.509803950786591,0.509803950786591,0.588235318660736);
#368=DIRECTION('',(-0.0,-0.0,1.0));
#369=CARTESIAN_POINT('',(3.89623284646704E-032,4.08350745663753E-015,3.99999999999994));
#370=DIRECTION('',(-2.44921270764475E-016,1.0,0.0));
#371=DIRECTION('',(0.0,0.0,-1.0));
#372=CARTESIAN_POINT('',(0.0,4.40166952025133E-015,-5.6843418860808E-014));
#373=DIRECTION('',(0.0,0.0,-1.0));
#374=DIRECTION('',(1.0,-3.06957310550819E-018,0.0));
#375=SURFACE_STYLE_FILL_AREA(#492);
#376=ORIENTED_EDGE('',*,*,#96,.F.);
#377=ORIENTED_EDGE('',*,*,#134,.F.);
#378=ORIENTED_EDGE('',*,*,#66,.F.);
#379=ORIENTED_EDGE('',*,*,#132,.T.);
#380=CARTESIAN_POINT('',(0.0,4.40166952025133E-015,4.59807621135326));
#381=DIRECTION('',(-0.0,-0.0,1.0));
#382=DIRECTION('',(1.0,-3.06957310550819E-018,0.0));
#383=CARTESIAN_POINT('',(0.0,4.40166952025133E-015,3.5527136788005E-015));
#384=DIRECTION('',(0.0,0.0,-1.0));
#385=DIRECTION('',(1.0,-3.06957310550819E-018,0.0));
#386=DIRECTION('',(-0.951715492299361,-1.45974786244018E-014,-0.306981468035752));
#387=SURFACE_STYLE_FILL_AREA(#493);
#388=CARTESIAN_POINT('',(3.89623284646704E-032,4.08350745663753E-015,3.99999999999994));
#389=DIRECTION('',(-2.44921270764475E-016,1.0,0.0));
#390=DIRECTION('',(0.0,0.0,-1.0));
#391=SURFACE_STYLE_FILL_AREA(#494);
#392=ORIENTED_EDGE('',*,*,#70,.F.);
#393=ORIENTED_EDGE('',*,*,#132,.F.);
#394=ORIENTED_EDGE('',*,*,#78,.T.);
#395=ORIENTED_EDGE('',*,*,#110,.T.);
#396=CARTESIAN_POINT('',(3.73606797749983,4.29610744422891E-015,-2.66453525910038E-014));
#397=DIRECTION('',(0.0,0.0,-1.0));
#398=DIRECTION('',(1.0,1.22460635382238E-016,0.0));
#399=SURFACE_STYLE_FILL_AREA(#495);
#400=ORIENTED_EDGE('',*,*,#116,.T.);
#401=ORIENTED_EDGE('',*,*,#112,.F.);
#402=ORIENTED_EDGE('',*,*,#80,.T.);
#403=ORIENTED_EDGE('',*,*,#124,.F.);
#404=CARTESIAN_POINT('',(24.1060313365444,7.29400014320246E-014,12.7738778727903));
#405=DIRECTION('',(0.939692620785909,2.74732559116508E-016,0.342020143325668));
#406=DIRECTION('',(-0.342020143325668,-3.86835305859279E-013,0.939692620785909));
#407=SURFACE_STYLE_FILL_AREA(#496);
#408=ORIENTED_EDGE('',*,*,#116,.F.);
#409=ORIENTED_EDGE('',*,*,#128,.F.);
#410=ORIENTED_EDGE('',*,*,#80,.F.);
#411=ORIENTED_EDGE('',*,*,#106,.F.);
#412=CARTESIAN_POINT('',(24.1060313365444,7.29400014320246E-014,12.7738778727903));
#413=DIRECTION('',(0.939692620785909,2.74732559116508E-016,0.342020143325668));
#414=DIRECTION('',(-0.342020143325668,-3.86835305859279E-013,0.939692620785909));
#415=DIRECTION('',(-0.0,-0.0,-1.0));
#416=SURFACE_STYLE_FILL_AREA(#497);
#417=ORIENTED_EDGE('',*,*,#68,.F.);
#418=ORIENTED_EDGE('',*,*,#126,.T.);
#419=ORIENTED_EDGE('',*,*,#108,.F.);
#420=ORIENTED_EDGE('',*,*,#78,.F.);
#421=ORIENTED_EDGE('',*,*,#86,.F.);
#422=ORIENTED_EDGE('',*,*,#128,.T.);
#423=CARTESIAN_POINT('',(3.89623284646704E-032,4.08350745663753E-015,3.99999999999994));
#424=DIRECTION('',(0.0,0.0,-1.0));
#425=DIRECTION('',(1.0,1.22460635382238E-016,0.0));
#426=CARTESIAN_POINT('',(43.0866445348883,7.84892547966196E-014,19.6822561051077));
#427=DIRECTION('',(0.939692620785909,2.74732559116465E-016,0.342020143325668));
#428=DIRECTION('',(-0.342020143325668,-3.86835305859279E-013,0.939692620785909));
#429=CARTESIAN_POINT('',(3.89623284646704E-032,4.08350745663753E-015,3.99999999999994));
#430=DIRECTION('',(-2.44921270764475E-016,1.0,0.0));
#431=DIRECTION('',(0.0,0.0,-1.0));
#432=CARTESIAN_POINT('',(0.0,4.40166952025133E-015,3.5527136788005E-015));
#433=DIRECTION('',(0.0,0.0,-1.0));
#434=DIRECTION('',(1.0,-3.06957310550819E-018,0.0));
#435=CARTESIAN_POINT('',(43.0866445348883,7.84892547966196E-014,19.6822561051077));
#436=DIRECTION('',(0.939692620785909,2.74732559116465E-016,0.342020143325668));
#437=DIRECTION('',(-0.342020143325668,-3.86835305859279E-013,0.939692620785909));
#438=DIRECTION('',(0.926380248362934,-1.40483905101774E-014,0.376589478667459));
#439=CARTESIAN_POINT('',(43.2258605561517,7.57133619750373E-014,19.7329265929806));
#440=DIRECTION('',(-1.54717105586515E-016,1.0,-3.78182511210545E-016));
#441=DIRECTION('',(0.0,-3.78182511210545E-016,-1.0));
#442=SURFACE_STYLE_FILL_AREA(#498);
#443=ORIENTED_EDGE('',*,*,#96,.T.);
#444=ORIENTED_EDGE('',*,*,#70,.T.);
#445=ORIENTED_EDGE('',*,*,#66,.T.);
#446=ORIENTED_EDGE('',*,*,#126,.F.);
#447=CARTESIAN_POINT('',(0.0,4.40166952025133E-015,4.59807621135326));
#448=DIRECTION('',(-0.0,-0.0,1.0));
#449=DIRECTION('',(1.0,-3.06957310550819E-018,0.0));
#450=CARTESIAN_POINT('',(5.12541813820046,5.581996654597E-015,5.865499640473));
#451=DIRECTION('',(-0.939692620785909,-2.74732559116494E-016,-0.342020143325668));
#452=DIRECTION('',(0.342020143325668,0.0,-0.939692620785909));
#453=CARTESIAN_POINT('',(0.0,4.40166952025133E-015,9.19615242270658));
#454=DIRECTION('',(0.0,0.0,-1.0));
#455=DIRECTION('',(1.0,-3.06957310550817E-018,0.0));
#456=CARTESIAN_POINT('',(5.12541813820046,5.581996654597E-015,5.865499640473));
#457=DIRECTION('',(-0.939692620785909,-2.74732559116494E-016,-0.342020143325668));
#458=DIRECTION('',(0.342020143325668,0.0,-0.939692620785909));
#459=SURFACE_STYLE_FILL_AREA(#499);
#460=ORIENTED_EDGE('',*,*,#68,.T.);
#461=ORIENTED_EDGE('',*,*,#124,.T.);
#462=ORIENTED_EDGE('',*,*,#86,.T.);
#463=ORIENTED_EDGE('',*,*,#110,.F.);
#464=ORIENTED_EDGE('',*,*,#108,.T.);
#465=ORIENTED_EDGE('',*,*,#134,.T.);
#466=CARTESIAN_POINT('',(3.89623284646704E-032,4.08350745663753E-015,3.99999999999994));
#467=DIRECTION('',(0.0,0.0,-1.0));
#468=DIRECTION('',(1.0,1.22460635382238E-016,0.0));
#469=CARTESIAN_POINT('',(0.0,4.40166952025133E-015,-5.6843418860808E-014));
#470=DIRECTION('',(0.0,0.0,-1.0));
#471=DIRECTION('',(1.0,-3.06957310550819E-018,0.0));
#472=CARTESIAN_POINT('',(0.0,4.40166952025133E-015,9.19615242270658));
#473=DIRECTION('',(0.0,0.0,-1.0));
#474=DIRECTION('',(1.0,-3.06957310550817E-018,0.0));
#475=CARTESIAN_POINT('',(43.2258605561517,7.57133619750373E-014,19.7329265929806));
#476=DIRECTION('',(-1.54717105586515E-016,1.0,-3.78182511210545E-016));
#477=DIRECTION('',(0.0,-3.78182511210545E-016,-1.0));
#478=SURFACE_STYLE_FILL_AREA(#500);
#479=ORIENTED_EDGE('',*,*,#136,.T.);
#480=ORIENTED_EDGE('',*,*,#120,.T.);
#481=ORIENTED_EDGE('',*,*,#112,.T.);
#482=CARTESIAN_POINT('',(43.2258605561517,7.57133619750373E-014,19.7329265929806));
#483=DIRECTION('',(0.939692620785909,2.74732559116494E-016,0.342020143325668));
#484=DIRECTION('',(-0.342020143325668,1.79998313084964E-016,0.939692620785909));
#485=SURFACE_STYLE_FILL_AREA(#501);
#486=ORIENTED_EDGE('',*,*,#136,.F.);
#487=ORIENTED_EDGE('',*,*,#106,.T.);
#488=ORIENTED_EDGE('',*,*,#120,.F.);
#489=CARTESIAN_POINT('',(43.2258605561517,7.57133619750373E-014,19.7329265929806));
#490=DIRECTION('',(0.939692620785909,2.74732559116494E-016,0.342020143325668));
#491=DIRECTION('',(-0.342020143325668,1.79998313084964E-016,0.939692620785909));
#492=FILL_AREA_STYLE('',(#502));
#493=FILL_AREA_STYLE('',(#503));
#494=FILL_AREA_STYLE('',(#504));
#495=FILL_AREA_STYLE('',(#505));
#496=FILL_AREA_STYLE('',(#506));
#497=FILL_AREA_STYLE('',(#507));
#498=FILL_AREA_STYLE('',(#508));
#499=FILL_AREA_STYLE('',(#509));
#500=FILL_AREA_STYLE('',(#510));
#501=FILL_AREA_STYLE('',(#511));
#502=FILL_AREA_STYLE_COLOUR('',#512);
#503=FILL_AREA_STYLE_COLOUR('',#513);
#504=FILL_AREA_STYLE_COLOUR('',#514);
#505=FILL_AREA_STYLE_COLOUR('',#515);
#506=FILL_AREA_STYLE_COLOUR('',#516);
#507=FILL_AREA_STYLE_COLOUR('',#517);
#508=FILL_AREA_STYLE_COLOUR('',#518);
#509=FILL_AREA_STYLE_COLOUR('',#519);
#510=FILL_AREA_STYLE_COLOUR('',#520);
#511=FILL_AREA_STYLE_COLOUR('',#521);
#512=COLOUR_RGB('',0.509803950786591,0.509803950786591,0.588235318660736);
#513=COLOUR_RGB('',0.509803950786591,0.509803950786591,0.588235318660736);
#514=COLOUR_RGB('',0.509803950786591,0.509803950786591,0.588235318660736);
#515=COLOUR_RGB('',0.509803950786591,0.509803950786591,0.588235318660736);
#516=COLOUR_RGB('',0.509803950786591,0.509803950786591,0.588235318660736);
#517=COLOUR_RGB('',0.509803950786591,0.509803950786591,0.588235318660736);
#518=COLOUR_RGB('',0.509803950786591,0.509803950786591,0.588235318660736);
#519=COLOUR_RGB('',0.509803950786591,0.509803950786591,0.588235318660736);
#520=COLOUR_RGB('',0.509803950786591,0.509803950786591,0.588235318660736);
#521=COLOUR_RGB('',0.509803950786591,0.509803950786591,0.588235318660736);
ENDSEC;
END-ISO-10303-21;
