ISO-10303-21;
HEADER;
FILE_DESCRIPTION(('STEP AP214'),'1');
FILE_NAME(' ','  ',('TraceParts'),('TraceParts S.A.'),'XStep 1.0',' ',' ');
FILE_SCHEMA(('automotive_design'));
ENDSEC;
DATA;
#1=PRODUCT_DEFINITION_CONTEXT('',#9,'design');
#2=APPLICATION_PROTOCOL_DEFINITION('INTERNATIONAL STANDARD','automotive_design',1994,#9);
#3=PRODUCT_CATEGORY_RELATIONSHIP('NONE','NONE',#10,#11);
#4=SHAPE_DEFINITION_REPRESENTATION(#12,#13);
#5= (GEOMETRIC_REPRESENTATION_CONTEXT(3)GLOBAL_UNCERTAINTY_ASSIGNED_CONTEXT((#16))GLOBAL_UNIT_ASSIGNED_CONTEXT((#18,#19,#20))REPRESENTATION_CONTEXT('NONE','WORKSPACE'));
#9=APPLICATION_CONTEXT(' ');
#10=PRODUCT_CATEGORY('part','NONE');
#11=PRODUCT_RELATED_PRODUCT_CATEGORY('detail',' ',(#22));
#12=PRODUCT_DEFINITION_SHAPE('NONE','NONE',#23);
#13=ADVANCED_BREP_SHAPE_REPRESENTATION('1',(#24,#25),#5);
#16=UNCERTAINTY_MEASURE_WITH_UNIT(LENGTH_MEASURE(1.0E-006),#18,'','');
#18= (CONVERSION_BASED_UNIT('MILLIMETRE',#28)LENGTH_UNIT()NAMED_UNIT(#31));
#19= (NAMED_UNIT(#33)PLANE_ANGLE_UNIT()SI_UNIT($,.RADIAN.));
#20= (NAMED_UNIT(#33)SOLID_ANGLE_UNIT()SI_UNIT($,.STERADIAN.));
#22=PRODUCT('1','1','PART-1-DESC',(#39));
#23=PRODUCT_DEFINITION('NONE','NONE',#40,#1);
#24=MANIFOLD_SOLID_BREP('1',#41);
#25=AXIS2_PLACEMENT_3D('',#42,#43,#44);
#28=LENGTH_MEASURE_WITH_UNIT(LENGTH_MEASURE(1.0),#45);
#31=DIMENSIONAL_EXPONENTS(1.0,0.0,0.0,0.0,0.0,0.0,0.0);
#33=DIMENSIONAL_EXPONENTS(0.0,0.0,0.0,0.0,0.0,0.0,0.0);
#39=PRODUCT_CONTEXT('',#9,'mechanical');
#40=PRODUCT_DEFINITION_FORMATION_WITH_SPECIFIED_SOURCE(' ','NONE',#22,.NOT_KNOWN.);
#41=CLOSED_SHELL('',(#46,#47,#48,#49,#50,#51,#52,#53,#54,#55,#56,#57,#58,#59,#60,#61,#62,#63,#64));
#42=CARTESIAN_POINT('',(0.0,0.0,0.0));
#43=DIRECTION('',(0.0,0.0,1.0));
#44=DIRECTION('',(1.0,0.0,0.0));
#45= (NAMED_UNIT(#31)LENGTH_UNIT()SI_UNIT(.MILLI.,.METRE.));
#46=ADVANCED_FACE('',(#66),#67,.T.);
#47=ADVANCED_FACE('',(#68),#69,.T.);
#48=ADVANCED_FACE('',(#70),#71,.T.);
#49=ADVANCED_FACE('',(#72),#73,.T.);
#50=ADVANCED_FACE('',(#74),#75,.T.);
#51=ADVANCED_FACE('',(#76),#77,.T.);
#52=ADVANCED_FACE('',(#78),#79,.T.);
#53=ADVANCED_FACE('',(#80),#81,.T.);
#54=ADVANCED_FACE('',(#82),#83,.T.);
#55=ADVANCED_FACE('',(#84),#85,.T.);
#56=ADVANCED_FACE('',(#86),#87,.T.);
#57=ADVANCED_FACE('',(#88),#89,.T.);
#58=ADVANCED_FACE('',(#90),#91,.T.);
#59=ADVANCED_FACE('',(#92),#93,.T.);
#60=ADVANCED_FACE('',(#94),#95,.T.);
#61=ADVANCED_FACE('',(#96),#97,.T.);
#62=ADVANCED_FACE('',(#98,#99),#100,.T.);
#63=ADVANCED_FACE('',(#101),#102,.T.);
#64=ADVANCED_FACE('',(#103,#104),#105,.T.);
#66=FACE_OUTER_BOUND('',#106,.T.);
#67=CYLINDRICAL_SURFACE('',#107,8.0);
#68=FACE_OUTER_BOUND('',#108,.T.);
#69=TOROIDAL_SURFACE('',#109,11.0570289593059,0.5);
#70=FACE_OUTER_BOUND('',#110,.T.);
#71=CONICAL_SURFACE('',#111,12.7775631541759,0.0872664625997161);
#72=FACE_OUTER_BOUND('',#112,.T.);
#73=CYLINDRICAL_SURFACE('',#113,14.0);
#74=FACE_OUTER_BOUND('',#114,.T.);
#75=TOROIDAL_SURFACE('',#115,13.5,0.5);
#76=FACE_OUTER_BOUND('',#116,.T.);
#77=SPHERICAL_SURFACE('',#117,84.0);
#78=FACE_OUTER_BOUND('',#118,.T.);
#79=CONICAL_SURFACE('',#119,6.45875000000001,0.785398163397448);
#80=FACE_OUTER_BOUND('',#120,.T.);
#81=CYLINDRICAL_SURFACE('',#121,7.00000000000001);
#82=FACE_OUTER_BOUND('',#122,.T.);
#83=CYLINDRICAL_SURFACE('',#123,7.00000000000001);
#84=FACE_OUTER_BOUND('',#124,.T.);
#85=CONICAL_SURFACE('',#125,6.45875000000001,0.785398163397448);
#86=FACE_OUTER_BOUND('',#126,.T.);
#87=PLANE('',#127);
#88=FACE_OUTER_BOUND('',#128,.T.);
#89=SPHERICAL_SURFACE('',#129,84.0);
#90=FACE_OUTER_BOUND('',#130,.T.);
#91=TOROIDAL_SURFACE('',#131,13.5,0.5);
#92=FACE_OUTER_BOUND('',#132,.T.);
#93=CYLINDRICAL_SURFACE('',#133,14.0);
#94=FACE_OUTER_BOUND('',#134,.T.);
#95=CONICAL_SURFACE('',#135,12.7775631541759,0.0872664625997161);
#96=FACE_OUTER_BOUND('',#136,.T.);
#97=TOROIDAL_SURFACE('',#137,11.0570289593059,0.5);
#98=FACE_BOUND('',#138,.T.);
#99=FACE_OUTER_BOUND('',#139,.T.);
#100=PLANE('',#140);
#101=FACE_OUTER_BOUND('',#141,.T.);
#102=CYLINDRICAL_SURFACE('',#142,8.0);
#103=FACE_BOUND('',#143,.T.);
#104=FACE_OUTER_BOUND('',#144,.T.);
#105=PLANE('',#145);
#106=EDGE_LOOP('',(#146,#147,#148,#149));
#107=AXIS2_PLACEMENT_3D('',#150,#151,#152);
#108=EDGE_LOOP('',(#153,#154,#155,#156,#157,#158));
#109=AXIS2_PLACEMENT_3D('',#159,#160,#161);
#110=EDGE_LOOP('',(#162,#163,#164,#165,#166));
#111=AXIS2_PLACEMENT_3D('',#167,#168,#169);
#112=EDGE_LOOP('',(#170,#171,#172,#173,#174));
#113=AXIS2_PLACEMENT_3D('',#175,#176,#177);
#114=EDGE_LOOP('',(#178,#179,#180,#181,#182,#183));
#115=AXIS2_PLACEMENT_3D('',#184,#185,#186);
#116=EDGE_LOOP('',(#187,#188,#189));
#117=AXIS2_PLACEMENT_3D('',#190,#191,#192);
#118=EDGE_LOOP('',(#193,#194,#195,#196));
#119=AXIS2_PLACEMENT_3D('',#197,#198,#199);
#120=EDGE_LOOP('',(#200,#201,#202,#203));
#121=AXIS2_PLACEMENT_3D('',#204,#205,#206);
#122=EDGE_LOOP('',(#207,#208,#209,#210));
#123=AXIS2_PLACEMENT_3D('',#211,#212,#213);
#124=EDGE_LOOP('',(#214,#215,#216,#217));
#125=AXIS2_PLACEMENT_3D('',#218,#219,#220);
#126=EDGE_LOOP('',(#221,#222));
#127=AXIS2_PLACEMENT_3D('',#223,#224,#225);
#128=EDGE_LOOP('',(#226,#227));
#129=AXIS2_PLACEMENT_3D('',#228,#229,#230);
#130=EDGE_LOOP('',(#231,#232,#233,#234,#235));
#131=AXIS2_PLACEMENT_3D('',#236,#237,#238);
#132=EDGE_LOOP('',(#239,#240,#241,#242,#243));
#133=AXIS2_PLACEMENT_3D('',#244,#245,#246);
#134=EDGE_LOOP('',(#247,#248,#249,#250,#251));
#135=AXIS2_PLACEMENT_3D('',#252,#253,#254);
#136=EDGE_LOOP('',(#255,#256,#257,#258,#259));
#137=AXIS2_PLACEMENT_3D('',#260,#261,#262);
#138=EDGE_LOOP('',(#263,#264));
#139=EDGE_LOOP('',(#265,#266,#267));
#140=AXIS2_PLACEMENT_3D('',#268,#269,#270);
#141=EDGE_LOOP('',(#271,#272,#273,#274));
#142=AXIS2_PLACEMENT_3D('',#275,#276,#277);
#143=EDGE_LOOP('',(#278,#279));
#144=EDGE_LOOP('',(#280,#281));
#145=AXIS2_PLACEMENT_3D('',#282,#283,#284);
#146=ORIENTED_EDGE('',*,*,#285,.F.);
#147=ORIENTED_EDGE('',*,*,#286,.T.);
#148=ORIENTED_EDGE('',*,*,#287,.F.);
#149=ORIENTED_EDGE('',*,*,#288,.F.);
#150=CARTESIAN_POINT('',(-35.0,-8.65586491859444E-033,0.0));
#151=DIRECTION('',(-1.0,6.92469193487555E-035,-0.0));
#152=DIRECTION('',(6.92469193487555E-035,1.0,0.0));
#153=ORIENTED_EDGE('',*,*,#289,.F.);
#154=ORIENTED_EDGE('',*,*,#290,.T.);
#155=ORIENTED_EDGE('',*,*,#291,.T.);
#156=ORIENTED_EDGE('',*,*,#292,.F.);
#157=ORIENTED_EDGE('',*,*,#293,.F.);
#158=ORIENTED_EDGE('',*,*,#294,.F.);
#159=CARTESIAN_POINT('',(-70.5,0.0,0.0));
#160=DIRECTION('',(1.0,-6.92469193487555E-035,0.0));
#161=DIRECTION('',(0.0,0.0,-1.0));
#162=ORIENTED_EDGE('',*,*,#295,.F.);
#163=ORIENTED_EDGE('',*,*,#296,.T.);
#164=ORIENTED_EDGE('',*,*,#297,.F.);
#165=ORIENTED_EDGE('',*,*,#298,.F.);
#166=ORIENTED_EDGE('',*,*,#291,.F.);
#167=CARTESIAN_POINT('',(-84.4289392132184,-5.23306315140217E-033,0.0));
#168=DIRECTION('',(-1.0,6.92469193487555E-035,-0.0));
#169=DIRECTION('',(6.92469193487555E-035,1.0,0.0));
#170=ORIENTED_EDGE('',*,*,#299,.F.);
#171=ORIENTED_EDGE('',*,*,#300,.T.);
#172=ORIENTED_EDGE('',*,*,#301,.T.);
#173=ORIENTED_EDGE('',*,*,#302,.F.);
#174=ORIENTED_EDGE('',*,*,#296,.F.);
#175=CARTESIAN_POINT('',(-128.401456297811,-2.18810180728363E-033,0.0));
#176=DIRECTION('',(-1.0,6.92469193487555E-035,-0.0));
#177=DIRECTION('',(6.92469193487555E-035,1.0,0.0));
#178=ORIENTED_EDGE('',*,*,#303,.F.);
#179=ORIENTED_EDGE('',*,*,#304,.T.);
#180=ORIENTED_EDGE('',*,*,#305,.T.);
#181=ORIENTED_EDGE('',*,*,#306,.F.);
#182=ORIENTED_EDGE('',*,*,#300,.F.);
#183=ORIENTED_EDGE('',*,*,#307,.F.);
#184=CARTESIAN_POINT('',(-158.401456297811,0.0,0.0));
#185=DIRECTION('',(1.0,-6.92469193487555E-035,0.0));
#186=DIRECTION('',(0.0,0.0,-1.0));
#187=ORIENTED_EDGE('',*,*,#308,.F.);
#188=ORIENTED_EDGE('',*,*,#305,.F.);
#189=ORIENTED_EDGE('',*,*,#304,.F.);
#190=CARTESIAN_POINT('',(-76.0,3.50324616081204E-045,0.0));
#191=DIRECTION('',(0.0,0.0,1.0));
#192=DIRECTION('',(1.0,0.0,0.0));
#193=ORIENTED_EDGE('',*,*,#309,.F.);
#194=ORIENTED_EDGE('',*,*,#310,.T.);
#195=ORIENTED_EDGE('',*,*,#311,.F.);
#196=ORIENTED_EDGE('',*,*,#312,.F.);
#197=CARTESIAN_POINT('',(17.45875,-1.2288471748981E-032,0.0));
#198=DIRECTION('',(-1.0,6.92469193487555E-035,-0.0));
#199=DIRECTION('',(6.92469193487555E-035,1.0,0.0));
#200=ORIENTED_EDGE('',*,*,#313,.F.);
#201=ORIENTED_EDGE('',*,*,#314,.T.);
#202=ORIENTED_EDGE('',*,*,#315,.F.);
#203=ORIENTED_EDGE('',*,*,#310,.F.);
#204=CARTESIAN_POINT('',(8.45875,-1.16652494748422E-032,0.0));
#205=DIRECTION('',(-1.0,6.92469193487555E-035,-0.0));
#206=DIRECTION('',(6.92469193487555E-035,1.0,0.0));
#207=ORIENTED_EDGE('',*,*,#313,.T.);
#208=ORIENTED_EDGE('',*,*,#316,.F.);
#209=ORIENTED_EDGE('',*,*,#315,.T.);
#210=ORIENTED_EDGE('',*,*,#317,.T.);
#211=CARTESIAN_POINT('',(8.45875,-1.16652494748422E-032,0.0));
#212=DIRECTION('',(-1.0,6.92469193487555E-035,-0.0));
#213=DIRECTION('',(6.92469193487555E-035,1.0,0.0));
#214=ORIENTED_EDGE('',*,*,#309,.T.);
#215=ORIENTED_EDGE('',*,*,#318,.F.);
#216=ORIENTED_EDGE('',*,*,#311,.T.);
#217=ORIENTED_EDGE('',*,*,#316,.T.);
#218=CARTESIAN_POINT('',(17.45875,-1.2288471748981E-032,0.0));
#219=DIRECTION('',(-1.0,6.92469193487555E-035,-0.0));
#220=DIRECTION('',(6.92469193487555E-035,1.0,0.0));
#221=ORIENTED_EDGE('',*,*,#312,.T.);
#222=ORIENTED_EDGE('',*,*,#318,.T.);
#223=CARTESIAN_POINT('',(18.0,2.95875,0.0));
#224=DIRECTION('',(1.0,-6.92469193487555E-035,0.0));
#225=DIRECTION('',(0.0,0.0,-1.0));
#226=ORIENTED_EDGE('',*,*,#308,.T.);
#227=ORIENTED_EDGE('',*,*,#319,.F.);
#228=CARTESIAN_POINT('',(-76.0,3.50324616081204E-045,0.0));
#229=DIRECTION('',(0.0,0.0,1.0));
#230=DIRECTION('',(1.0,0.0,0.0));
#231=ORIENTED_EDGE('',*,*,#303,.T.);
#232=ORIENTED_EDGE('',*,*,#320,.F.);
#233=ORIENTED_EDGE('',*,*,#301,.F.);
#234=ORIENTED_EDGE('',*,*,#306,.T.);
#235=ORIENTED_EDGE('',*,*,#319,.T.);
#236=CARTESIAN_POINT('',(-158.401456297811,0.0,0.0));
#237=DIRECTION('',(1.0,-6.92469193487555E-035,0.0));
#238=DIRECTION('',(0.0,0.0,-1.0));
#239=ORIENTED_EDGE('',*,*,#299,.T.);
#240=ORIENTED_EDGE('',*,*,#321,.F.);
#241=ORIENTED_EDGE('',*,*,#302,.T.);
#242=ORIENTED_EDGE('',*,*,#320,.T.);
#243=ORIENTED_EDGE('',*,*,#307,.T.);
#244=CARTESIAN_POINT('',(-128.401456297811,-2.18810180728363E-033,0.0));
#245=DIRECTION('',(-1.0,6.92469193487555E-035,-0.0));
#246=DIRECTION('',(6.92469193487555E-035,1.0,0.0));
#247=ORIENTED_EDGE('',*,*,#295,.T.);
#248=ORIENTED_EDGE('',*,*,#290,.F.);
#249=ORIENTED_EDGE('',*,*,#322,.F.);
#250=ORIENTED_EDGE('',*,*,#297,.T.);
#251=ORIENTED_EDGE('',*,*,#321,.T.);
#252=CARTESIAN_POINT('',(-84.4289392132184,-5.23306315140217E-033,0.0));
#253=DIRECTION('',(-1.0,6.92469193487555E-035,-0.0));
#254=DIRECTION('',(6.92469193487555E-035,1.0,0.0));
#255=ORIENTED_EDGE('',*,*,#289,.T.);
#256=ORIENTED_EDGE('',*,*,#323,.F.);
#257=ORIENTED_EDGE('',*,*,#292,.T.);
#258=ORIENTED_EDGE('',*,*,#298,.T.);
#259=ORIENTED_EDGE('',*,*,#322,.T.);
#260=CARTESIAN_POINT('',(-70.5,0.0,0.0));
#261=DIRECTION('',(1.0,-6.92469193487555E-035,0.0));
#262=DIRECTION('',(0.0,0.0,-1.0));
#263=ORIENTED_EDGE('',*,*,#286,.F.);
#264=ORIENTED_EDGE('',*,*,#324,.F.);
#265=ORIENTED_EDGE('',*,*,#293,.T.);
#266=ORIENTED_EDGE('',*,*,#323,.T.);
#267=ORIENTED_EDGE('',*,*,#294,.T.);
#268=CARTESIAN_POINT('',(-70.0,9.52851447965294,0.0));
#269=DIRECTION('',(1.0,-6.92469193487555E-035,0.0));
#270=DIRECTION('',(0.0,0.0,-1.0));
#271=ORIENTED_EDGE('',*,*,#285,.T.);
#272=ORIENTED_EDGE('',*,*,#325,.F.);
#273=ORIENTED_EDGE('',*,*,#287,.T.);
#274=ORIENTED_EDGE('',*,*,#324,.T.);
#275=CARTESIAN_POINT('',(-35.0,-8.65586491859444E-033,0.0));
#276=DIRECTION('',(-1.0,6.92469193487555E-035,-0.0));
#277=DIRECTION('',(6.92469193487555E-035,1.0,0.0));
#278=ORIENTED_EDGE('',*,*,#314,.F.);
#279=ORIENTED_EDGE('',*,*,#317,.F.);
#280=ORIENTED_EDGE('',*,*,#288,.T.);
#281=ORIENTED_EDGE('',*,*,#325,.T.);
#282=CARTESIAN_POINT('',(3.62248550356553E-033,7.50000000000001,0.0));
#283=DIRECTION('',(1.0,-6.92469193487555E-035,0.0));
#284=DIRECTION('',(0.0,0.0,-1.0));
#285=EDGE_CURVE('',#326,#327,#328,.T.);
#286=EDGE_CURVE('',#326,#329,#330,.T.);
#287=EDGE_CURVE('',#331,#329,#332,.T.);
#288=EDGE_CURVE('',#327,#331,#333,.T.);
#289=EDGE_CURVE('',#334,#335,#336,.T.);
#290=EDGE_CURVE('',#334,#337,#338,.T.);
#291=EDGE_CURVE('',#337,#339,#340,.T.);
#292=EDGE_CURVE('',#341,#339,#342,.T.);
#293=EDGE_CURVE('',#343,#341,#344,.T.);
#294=EDGE_CURVE('',#335,#343,#345,.T.);
#295=EDGE_CURVE('',#346,#337,#347,.T.);
#296=EDGE_CURVE('',#346,#348,#349,.T.);
#297=EDGE_CURVE('',#350,#348,#351,.T.);
#298=EDGE_CURVE('',#339,#350,#352,.T.);
#299=EDGE_CURVE('',#353,#346,#354,.T.);
#300=EDGE_CURVE('',#353,#355,#356,.T.);
#301=EDGE_CURVE('',#355,#357,#358,.T.);
#302=EDGE_CURVE('',#348,#357,#359,.T.);
#303=EDGE_CURVE('',#360,#361,#362,.T.);
#304=EDGE_CURVE('',#360,#363,#364,.T.);
#305=EDGE_CURVE('',#363,#365,#366,.T.);
#306=EDGE_CURVE('',#355,#365,#367,.T.);
#307=EDGE_CURVE('',#361,#353,#368,.T.);
#308=EDGE_CURVE('',#365,#360,#369,.T.);
#309=EDGE_CURVE('',#370,#371,#372,.T.);
#310=EDGE_CURVE('',#370,#373,#374,.T.);
#311=EDGE_CURVE('',#375,#373,#376,.T.);
#312=EDGE_CURVE('',#371,#375,#377,.T.);
#313=EDGE_CURVE('',#378,#370,#379,.T.);
#314=EDGE_CURVE('',#378,#380,#381,.T.);
#315=EDGE_CURVE('',#373,#380,#382,.T.);
#316=EDGE_CURVE('',#373,#370,#383,.T.);
#317=EDGE_CURVE('',#380,#378,#384,.T.);
#318=EDGE_CURVE('',#375,#371,#385,.T.);
#319=EDGE_CURVE('',#365,#360,#386,.T.);
#320=EDGE_CURVE('',#357,#361,#387,.T.);
#321=EDGE_CURVE('',#348,#346,#388,.T.);
#322=EDGE_CURVE('',#350,#334,#389,.T.);
#323=EDGE_CURVE('',#341,#335,#390,.T.);
#324=EDGE_CURVE('',#329,#326,#391,.T.);
#325=EDGE_CURVE('',#331,#327,#392,.T.);
#326=VERTEX_POINT('',#393);
#327=VERTEX_POINT('',#394);
#328=LINE('',#395,#396);
#329=VERTEX_POINT('',#397);
#330=CIRCLE('',#398,7.99999999999999);
#331=VERTEX_POINT('',#399);
#332=LINE('',#400,#401);
#333=CIRCLE('',#402,8.00000000000001);
#334=VERTEX_POINT('',#403);
#335=VERTEX_POINT('',#404);
#336=CIRCLE('',#405,0.5);
#337=VERTEX_POINT('',#406);
#338=CIRCLE('',#407,11.5551263083518);
#339=VERTEX_POINT('',#408);
#340=CIRCLE('',#409,11.5551263083518);
#341=VERTEX_POINT('',#410);
#342=CIRCLE('',#411,0.5);
#343=VERTEX_POINT('',#412);
#344=CIRCLE('',#413,11.0570289593059);
#345=CIRCLE('',#414,11.0570289593059);
#346=VERTEX_POINT('',#415);
#347=LINE('',#416,#417);
#348=VERTEX_POINT('',#418);
#349=CIRCLE('',#419,14.0);
#350=VERTEX_POINT('',#420);
#351=LINE('',#421,#422);
#352=CIRCLE('',#423,11.5551263083518);
#353=VERTEX_POINT('',#424);
#354=LINE('',#425,#426);
#355=VERTEX_POINT('',#427);
#356=CIRCLE('',#428,14.0);
#357=VERTEX_POINT('',#429);
#358=CIRCLE('',#430,14.0);
#359=LINE('',#431,#432);
#360=VERTEX_POINT('',#433);
#361=VERTEX_POINT('',#434);
#362=CIRCLE('',#435,0.5);
#363=VERTEX_POINT('',#436);
#364=CIRCLE('',#437,13.5808383233533);
#365=VERTEX_POINT('',#438);
#366=CIRCLE('',#439,13.5808383233533);
#367=CIRCLE('',#440,0.5);
#368=CIRCLE('',#441,14.0);
#369=CIRCLE('',#442,84.0);
#370=VERTEX_POINT('',#443);
#371=VERTEX_POINT('',#444);
#372=LINE('',#445,#446);
#373=VERTEX_POINT('',#447);
#374=CIRCLE('',#448,7.00000000000001);
#375=VERTEX_POINT('',#449);
#376=LINE('',#450,#451);
#377=CIRCLE('',#452,5.91750000000001);
#378=VERTEX_POINT('',#453);
#379=LINE('',#454,#455);
#380=VERTEX_POINT('',#456);
#381=CIRCLE('',#457,7.00000000000001);
#382=LINE('',#458,#459);
#383=CIRCLE('',#460,7.00000000000001);
#384=CIRCLE('',#461,7.00000000000001);
#385=CIRCLE('',#462,5.91750000000001);
#386=CIRCLE('',#463,13.5808383233533);
#387=CIRCLE('',#464,14.0);
#388=CIRCLE('',#465,14.0);
#389=CIRCLE('',#466,11.5551263083518);
#390=CIRCLE('',#467,11.0570289593059);
#391=CIRCLE('',#468,7.99999999999999);
#392=CIRCLE('',#469,8.00000000000001);
#393=CARTESIAN_POINT('',(-70.0,7.99999999999999,0.0));
#394=CARTESIAN_POINT('',(7.24497100713106E-033,8.00000000000001,0.0));
#395=CARTESIAN_POINT('',(-35.0,8.0,-9.79685083057902E-016));
#396=VECTOR('',#470,1.0);
#397=CARTESIAN_POINT('',(-70.0,-7.99999999999999,9.79685083057901E-016));
#398=AXIS2_PLACEMENT_3D('',#471,#472,#473);
#399=CARTESIAN_POINT('',(-5.53975354790045E-034,-8.00000000000001,9.79685083057902E-016));
#400=CARTESIAN_POINT('',(-35.0,-8.0,9.79685083057902E-016));
#401=VECTOR('',#474,1.0);
#402=AXIS2_PLACEMENT_3D('',#475,#476,#477);
#403=CARTESIAN_POINT('',(-70.4564221286262,-1.41504810964277E-015,-11.5551263083518));
#404=CARTESIAN_POINT('',(-70.0,-1.3540507917964E-015,-11.0570289593059));
#405=AXIS2_PLACEMENT_3D('',#478,#479,#480);
#406=CARTESIAN_POINT('',(-70.4564221286262,11.5551263083518,0.0));
#407=AXIS2_PLACEMENT_3D('',#481,#482,#483);
#408=CARTESIAN_POINT('',(-70.4564221286262,1.41504810964277E-015,11.5551263083518));
#409=AXIS2_PLACEMENT_3D('',#484,#485,#486);
#410=CARTESIAN_POINT('',(-70.0,1.3540507917964E-015,11.0570289593059));
#411=AXIS2_PLACEMENT_3D('',#487,#488,#489);
#412=CARTESIAN_POINT('',(-70.0,11.0570289593059,0.0));
#413=AXIS2_PLACEMENT_3D('',#490,#491,#492);
#414=AXIS2_PLACEMENT_3D('',#493,#494,#495);
#415=CARTESIAN_POINT('',(-98.4014562978107,14.0,0.0));
#416=CARTESIAN_POINT('',(-84.4289392132184,12.7775631541759,-1.56474850249705E-015));
#417=VECTOR('',#496,1.0);
#418=CARTESIAN_POINT('',(-98.4014562978107,-14.0,1.71444889535133E-015));
#419=AXIS2_PLACEMENT_3D('',#497,#498,#499);
#420=CARTESIAN_POINT('',(-70.4564221286262,-11.5551263083518,1.41504810964277E-015));
#421=CARTESIAN_POINT('',(-84.4289392132184,-12.7775631541759,1.56474850249705E-015));
#422=VECTOR('',#500,1.0);
#423=AXIS2_PLACEMENT_3D('',#501,#502,#503);
#424=CARTESIAN_POINT('',(-158.401456297811,14.0,0.0));
#425=CARTESIAN_POINT('',(-128.401456297811,14.0,-1.71444889535133E-015));
#426=VECTOR('',#504,1.0);
#427=CARTESIAN_POINT('',(-158.401456297811,1.71444889535133E-015,14.0));
#428=AXIS2_PLACEMENT_3D('',#505,#506,#507);
#429=CARTESIAN_POINT('',(-158.401456297811,-14.0,1.71444889535133E-015));
#430=AXIS2_PLACEMENT_3D('',#508,#509,#510);
#431=CARTESIAN_POINT('',(-128.401456297811,-14.0,1.71444889535133E-015));
#432=VECTOR('',#511,1.0);
#433=CARTESIAN_POINT('',(-158.89487819181,1.01513594533022E-014,-13.5808383233533));
#434=CARTESIAN_POINT('',(-158.401456297811,-1.71444889535133E-015,-14.0));
#435=AXIS2_PLACEMENT_3D('',#512,#513,#514);
#436=CARTESIAN_POINT('',(-158.89487819181,13.5808383233533,0.0));
#437=AXIS2_PLACEMENT_3D('',#515,#516,#517);
#438=CARTESIAN_POINT('',(-158.89487819181,1.01513594533022E-014,13.5808383233533));
#439=AXIS2_PLACEMENT_3D('',#518,#519,#520);
#440=AXIS2_PLACEMENT_3D('',#521,#522,#523);
#441=AXIS2_PLACEMENT_3D('',#524,#525,#526);
#442=AXIS2_PLACEMENT_3D('',#527,#528,#529);
#443=CARTESIAN_POINT('',(16.9175,7.00000000000001,0.0));
#444=CARTESIAN_POINT('',(18.0,5.91750000000001,0.0));
#445=CARTESIAN_POINT('',(17.45875,6.45875000000001,-7.90942628775029E-016));
#446=VECTOR('',#530,1.0);
#447=CARTESIAN_POINT('',(16.9175,-7.00000000000001,8.57224447675665E-016));
#448=AXIS2_PLACEMENT_3D('',#531,#532,#533);
#449=CARTESIAN_POINT('',(18.0,-5.91750000000001,7.24660809874393E-016));
#450=CARTESIAN_POINT('',(17.45875,-6.45875000000001,7.90942628775029E-016));
#451=VECTOR('',#534,1.0);
#452=AXIS2_PLACEMENT_3D('',#535,#536,#537);
#453=CARTESIAN_POINT('',(0.0,7.00000000000001,0.0));
#454=CARTESIAN_POINT('',(8.45875,7.00000000000001,-8.57224447675665E-016));
#455=VECTOR('',#538,1.0);
#456=CARTESIAN_POINT('',(-4.84728435441289E-034,-7.00000000000001,8.57224447675665E-016));
#457=AXIS2_PLACEMENT_3D('',#539,#540,#541);
#458=CARTESIAN_POINT('',(8.45875,-7.00000000000001,8.57224447675665E-016));
#459=VECTOR('',#542,1.0);
#460=AXIS2_PLACEMENT_3D('',#543,#544,#545);
#461=AXIS2_PLACEMENT_3D('',#546,#547,#548);
#462=AXIS2_PLACEMENT_3D('',#549,#550,#551);
#463=AXIS2_PLACEMENT_3D('',#552,#553,#554);
#464=AXIS2_PLACEMENT_3D('',#555,#556,#557);
#465=AXIS2_PLACEMENT_3D('',#558,#559,#560);
#466=AXIS2_PLACEMENT_3D('',#561,#562,#563);
#467=AXIS2_PLACEMENT_3D('',#564,#565,#566);
#468=AXIS2_PLACEMENT_3D('',#567,#568,#569);
#469=AXIS2_PLACEMENT_3D('',#570,#571,#572);
#470=DIRECTION('',(1.0,-6.92469193487555E-035,0.0));
#471=CARTESIAN_POINT('',(-70.0,-6.232222741388E-033,0.0));
#472=DIRECTION('',(1.0,-6.92469193487555E-035,0.0));
#473=DIRECTION('',(6.92469193487555E-035,1.0,0.0));
#474=DIRECTION('',(-1.0,6.92469193487555E-035,-0.0));
#475=CARTESIAN_POINT('',(6.69099565234101E-033,-1.10795070958009E-032,0.0));
#476=DIRECTION('',(1.0,-6.92469193487555E-035,0.0));
#477=DIRECTION('',(6.92469193487555E-035,1.0,0.0));
#478=CARTESIAN_POINT('',(-70.5,-1.3540507917964E-015,-11.0570289593059));
#479=DIRECTION('',(-6.92469193487555E-035,-1.0,1.22460635382238E-016));
#480=DIRECTION('',(-8.48002174171117E-051,-1.22460635382238E-016,-1.0));
#481=CARTESIAN_POINT('',(-70.4564221286262,-6.20061691505803E-033,0.0));
#482=DIRECTION('',(1.0,-6.92469193487555E-035,0.0));
#483=DIRECTION('',(6.92469193487555E-035,1.0,0.0));
#484=CARTESIAN_POINT('',(-70.4564221286262,-6.20061691505803E-033,0.0));
#485=DIRECTION('',(1.0,-6.92469193487555E-035,0.0));
#486=DIRECTION('',(6.92469193487555E-035,1.0,0.0));
#487=CARTESIAN_POINT('',(-70.5,1.3540507917964E-015,11.0570289593059));
#488=DIRECTION('',(-6.92469193487555E-035,-1.0,1.22460635382238E-016));
#489=DIRECTION('',(8.48002174171117E-051,1.22460635382238E-016,1.0));
#490=CARTESIAN_POINT('',(-70.0,-6.232222741388E-033,0.0));
#491=DIRECTION('',(1.0,-6.92469193487555E-035,0.0));
#492=DIRECTION('',(6.92469193487555E-035,1.0,0.0));
#493=CARTESIAN_POINT('',(-70.0,-6.232222741388E-033,0.0));
#494=DIRECTION('',(1.0,-6.92469193487555E-035,0.0));
#495=DIRECTION('',(6.92469193487555E-035,1.0,0.0));
#496=DIRECTION('',(0.996194698091746,-0.0871557427476578,1.0673147634089E-017));
#497=CARTESIAN_POINT('',(-98.4014562978107,-4.2655093877463E-033,0.0));
#498=DIRECTION('',(1.0,-6.92469193487555E-035,0.0));
#499=DIRECTION('',(6.92469193487555E-035,1.0,0.0));
#500=DIRECTION('',(-0.996194698091746,-0.0871557427476578,1.0673147634089E-017));
#501=CARTESIAN_POINT('',(-70.4564221286262,-6.20061691505803E-033,0.0));
#502=DIRECTION('',(1.0,-6.92469193487555E-035,0.0));
#503=DIRECTION('',(6.92469193487555E-035,1.0,0.0));
#504=DIRECTION('',(1.0,-6.92469193487555E-035,0.0));
#505=CARTESIAN_POINT('',(-158.401456297811,-1.10694226820964E-034,0.0));
#506=DIRECTION('',(1.0,-6.92469193487555E-035,0.0));
#507=DIRECTION('',(6.92469193487555E-035,1.0,0.0));
#508=CARTESIAN_POINT('',(-158.401456297811,-1.10694226820964E-034,0.0));
#509=DIRECTION('',(1.0,-6.92469193487555E-035,0.0));
#510=DIRECTION('',(6.92469193487555E-035,1.0,0.0));
#511=DIRECTION('',(-1.0,6.92469193487555E-035,-0.0));
#512=CARTESIAN_POINT('',(-158.401456297811,-1.65321857766021E-015,-13.5));
#513=DIRECTION('',(-6.92469193487555E-035,-1.0,1.22460635382238E-016));
#514=DIRECTION('',(-8.48002174171117E-051,-1.22460635382238E-016,-1.0));
#515=CARTESIAN_POINT('',(-158.89487819181,-7.65262807223166E-035,0.0));
#516=DIRECTION('',(1.0,-6.92469193487555E-035,0.0));
#517=DIRECTION('',(6.92469193487555E-035,1.0,0.0));
#518=CARTESIAN_POINT('',(-158.89487819181,-7.65262807223166E-035,0.0));
#519=DIRECTION('',(1.0,-6.92469193487555E-035,0.0));
#520=DIRECTION('',(6.92469193487555E-035,1.0,0.0));
#521=CARTESIAN_POINT('',(-158.401456297811,1.65321857766021E-015,13.5));
#522=DIRECTION('',(-6.92469193487555E-035,-1.0,1.22460635382238E-016));
#523=DIRECTION('',(8.48002174171117E-051,1.22460635382238E-016,1.0));
#524=CARTESIAN_POINT('',(-158.401456297811,-1.10694226820964E-034,0.0));
#525=DIRECTION('',(1.0,-6.92469193487555E-035,0.0));
#526=DIRECTION('',(6.92469193487555E-035,1.0,0.0));
#527=CARTESIAN_POINT('',(-76.0,3.50324616081204E-045,0.0));
#528=DIRECTION('',(-1.22460635382238E-016,-1.0,0.0));
#529=DIRECTION('',(0.0,0.0,1.0));
#530=DIRECTION('',(0.707106781186548,-0.707106781186548,8.65927457071936E-017));
#531=CARTESIAN_POINT('',(16.9175,-1.22509918538835E-032,0.0));
#532=DIRECTION('',(1.0,-6.92469193487555E-035,0.0));
#533=DIRECTION('',(6.92469193487555E-035,1.0,0.0));
#534=DIRECTION('',(-0.707106781186548,-0.707106781186548,8.65927457071935E-017));
#535=CARTESIAN_POINT('',(18.0,-1.23259516440785E-032,0.0));
#536=DIRECTION('',(1.0,-6.92469193487555E-035,0.0));
#537=DIRECTION('',(6.92469193487555E-035,1.0,0.0));
#538=DIRECTION('',(1.0,-6.92469193487555E-035,0.0));
#539=CARTESIAN_POINT('',(-4.84728435441289E-034,-1.10795070958009E-032,0.0));
#540=DIRECTION('',(1.0,-6.92469193487555E-035,0.0));
#541=DIRECTION('',(6.92469193487555E-035,1.0,0.0));
#542=DIRECTION('',(-1.0,6.92469193487555E-035,-0.0));
#543=CARTESIAN_POINT('',(16.9175,-1.22509918538835E-032,0.0));
#544=DIRECTION('',(1.0,-6.92469193487555E-035,0.0));
#545=DIRECTION('',(6.92469193487555E-035,1.0,0.0));
#546=CARTESIAN_POINT('',(-4.84728435441289E-034,-1.10795070958009E-032,0.0));
#547=DIRECTION('',(1.0,-6.92469193487555E-035,0.0));
#548=DIRECTION('',(6.92469193487555E-035,1.0,0.0));
#549=CARTESIAN_POINT('',(18.0,-1.23259516440785E-032,0.0));
#550=DIRECTION('',(1.0,-6.92469193487555E-035,0.0));
#551=DIRECTION('',(6.92469193487555E-035,1.0,0.0));
#552=CARTESIAN_POINT('',(-158.89487819181,-7.65262807223166E-035,0.0));
#553=DIRECTION('',(1.0,-6.92469193487555E-035,0.0));
#554=DIRECTION('',(6.92469193487555E-035,1.0,0.0));
#555=CARTESIAN_POINT('',(-158.401456297811,-1.10694226820964E-034,0.0));
#556=DIRECTION('',(1.0,-6.92469193487555E-035,0.0));
#557=DIRECTION('',(6.92469193487555E-035,1.0,0.0));
#558=CARTESIAN_POINT('',(-98.4014562978107,-4.2655093877463E-033,0.0));
#559=DIRECTION('',(1.0,-6.92469193487555E-035,0.0));
#560=DIRECTION('',(6.92469193487555E-035,1.0,0.0));
#561=CARTESIAN_POINT('',(-70.4564221286262,-6.20061691505803E-033,0.0));
#562=DIRECTION('',(1.0,-6.92469193487555E-035,0.0));
#563=DIRECTION('',(6.92469193487555E-035,1.0,0.0));
#564=CARTESIAN_POINT('',(-70.0,-6.232222741388E-033,0.0));
#565=DIRECTION('',(1.0,-6.92469193487555E-035,0.0));
#566=DIRECTION('',(6.92469193487555E-035,1.0,0.0));
#567=CARTESIAN_POINT('',(-70.0,-6.232222741388E-033,0.0));
#568=DIRECTION('',(1.0,-6.92469193487555E-035,0.0));
#569=DIRECTION('',(6.92469193487555E-035,1.0,0.0));
#570=CARTESIAN_POINT('',(6.69099565234101E-033,-1.10795070958009E-032,0.0));
#571=DIRECTION('',(1.0,-6.92469193487555E-035,0.0));
#572=DIRECTION('',(6.92469193487555E-035,1.0,0.0));
ENDSEC;
END-ISO-10303-21;
