ISO-10303-21;
HEADER;
FILE_DESCRIPTION(('STEP AP214'),'1');
FILE_NAME('HALDERN_EH_23180_0222.stp','2017-08-10T07:38:43',('TraceParts'),('TraceParts S.A.'),'Spatial InterOp 3D',' ',' ');
FILE_SCHEMA(('automotive_design'));
ENDSEC;
DATA;
#1=PRODUCT_DEFINITION_CONTEXT('',#9,'design');
#2=APPLICATION_PROTOCOL_DEFINITION('INTERNATIONAL STANDARD','automotive_design',1994,#9);
#3=PRODUCT_CATEGORY_RELATIONSHIP('NONE','NONE',#10,#11);
#4=SHAPE_DEFINITION_REPRESENTATION(#12,#13);
#5= (GEOMETRIC_REPRESENTATION_CONTEXT(3)GLOBAL_UNCERTAINTY_ASSIGNED_CONTEXT((#16))GLOBAL_UNIT_ASSIGNED_CONTEXT((#18,#19,#20))REPRESENTATION_CONTEXT('NONE','WORKSPACE'));
#9=APPLICATION_CONTEXT(' ');
#10=PRODUCT_CATEGORY('part','NONE');
#11=PRODUCT_RELATED_PRODUCT_CATEGORY('detail',' ',(#22));
#12=PRODUCT_DEFINITION_SHAPE('NONE','NONE',#23);
#13=ADVANCED_BREP_SHAPE_REPRESENTATION('HALDERN_EH_23180_0222',(#24,#25),#5);
#16=UNCERTAINTY_MEASURE_WITH_UNIT(LENGTH_MEASURE(1.0E-006),#18,'','');
#18= (CONVERSION_BASED_UNIT('MILLIMETRE',#28)LENGTH_UNIT()NAMED_UNIT(#31));
#19= (NAMED_UNIT(#33)PLANE_ANGLE_UNIT()SI_UNIT($,.RADIAN.));
#20= (NAMED_UNIT(#33)SOLID_ANGLE_UNIT()SI_UNIT($,.STERADIAN.));
#22=PRODUCT('HALDERN_EH_23180_0222','HALDERN_EH_23180_0222','PART-HALDERN_EH_23180_0222-DESC',(#39));
#23=PRODUCT_DEFINITION('NONE','NONE',#40,#1);
#24=MANIFOLD_SOLID_BREP('HALDERN_EH_23180_0222',#41);
#25=AXIS2_PLACEMENT_3D('',#42,#43,#44);
#28=LENGTH_MEASURE_WITH_UNIT(LENGTH_MEASURE(1.0),#45);
#31=DIMENSIONAL_EXPONENTS(1.0,0.0,0.0,0.0,0.0,0.0,0.0);
#33=DIMENSIONAL_EXPONENTS(0.0,0.0,0.0,0.0,0.0,0.0,0.0);
#39=PRODUCT_CONTEXT('',#9,'mechanical');
#40=PRODUCT_DEFINITION_FORMATION_WITH_SPECIFIED_SOURCE(' ','NONE',#22,.NOT_KNOWN.);
#41=CLOSED_SHELL('',(#46,#47,#48,#49,#50,#51,#52,#53,#54,#55,#56,#57,#58,#59,#60,#61,#62,#63,#64,#65));
#42=CARTESIAN_POINT('',(0.0,0.0,0.0));
#43=DIRECTION('',(0.0,0.0,1.0));
#44=DIRECTION('',(1.0,0.0,0.0));
#45= (NAMED_UNIT(#31)LENGTH_UNIT()SI_UNIT(.MILLI.,.METRE.));
#46=ADVANCED_FACE('',(#67),#68,.F.);
#47=ADVANCED_FACE('',(#69),#70,.F.);
#48=ADVANCED_FACE('',(#71),#72,.T.);
#49=ADVANCED_FACE('',(#73),#74,.F.);
#50=ADVANCED_FACE('',(#75),#76,.F.);
#51=ADVANCED_FACE('',(#77),#78,.F.);
#52=ADVANCED_FACE('',(#79),#80,.F.);
#53=ADVANCED_FACE('',(#81),#82,.T.);
#54=ADVANCED_FACE('',(#83),#84,.T.);
#55=ADVANCED_FACE('',(#85),#86,.T.);
#56=ADVANCED_FACE('',(#87),#88,.T.);
#57=ADVANCED_FACE('',(#89),#90,.F.);
#58=ADVANCED_FACE('',(#91),#92,.F.);
#59=ADVANCED_FACE('',(#93),#94,.F.);
#60=ADVANCED_FACE('',(#95),#96,.F.);
#61=ADVANCED_FACE('',(#97),#98,.F.);
#62=ADVANCED_FACE('',(#99),#100,.T.);
#63=ADVANCED_FACE('',(#101),#102,.T.);
#64=ADVANCED_FACE('',(#103),#104,.T.);
#65=ADVANCED_FACE('',(#105,#106),#107,.T.);
#67=FACE_OUTER_BOUND('',#108,.T.);
#68=CYLINDRICAL_SURFACE('',#109,11.0);
#69=FACE_OUTER_BOUND('',#110,.T.);
#70=PLANE('',#111);
#71=FACE_OUTER_BOUND('',#112,.T.);
#72=PLANE('',#113);
#73=FACE_OUTER_BOUND('',#114,.T.);
#74=PLANE('',#115);
#75=FACE_OUTER_BOUND('',#116,.T.);
#76=PLANE('',#117);
#77=FACE_OUTER_BOUND('',#118,.T.);
#78=PLANE('',#119);
#79=FACE_OUTER_BOUND('',#120,.T.);
#80=PLANE('',#121);
#81=FACE_OUTER_BOUND('',#122,.T.);
#82=PLANE('',#123);
#83=FACE_OUTER_BOUND('',#124,.T.);
#84=PLANE('',#125);
#85=FACE_OUTER_BOUND('',#126,.T.);
#86=PLANE('',#127);
#87=FACE_OUTER_BOUND('',#128,.T.);
#88=PLANE('',#129);
#89=FACE_OUTER_BOUND('',#130,.T.);
#90=PLANE('',#131);
#91=FACE_OUTER_BOUND('',#132,.T.);
#92=PLANE('',#133);
#93=FACE_OUTER_BOUND('',#134,.T.);
#94=PLANE('',#135);
#95=FACE_OUTER_BOUND('',#136,.T.);
#96=CYLINDRICAL_SURFACE('',#137,11.0);
#97=FACE_OUTER_BOUND('',#138,.T.);
#98=PLANE('',#139);
#99=FACE_OUTER_BOUND('',#140,.T.);
#100=PLANE('',#141);
#101=FACE_OUTER_BOUND('',#142,.T.);
#102=PLANE('',#143);
#103=FACE_OUTER_BOUND('',#144,.T.);
#104=PLANE('',#145);
#105=FACE_OUTER_BOUND('',#146,.T.);
#106=FACE_BOUND('',#147,.T.);
#107=PLANE('',#148);
#108=EDGE_LOOP('',(#149,#150,#151,#152));
#109=AXIS2_PLACEMENT_3D('',#153,#154,#155);
#110=EDGE_LOOP('',(#156,#157,#158,#159));
#111=AXIS2_PLACEMENT_3D('',#160,#161,#162);
#112=EDGE_LOOP('',(#163,#164,#165,#166,#167,#168,#169,#170));
#113=AXIS2_PLACEMENT_3D('',#171,#172,#173);
#114=EDGE_LOOP('',(#174,#175,#176,#177));
#115=AXIS2_PLACEMENT_3D('',#178,#179,#180);
#116=EDGE_LOOP('',(#181,#182,#183,#184,#185,#186,#187,#188));
#117=AXIS2_PLACEMENT_3D('',#189,#190,#191);
#118=EDGE_LOOP('',(#192,#193,#194,#195,#196,#197));
#119=AXIS2_PLACEMENT_3D('',#198,#199,#200);
#120=EDGE_LOOP('',(#201,#202,#203,#204));
#121=AXIS2_PLACEMENT_3D('',#205,#206,#207);
#122=EDGE_LOOP('',(#208,#209,#210,#211,#212));
#123=AXIS2_PLACEMENT_3D('',#213,#214,#215);
#124=EDGE_LOOP('',(#216,#217,#218,#219,#220,#221));
#125=AXIS2_PLACEMENT_3D('',#222,#223,#224);
#126=EDGE_LOOP('',(#225,#226,#227,#228,#229,#230));
#127=AXIS2_PLACEMENT_3D('',#231,#232,#233);
#128=EDGE_LOOP('',(#234,#235,#236,#237));
#129=AXIS2_PLACEMENT_3D('',#238,#239,#240);
#130=EDGE_LOOP('',(#241,#242,#243,#244));
#131=AXIS2_PLACEMENT_3D('',#245,#246,#247);
#132=EDGE_LOOP('',(#248,#249,#250,#251,#252,#253,#254,#255,#256,#257));
#133=AXIS2_PLACEMENT_3D('',#258,#259,#260);
#134=EDGE_LOOP('',(#261,#262,#263,#264,#265,#266));
#135=AXIS2_PLACEMENT_3D('',#267,#268,#269);
#136=EDGE_LOOP('',(#270,#271,#272,#273));
#137=AXIS2_PLACEMENT_3D('',#274,#275,#276);
#138=EDGE_LOOP('',(#277,#278,#279,#280,#281,#282));
#139=AXIS2_PLACEMENT_3D('',#283,#284,#285);
#140=EDGE_LOOP('',(#286,#287,#288,#289,#290,#291));
#141=AXIS2_PLACEMENT_3D('',#292,#293,#294);
#142=EDGE_LOOP('',(#295,#296,#297,#298,#299,#300));
#143=AXIS2_PLACEMENT_3D('',#301,#302,#303);
#144=EDGE_LOOP('',(#304,#305,#306,#307,#308));
#145=AXIS2_PLACEMENT_3D('',#309,#310,#311);
#146=EDGE_LOOP('',(#312,#313,#314,#315));
#147=EDGE_LOOP('',(#316,#317,#318,#319));
#148=AXIS2_PLACEMENT_3D('',#320,#321,#322);
#149=ORIENTED_EDGE('',*,*,#323,.F.);
#150=ORIENTED_EDGE('',*,*,#324,.F.);
#151=ORIENTED_EDGE('',*,*,#325,.T.);
#152=ORIENTED_EDGE('',*,*,#326,.F.);
#153=CARTESIAN_POINT('',(63.0,1.09845770390057E-015,0.0));
#154=DIRECTION('',(0.0,-0.0,1.0));
#155=DIRECTION('',(9.77688217253873E-008,0.999999999999995,0.0));
#156=ORIENTED_EDGE('',*,*,#327,.F.);
#157=ORIENTED_EDGE('',*,*,#328,.F.);
#158=ORIENTED_EDGE('',*,*,#329,.F.);
#159=ORIENTED_EDGE('',*,*,#330,.F.);
#160=CARTESIAN_POINT('',(159.0,7.55528395978678E-015,5.5));
#161=DIRECTION('',(0.0,0.0,1.0));
#162=DIRECTION('',(1.0,0.0,0.0));
#163=ORIENTED_EDGE('',*,*,#331,.T.);
#164=ORIENTED_EDGE('',*,*,#329,.T.);
#165=ORIENTED_EDGE('',*,*,#332,.T.);
#166=ORIENTED_EDGE('',*,*,#333,.F.);
#167=ORIENTED_EDGE('',*,*,#334,.T.);
#168=ORIENTED_EDGE('',*,*,#335,.F.);
#169=ORIENTED_EDGE('',*,*,#336,.F.);
#170=ORIENTED_EDGE('',*,*,#337,.F.);
#171=CARTESIAN_POINT('',(225.0,-24.9999999999999,0.0));
#172=DIRECTION('',(1.0,0.0,0.0));
#173=DIRECTION('',(0.0,1.0,0.0));
#174=ORIENTED_EDGE('',*,*,#338,.F.);
#175=ORIENTED_EDGE('',*,*,#339,.F.);
#176=ORIENTED_EDGE('',*,*,#340,.F.);
#177=ORIENTED_EDGE('',*,*,#341,.F.);
#178=CARTESIAN_POINT('',(38.0,0.0,0.999999999999992));
#179=DIRECTION('',(1.0,0.0,0.0));
#180=DIRECTION('',(0.0,0.0,-1.0));
#181=ORIENTED_EDGE('',*,*,#342,.F.);
#182=ORIENTED_EDGE('',*,*,#343,.F.);
#183=ORIENTED_EDGE('',*,*,#344,.F.);
#184=ORIENTED_EDGE('',*,*,#345,.F.);
#185=ORIENTED_EDGE('',*,*,#346,.F.);
#186=ORIENTED_EDGE('',*,*,#347,.F.);
#187=ORIENTED_EDGE('',*,*,#348,.F.);
#188=ORIENTED_EDGE('',*,*,#349,.F.);
#189=CARTESIAN_POINT('',(85.3904964428622,0.0,50.0));
#190=DIRECTION('',(0.374606593415912,0.0,-0.927183854566788));
#191=DIRECTION('',(-0.927183854566787,-0.0,-0.374606593415912));
#192=ORIENTED_EDGE('',*,*,#350,.F.);
#193=ORIENTED_EDGE('',*,*,#351,.F.);
#194=ORIENTED_EDGE('',*,*,#352,.F.);
#195=ORIENTED_EDGE('',*,*,#353,.F.);
#196=ORIENTED_EDGE('',*,*,#354,.F.);
#197=ORIENTED_EDGE('',*,*,#339,.T.);
#198=CARTESIAN_POINT('',(18.0,0.0,0.999999999999999));
#199=DIRECTION('',(3.67761376907083E-016,0.0,1.0));
#200=DIRECTION('',(1.0,0.0,-3.67761376907083E-016));
#201=ORIENTED_EDGE('',*,*,#355,.F.);
#202=ORIENTED_EDGE('',*,*,#356,.F.);
#203=ORIENTED_EDGE('',*,*,#357,.F.);
#204=ORIENTED_EDGE('',*,*,#352,.T.);
#205=CARTESIAN_POINT('',(18.0,0.0,-1.11022302462516E-015));
#206=DIRECTION('',(-1.0,0.0,0.0));
#207=DIRECTION('',(0.0,0.0,1.0));
#208=ORIENTED_EDGE('',*,*,#344,.T.);
#209=ORIENTED_EDGE('',*,*,#358,.F.);
#210=ORIENTED_EDGE('',*,*,#359,.F.);
#211=ORIENTED_EDGE('',*,*,#336,.T.);
#212=ORIENTED_EDGE('',*,*,#360,.F.);
#213=CARTESIAN_POINT('',(48.25,-24.9999999999999,0.0));
#214=DIRECTION('',(3.26628556042479E-016,-1.0,0.0));
#215=DIRECTION('',(1.0,3.26628556042479E-016,0.0));
#216=ORIENTED_EDGE('',*,*,#342,.T.);
#217=ORIENTED_EDGE('',*,*,#361,.F.);
#218=ORIENTED_EDGE('',*,*,#362,.F.);
#219=ORIENTED_EDGE('',*,*,#355,.T.);
#220=ORIENTED_EDGE('',*,*,#351,.T.);
#221=ORIENTED_EDGE('',*,*,#363,.T.);
#222=CARTESIAN_POINT('',(0.0,-9.75,0.0));
#223=DIRECTION('',(1.6821560979169E-016,-1.0,0.0));
#224=DIRECTION('',(1.0,1.6821560979169E-016,0.0));
#225=ORIENTED_EDGE('',*,*,#343,.T.);
#226=ORIENTED_EDGE('',*,*,#363,.F.);
#227=ORIENTED_EDGE('',*,*,#350,.T.);
#228=ORIENTED_EDGE('',*,*,#338,.T.);
#229=ORIENTED_EDGE('',*,*,#364,.F.);
#230=ORIENTED_EDGE('',*,*,#358,.T.);
#231=CARTESIAN_POINT('',(33.0,-9.75,0.0));
#232=DIRECTION('',(-0.707106781186547,-0.707106781186548,0.0));
#233=DIRECTION('',(0.707106781186548,-0.707106781186547,0.0));
#234=ORIENTED_EDGE('',*,*,#349,.T.);
#235=ORIENTED_EDGE('',*,*,#365,.F.);
#236=ORIENTED_EDGE('',*,*,#366,.F.);
#237=ORIENTED_EDGE('',*,*,#361,.T.);
#238=CARTESIAN_POINT('',(-1.49687916973737E-016,9.75,0.0));
#239=DIRECTION('',(-1.0,-1.53526068691013E-017,0.0));
#240=DIRECTION('',(1.53526068691013E-017,-1.0,0.0));
#241=ORIENTED_EDGE('',*,*,#356,.T.);
#242=ORIENTED_EDGE('',*,*,#362,.T.);
#243=ORIENTED_EDGE('',*,*,#366,.T.);
#244=ORIENTED_EDGE('',*,*,#367,.T.);
#245=CARTESIAN_POINT('',(117.241697603139,4.10439521127514E-014,0.0));
#246=DIRECTION('',(0.0,0.0,1.0));
#247=DIRECTION('',(1.0,0.0,0.0));
#248=ORIENTED_EDGE('',*,*,#368,.T.);
#249=ORIENTED_EDGE('',*,*,#337,.T.);
#250=ORIENTED_EDGE('',*,*,#359,.T.);
#251=ORIENTED_EDGE('',*,*,#364,.T.);
#252=ORIENTED_EDGE('',*,*,#341,.T.);
#253=ORIENTED_EDGE('',*,*,#369,.T.);
#254=ORIENTED_EDGE('',*,*,#370,.T.);
#255=ORIENTED_EDGE('',*,*,#333,.T.);
#256=ORIENTED_EDGE('',*,*,#371,.T.);
#257=ORIENTED_EDGE('',*,*,#324,.T.);
#258=CARTESIAN_POINT('',(117.241697603139,4.10439521127514E-014,0.0));
#259=DIRECTION('',(0.0,0.0,1.0));
#260=DIRECTION('',(1.0,0.0,0.0));
#261=ORIENTED_EDGE('',*,*,#371,.F.);
#262=ORIENTED_EDGE('',*,*,#332,.F.);
#263=ORIENTED_EDGE('',*,*,#328,.T.);
#264=ORIENTED_EDGE('',*,*,#372,.T.);
#265=ORIENTED_EDGE('',*,*,#373,.F.);
#266=ORIENTED_EDGE('',*,*,#325,.F.);
#267=CARTESIAN_POINT('',(93.0,11.0,0.0));
#268=DIRECTION('',(0.0,1.0,0.0));
#269=DIRECTION('',(-1.0,0.0,0.0));
#270=ORIENTED_EDGE('',*,*,#327,.T.);
#271=ORIENTED_EDGE('',*,*,#374,.T.);
#272=ORIENTED_EDGE('',*,*,#375,.F.);
#273=ORIENTED_EDGE('',*,*,#372,.F.);
#274=CARTESIAN_POINT('',(93.0,1.03757263320565E-014,0.0));
#275=DIRECTION('',(0.0,0.0,1.0));
#276=DIRECTION('',(0.0,-1.0,0.0));
#277=ORIENTED_EDGE('',*,*,#368,.F.);
#278=ORIENTED_EDGE('',*,*,#323,.T.);
#279=ORIENTED_EDGE('',*,*,#376,.F.);
#280=ORIENTED_EDGE('',*,*,#374,.F.);
#281=ORIENTED_EDGE('',*,*,#330,.T.);
#282=ORIENTED_EDGE('',*,*,#331,.F.);
#283=CARTESIAN_POINT('',(63.0000010754571,-11.0,0.0));
#284=DIRECTION('',(0.0,-1.0,0.0));
#285=DIRECTION('',(1.0,0.0,0.0));
#286=ORIENTED_EDGE('',*,*,#348,.T.);
#287=ORIENTED_EDGE('',*,*,#377,.F.);
#288=ORIENTED_EDGE('',*,*,#353,.T.);
#289=ORIENTED_EDGE('',*,*,#357,.T.);
#290=ORIENTED_EDGE('',*,*,#367,.F.);
#291=ORIENTED_EDGE('',*,*,#365,.T.);
#292=CARTESIAN_POINT('',(33.0,9.75000000000001,0.0));
#293=DIRECTION('',(-1.6821560979169E-016,1.0,0.0));
#294=DIRECTION('',(-1.0,-1.6821560979169E-016,-0.0));
#295=ORIENTED_EDGE('',*,*,#347,.T.);
#296=ORIENTED_EDGE('',*,*,#378,.F.);
#297=ORIENTED_EDGE('',*,*,#369,.F.);
#298=ORIENTED_EDGE('',*,*,#340,.T.);
#299=ORIENTED_EDGE('',*,*,#354,.T.);
#300=ORIENTED_EDGE('',*,*,#377,.T.);
#301=CARTESIAN_POINT('',(48.25,25.0,0.0));
#302=DIRECTION('',(-0.707106781186548,0.707106781186547,0.0));
#303=DIRECTION('',(-0.707106781186547,-0.707106781186548,-0.0));
#304=ORIENTED_EDGE('',*,*,#346,.T.);
#305=ORIENTED_EDGE('',*,*,#379,.F.);
#306=ORIENTED_EDGE('',*,*,#334,.F.);
#307=ORIENTED_EDGE('',*,*,#370,.F.);
#308=ORIENTED_EDGE('',*,*,#378,.T.);
#309=CARTESIAN_POINT('',(225.0,25.0,0.0));
#310=DIRECTION('',(-1.75876914792104E-016,1.0,0.0));
#311=DIRECTION('',(-1.0,-1.75876914792104E-016,-0.0));
#312=ORIENTED_EDGE('',*,*,#345,.T.);
#313=ORIENTED_EDGE('',*,*,#360,.T.);
#314=ORIENTED_EDGE('',*,*,#335,.T.);
#315=ORIENTED_EDGE('',*,*,#379,.T.);
#316=ORIENTED_EDGE('',*,*,#373,.T.);
#317=ORIENTED_EDGE('',*,*,#375,.T.);
#318=ORIENTED_EDGE('',*,*,#376,.T.);
#319=ORIENTED_EDGE('',*,*,#326,.T.);
#320=CARTESIAN_POINT('',(117.241697603139,4.10439521127514E-014,35.0));
#321=DIRECTION('',(0.0,0.0,1.0));
#322=DIRECTION('',(1.0,0.0,0.0));
#323=EDGE_CURVE('',#380,#381,#382,.T.);
#324=EDGE_CURVE('',#383,#380,#384,.T.);
#325=EDGE_CURVE('',#383,#385,#386,.T.);
#326=EDGE_CURVE('',#381,#385,#387,.T.);
#327=EDGE_CURVE('',#388,#389,#390,.T.);
#328=EDGE_CURVE('',#391,#388,#392,.T.);
#329=EDGE_CURVE('',#393,#391,#394,.T.);
#330=EDGE_CURVE('',#389,#393,#395,.T.);
#331=EDGE_CURVE('',#396,#393,#397,.T.);
#332=EDGE_CURVE('',#391,#398,#399,.T.);
#333=EDGE_CURVE('',#400,#398,#401,.T.);
#334=EDGE_CURVE('',#400,#402,#403,.T.);
#335=EDGE_CURVE('',#404,#402,#405,.T.);
#336=EDGE_CURVE('',#406,#404,#407,.T.);
#337=EDGE_CURVE('',#396,#406,#408,.T.);
#338=EDGE_CURVE('',#409,#410,#411,.T.);
#339=EDGE_CURVE('',#412,#409,#413,.T.);
#340=EDGE_CURVE('',#414,#412,#415,.T.);
#341=EDGE_CURVE('',#410,#414,#416,.T.);
#342=EDGE_CURVE('',#417,#418,#419,.T.);
#343=EDGE_CURVE('',#420,#417,#421,.T.);
#344=EDGE_CURVE('',#422,#420,#423,.T.);
#345=EDGE_CURVE('',#424,#422,#425,.T.);
#346=EDGE_CURVE('',#426,#424,#427,.T.);
#347=EDGE_CURVE('',#428,#426,#429,.T.);
#348=EDGE_CURVE('',#430,#428,#431,.T.);
#349=EDGE_CURVE('',#418,#430,#432,.T.);
#350=EDGE_CURVE('',#433,#409,#434,.T.);
#351=EDGE_CURVE('',#435,#433,#436,.T.);
#352=EDGE_CURVE('',#437,#435,#438,.T.);
#353=EDGE_CURVE('',#439,#437,#440,.T.);
#354=EDGE_CURVE('',#412,#439,#441,.T.);
#355=EDGE_CURVE('',#442,#435,#443,.T.);
#356=EDGE_CURVE('',#444,#442,#445,.T.);
#357=EDGE_CURVE('',#437,#444,#446,.T.);
#358=EDGE_CURVE('',#447,#420,#448,.T.);
#359=EDGE_CURVE('',#406,#447,#449,.T.);
#360=EDGE_CURVE('',#422,#404,#450,.T.);
#361=EDGE_CURVE('',#451,#418,#452,.T.);
#362=EDGE_CURVE('',#442,#451,#453,.T.);
#363=EDGE_CURVE('',#433,#417,#454,.T.);
#364=EDGE_CURVE('',#447,#410,#455,.T.);
#365=EDGE_CURVE('',#456,#430,#457,.T.);
#366=EDGE_CURVE('',#451,#456,#458,.T.);
#367=EDGE_CURVE('',#456,#444,#459,.T.);
#368=EDGE_CURVE('',#380,#396,#460,.T.);
#369=EDGE_CURVE('',#414,#461,#462,.T.);
#370=EDGE_CURVE('',#461,#400,#463,.T.);
#371=EDGE_CURVE('',#398,#383,#464,.T.);
#372=EDGE_CURVE('',#388,#465,#466,.T.);
#373=EDGE_CURVE('',#385,#465,#467,.T.);
#374=EDGE_CURVE('',#389,#468,#469,.T.);
#375=EDGE_CURVE('',#465,#468,#470,.T.);
#376=EDGE_CURVE('',#468,#381,#471,.T.);
#377=EDGE_CURVE('',#439,#428,#472,.T.);
#378=EDGE_CURVE('',#461,#426,#473,.T.);
#379=EDGE_CURVE('',#402,#424,#474,.T.);
#380=VERTEX_POINT('',#475);
#381=VERTEX_POINT('',#476);
#382=LINE('',#477,#478);
#383=VERTEX_POINT('',#479);
#384=CIRCLE('',#480,11.0);
#385=VERTEX_POINT('',#481);
#386=LINE('',#482,#483);
#387=CIRCLE('',#484,11.0);
#388=VERTEX_POINT('',#485);
#389=VERTEX_POINT('',#486);
#390=CIRCLE('',#487,11.0);
#391=VERTEX_POINT('',#488);
#392=LINE('',#489,#490);
#393=VERTEX_POINT('',#491);
#394=LINE('',#492,#493);
#395=LINE('',#494,#495);
#396=VERTEX_POINT('',#496);
#397=LINE('',#497,#498);
#398=VERTEX_POINT('',#499);
#399=LINE('',#500,#501);
#400=VERTEX_POINT('',#502);
#401=LINE('',#503,#504);
#402=VERTEX_POINT('',#505);
#403=LINE('',#506,#507);
#404=VERTEX_POINT('',#508);
#405=LINE('',#509,#510);
#406=VERTEX_POINT('',#511);
#407=LINE('',#512,#513);
#408=LINE('',#514,#515);
#409=VERTEX_POINT('',#516);
#410=VERTEX_POINT('',#517);
#411=LINE('',#518,#519);
#412=VERTEX_POINT('',#520);
#413=LINE('',#521,#522);
#414=VERTEX_POINT('',#523);
#415=LINE('',#524,#525);
#416=LINE('',#526,#527);
#417=VERTEX_POINT('',#528);
#418=VERTEX_POINT('',#529);
#419=LINE('',#530,#531);
#420=VERTEX_POINT('',#532);
#421=LINE('',#533,#534);
#422=VERTEX_POINT('',#535);
#423=LINE('',#536,#537);
#424=VERTEX_POINT('',#538);
#425=LINE('',#539,#540);
#426=VERTEX_POINT('',#541);
#427=LINE('',#542,#543);
#428=VERTEX_POINT('',#544);
#429=LINE('',#545,#546);
#430=VERTEX_POINT('',#547);
#431=LINE('',#548,#549);
#432=LINE('',#550,#551);
#433=VERTEX_POINT('',#552);
#434=LINE('',#553,#554);
#435=VERTEX_POINT('',#555);
#436=LINE('',#556,#557);
#437=VERTEX_POINT('',#558);
#438=LINE('',#559,#560);
#439=VERTEX_POINT('',#561);
#440=LINE('',#562,#563);
#441=LINE('',#564,#565);
#442=VERTEX_POINT('',#566);
#443=LINE('',#567,#568);
#444=VERTEX_POINT('',#569);
#445=LINE('',#570,#571);
#446=LINE('',#572,#573);
#447=VERTEX_POINT('',#574);
#448=LINE('',#575,#576);
#449=LINE('',#577,#578);
#450=LINE('',#579,#580);
#451=VERTEX_POINT('',#581);
#452=LINE('',#582,#583);
#453=LINE('',#584,#585);
#454=LINE('',#586,#587);
#455=LINE('',#588,#589);
#456=VERTEX_POINT('',#590);
#457=LINE('',#591,#592);
#458=LINE('',#593,#594);
#459=LINE('',#595,#596);
#460=LINE('',#597,#598);
#461=VERTEX_POINT('',#599);
#462=LINE('',#600,#601);
#463=LINE('',#602,#603);
#464=LINE('',#604,#605);
#465=VERTEX_POINT('',#606);
#466=LINE('',#607,#608);
#467=LINE('',#609,#610);
#468=VERTEX_POINT('',#611);
#469=LINE('',#612,#613);
#470=CIRCLE('',#614,11.0);
#471=LINE('',#615,#616);
#472=LINE('',#617,#618);
#473=LINE('',#619,#620);
#474=LINE('',#621,#622);
#475=CARTESIAN_POINT('',(63.0,-11.0,0.0));
#476=CARTESIAN_POINT('',(63.0,-11.0,35.0));
#477=CARTESIAN_POINT('',(63.0000010754571,-11.0,0.0));
#478=VECTOR('',#623,10.0);
#479=CARTESIAN_POINT('',(63.0000010754571,11.0,0.0));
#480=AXIS2_PLACEMENT_3D('',#624,#625,#626);
#481=CARTESIAN_POINT('',(63.0000010754571,11.0,35.0));
#482=CARTESIAN_POINT('',(63.0000010754571,11.0,0.0));
#483=VECTOR('',#627,10.0);
#484=AXIS2_PLACEMENT_3D('',#628,#629,#630);
#485=CARTESIAN_POINT('',(93.0,11.0,5.5));
#486=CARTESIAN_POINT('',(93.0,-11.0,5.5));
#487=AXIS2_PLACEMENT_3D('',#631,#632,#633);
#488=CARTESIAN_POINT('',(225.0,11.0,5.5));
#489=CARTESIAN_POINT('',(93.0,11.0,5.5));
#490=VECTOR('',#634,10.0);
#491=CARTESIAN_POINT('',(225.0,-11.0,5.5));
#492=CARTESIAN_POINT('',(225.0,-12.4999999999999,5.5));
#493=VECTOR('',#635,10.0);
#494=CARTESIAN_POINT('',(225.0,-11.0,5.5));
#495=VECTOR('',#636,10.0);
#496=CARTESIAN_POINT('',(225.0,-11.0,0.0));
#497=CARTESIAN_POINT('',(225.0,-11.0,0.0));
#498=VECTOR('',#637,10.0);
#499=CARTESIAN_POINT('',(225.0,11.0,0.0));
#500=CARTESIAN_POINT('',(225.0,11.0,0.0));
#501=VECTOR('',#638,10.0);
#502=CARTESIAN_POINT('',(225.0,25.0,0.0));
#503=CARTESIAN_POINT('',(225.0,25.0,0.0));
#504=VECTOR('',#639,10.0);
#505=CARTESIAN_POINT('',(225.0,25.0,35.0));
#506=CARTESIAN_POINT('',(225.0,25.0,0.0));
#507=VECTOR('',#640,10.0);
#508=CARTESIAN_POINT('',(225.0,-24.9999999999999,35.0));
#509=CARTESIAN_POINT('',(225.0,25.0,35.0));
#510=VECTOR('',#641,10.0);
#511=CARTESIAN_POINT('',(225.0,-24.9999999999999,0.0));
#512=CARTESIAN_POINT('',(225.0,-24.9999999999999,0.0));
#513=VECTOR('',#642,10.0);
#514=CARTESIAN_POINT('',(225.0,25.0,0.0));
#515=VECTOR('',#643,10.0);
#516=CARTESIAN_POINT('',(38.0,-14.75,0.999999999999992));
#517=CARTESIAN_POINT('',(38.0,-14.75,0.0));
#518=CARTESIAN_POINT('',(38.0,-14.75,0.499999999999996));
#519=VECTOR('',#644,10.0);
#520=CARTESIAN_POINT('',(38.0,14.75,0.999999999999992));
#521=CARTESIAN_POINT('',(38.0,0.0,0.999999999999992));
#522=VECTOR('',#645,10.0);
#523=CARTESIAN_POINT('',(38.0,14.75,0.0));
#524=CARTESIAN_POINT('',(38.0,14.75,0.499999999999996));
#525=VECTOR('',#646,10.0);
#526=CARTESIAN_POINT('',(38.0,2.05219760563757E-014,0.0));
#527=VECTOR('',#647,10.0);
#528=CARTESIAN_POINT('',(33.0,-9.74999999999999,28.8328654525602));
#529=CARTESIAN_POINT('',(-1.49687916973737E-016,-9.75,15.5));
#530=CARTESIAN_POINT('',(40.0034470359025,-9.74999999999999,31.6624417263123));
#531=VECTOR('',#648,10.0);
#532=CARTESIAN_POINT('',(48.25,-24.9999999999999,34.9942653965463));
#533=CARTESIAN_POINT('',(42.1398530587731,-18.8898530587731,32.5256057885842));
#534=VECTOR('',#649,10.0);
#535=CARTESIAN_POINT('',(48.2641936416178,-24.9999999999999,35.0));
#536=CARTESIAN_POINT('',(60.7429833774874,-24.9999999999999,40.0417583199739));
#537=VECTOR('',#650,10.0);
#538=CARTESIAN_POINT('',(48.2641936416178,25.0,35.0));
#539=CARTESIAN_POINT('',(48.2641936416178,2.05219760563757E-014,35.0));
#540=VECTOR('',#651,10.0);
#541=CARTESIAN_POINT('',(48.25,25.0,34.9942653965463));
#542=CARTESIAN_POINT('',(136.716310804952,25.0,70.7369750646309));
#543=VECTOR('',#652,10.0);
#544=CARTESIAN_POINT('',(33.0,9.75000000000001,28.8328654525602));
#545=CARTESIAN_POINT('',(49.1894729813134,25.9394729813134,35.3738371194605));
#546=VECTOR('',#653,10.0);
#547=CARTESIAN_POINT('',(-1.49687916973737E-016,9.75,15.5));
#548=CARTESIAN_POINT('',(54.1880003886964,9.75000000000001,37.393373282599));
#549=VECTOR('',#654,10.0);
#550=CARTESIAN_POINT('',(0.0,4.875,15.5));
#551=VECTOR('',#655,10.0);
#552=CARTESIAN_POINT('',(33.0,-9.74999999999999,0.999999999999993));
#553=CARTESIAN_POINT('',(26.8125,-3.5625,0.999999999999996));
#554=VECTOR('',#656,10.0);
#555=CARTESIAN_POINT('',(18.0,-9.75,0.999999999999999));
#556=CARTESIAN_POINT('',(9.0,-9.75,1.0));
#557=VECTOR('',#657,10.0);
#558=CARTESIAN_POINT('',(18.0,9.75,0.999999999999999));
#559=CARTESIAN_POINT('',(18.0,0.0,0.999999999999999));
#560=VECTOR('',#658,10.0);
#561=CARTESIAN_POINT('',(33.0,9.75000000000001,0.999999999999993));
#562=CARTESIAN_POINT('',(25.5,9.75000000000001,0.999999999999996));
#563=VECTOR('',#659,10.0);
#564=CARTESIAN_POINT('',(34.4375,11.1875,0.999999999999993));
#565=VECTOR('',#660,10.0);
#566=CARTESIAN_POINT('',(18.0,-9.75,-1.0788121567255E-015));
#567=CARTESIAN_POINT('',(18.0,-9.75,-5.55111512312578E-016));
#568=VECTOR('',#661,10.0);
#569=CARTESIAN_POINT('',(18.0,9.75,-1.0788121567255E-015));
#570=CARTESIAN_POINT('',(18.0,2.05219760563757E-014,0.0));
#571=VECTOR('',#662,10.0);
#572=CARTESIAN_POINT('',(18.0,9.75,-5.55111512312578E-016));
#573=VECTOR('',#663,10.0);
#574=CARTESIAN_POINT('',(48.25,-24.9999999999999,0.0));
#575=CARTESIAN_POINT('',(48.25,-24.9999999999999,0.0));
#576=VECTOR('',#664,10.0);
#577=CARTESIAN_POINT('',(225.0,-24.9999999999999,0.0));
#578=VECTOR('',#665,10.0);
#579=CARTESIAN_POINT('',(225.0,-24.9999999999999,35.0));
#580=VECTOR('',#666,10.0);
#581=CARTESIAN_POINT('',(0.0,-9.75,0.0));
#582=CARTESIAN_POINT('',(0.0,-9.75,0.0));
#583=VECTOR('',#667,10.0);
#584=CARTESIAN_POINT('',(33.0,-9.74999999999999,0.0));
#585=VECTOR('',#668,10.0);
#586=CARTESIAN_POINT('',(33.0,-9.74999999999999,0.0));
#587=VECTOR('',#669,10.0);
#588=CARTESIAN_POINT('',(48.25,-24.9999999999999,0.0));
#589=VECTOR('',#670,10.0);
#590=CARTESIAN_POINT('',(-1.49687916973737E-016,9.75,0.0));
#591=CARTESIAN_POINT('',(-1.49687916973737E-016,9.75,0.0));
#592=VECTOR('',#671,10.0);
#593=CARTESIAN_POINT('',(0.0,0.0,0.0));
#594=VECTOR('',#672,10.0);
#595=CARTESIAN_POINT('',(-1.49687916973737E-016,9.75,0.0));
#596=VECTOR('',#673,10.0);
#597=CARTESIAN_POINT('',(105.120848801569,-11.0,0.0));
#598=VECTOR('',#674,10.0);
#599=CARTESIAN_POINT('',(48.25,25.0,0.0));
#600=CARTESIAN_POINT('',(33.0,9.75000000000001,0.0));
#601=VECTOR('',#675,10.0);
#602=CARTESIAN_POINT('',(48.25,25.0,0.0));
#603=VECTOR('',#676,10.0);
#604=CARTESIAN_POINT('',(105.120848801569,11.0,0.0));
#605=VECTOR('',#677,10.0);
#606=CARTESIAN_POINT('',(93.0,11.0,35.0));
#607=CARTESIAN_POINT('',(93.0,11.0,0.0));
#608=VECTOR('',#678,10.0);
#609=CARTESIAN_POINT('',(105.120848801569,11.0,35.0));
#610=VECTOR('',#679,10.0);
#611=CARTESIAN_POINT('',(93.0,-11.0,35.0));
#612=CARTESIAN_POINT('',(93.0,-11.0,0.0));
#613=VECTOR('',#680,10.0);
#614=AXIS2_PLACEMENT_3D('',#681,#682,#683);
#615=CARTESIAN_POINT('',(90.1208493392978,-11.0,35.0));
#616=VECTOR('',#684,10.0);
#617=CARTESIAN_POINT('',(33.0,9.75000000000001,0.0));
#618=VECTOR('',#685,10.0);
#619=CARTESIAN_POINT('',(48.25,25.0,0.0));
#620=VECTOR('',#686,10.0);
#621=CARTESIAN_POINT('',(48.25,25.0,35.0));
#622=VECTOR('',#687,10.0);
#623=DIRECTION('',(0.0,0.0,1.0));
#624=CARTESIAN_POINT('',(63.0,1.09845770390057E-015,0.0));
#625=DIRECTION('',(0.0,-0.0,1.0));
#626=DIRECTION('',(9.77688217253873E-008,0.999999999999995,0.0));
#627=DIRECTION('',(0.0,0.0,1.0));
#628=CARTESIAN_POINT('',(63.0,1.09845770390057E-015,35.0));
#629=DIRECTION('',(0.0,0.0,-1.0));
#630=DIRECTION('',(9.77688217253873E-008,0.999999999999995,0.0));
#631=CARTESIAN_POINT('',(93.0,1.03757263320565E-014,5.5));
#632=DIRECTION('',(-0.0,-0.0,-1.0));
#633=DIRECTION('',(0.0,-1.0,0.0));
#634=DIRECTION('',(-1.0,-0.0,-0.0));
#635=DIRECTION('',(0.0,1.0,0.0));
#636=DIRECTION('',(1.0,0.0,0.0));
#637=DIRECTION('',(0.0,0.0,1.0));
#638=DIRECTION('',(0.0,0.0,-1.0));
#639=DIRECTION('',(0.0,-1.0,0.0));
#640=DIRECTION('',(0.0,0.0,1.0));
#641=DIRECTION('',(0.0,1.0,0.0));
#642=DIRECTION('',(0.0,0.0,1.0));
#643=DIRECTION('',(0.0,-1.0,0.0));
#644=DIRECTION('',(0.0,0.0,-1.0));
#645=DIRECTION('',(0.0,-1.0,0.0));
#646=DIRECTION('',(0.0,0.0,1.0));
#647=DIRECTION('',(0.0,1.0,0.0));
#648=DIRECTION('',(-0.927183854566787,-1.55966797484962E-016,-0.374606593415912));
#649=DIRECTION('',(-0.679904521866933,0.679904521866932,-0.274699257898153));
#650=DIRECTION('',(-0.927183854566787,-3.02844723603049E-016,-0.374606593415912));
#651=DIRECTION('',(0.0,-1.0,0.0));
#652=DIRECTION('',(0.927183854566787,1.63070235786257E-016,0.374606593415912));
#653=DIRECTION('',(0.679904521866932,0.679904521866933,0.274699257898153));
#654=DIRECTION('',(0.927183854566787,1.55966797484962E-016,0.374606593415912));
#655=DIRECTION('',(-1.53526068691013E-017,1.0,-6.20285581005388E-018));
#656=DIRECTION('',(0.707106781186548,-0.707106781186547,-2.600465634695E-016));
#657=DIRECTION('',(1.0,1.6821560979169E-016,-3.67761376907083E-016));
#658=DIRECTION('',(0.0,-1.0,0.0));
#659=DIRECTION('',(-1.0,-1.6821560979169E-016,3.67761376907083E-016));
#660=DIRECTION('',(-0.707106781186547,-0.707106781186548,2.600465634695E-016));
#661=DIRECTION('',(0.0,0.0,1.0));
#662=DIRECTION('',(0.0,-1.0,0.0));
#663=DIRECTION('',(0.0,0.0,-1.0));
#664=DIRECTION('',(0.0,0.0,1.0));
#665=DIRECTION('',(-1.0,-3.26628556042479E-016,0.0));
#666=DIRECTION('',(1.0,3.26628556042479E-016,0.0));
#667=DIRECTION('',(0.0,0.0,1.0));
#668=DIRECTION('',(-1.0,-1.6821560979169E-016,-0.0));
#669=DIRECTION('',(0.0,0.0,1.0));
#670=DIRECTION('',(-0.707106781186548,0.707106781186547,0.0));
#671=DIRECTION('',(0.0,0.0,1.0));
#672=DIRECTION('',(-1.53526068691013E-017,1.0,0.0));
#673=DIRECTION('',(1.0,1.6821560979169E-016,0.0));
#674=DIRECTION('',(1.0,0.0,0.0));
#675=DIRECTION('',(0.707106781186547,0.707106781186548,0.0));
#676=DIRECTION('',(1.0,1.75876914792104E-016,0.0));
#677=DIRECTION('',(-1.0,0.0,0.0));
#678=DIRECTION('',(0.0,0.0,1.0));
#679=DIRECTION('',(1.0,0.0,0.0));
#680=DIRECTION('',(0.0,0.0,1.0));
#681=CARTESIAN_POINT('',(93.0,1.03757263320565E-014,35.0));
#682=DIRECTION('',(-0.0,-0.0,-1.0));
#683=DIRECTION('',(0.0,-1.0,0.0));
#684=DIRECTION('',(-1.0,0.0,0.0));
#685=DIRECTION('',(0.0,0.0,1.0));
#686=DIRECTION('',(0.0,0.0,1.0));
#687=DIRECTION('',(-1.0,-1.75876914792104E-016,-0.0));
ENDSEC;
END-ISO-10303-21;
