ISO-10303-21;
HEADER;
FILE_DESCRIPTION(('STEP AP214'),'1');
FILE_NAME('HALDERN_EH_23150_0035.stp','2017-05-09T08:34:41',('TraceParts'),('TraceParts S.A.'),'Spatial InterOp 3D',' ',' ');
FILE_SCHEMA(('automotive_design'));
ENDSEC;
DATA;
#1=MECHANICAL_DESIGN_GEOMETRIC_PRESENTATION_REPRESENTATION(' ',(#10,#11,#12,#13,#14,#15,#16,#17,#18,#19,#20,#21),#6);
#2=PRODUCT_DEFINITION_CONTEXT('',#22,'design');
#3=APPLICATION_PROTOCOL_DEFINITION('INTERNATIONAL STANDARD','automotive_design',1994,#22);
#4=PRODUCT_CATEGORY_RELATIONSHIP('NONE','NONE',#23,#24);
#5=SHAPE_DEFINITION_REPRESENTATION(#25,#26);
#6= (GEOMETRIC_REPRESENTATION_CONTEXT(3)GLOBAL_UNCERTAINTY_ASSIGNED_CONTEXT((#29))GLOBAL_UNIT_ASSIGNED_CONTEXT((#31,#32,#33))REPRESENTATION_CONTEXT('NONE','WORKSPACE'));
#10=STYLED_ITEM('',(#35),#36);
#11=STYLED_ITEM('',(#37),#38);
#12=STYLED_ITEM('',(#39),#40);
#13=STYLED_ITEM('',(#41),#42);
#14=STYLED_ITEM('',(#43),#44);
#15=STYLED_ITEM('',(#45),#46);
#16=STYLED_ITEM('',(#47),#48);
#17=STYLED_ITEM('',(#49),#50);
#18=STYLED_ITEM('',(#51),#52);
#19=STYLED_ITEM('',(#53),#54);
#20=STYLED_ITEM('',(#55),#56);
#21=STYLED_ITEM('',(#57),#58);
#22=APPLICATION_CONTEXT(' ');
#23=PRODUCT_CATEGORY('part','NONE');
#24=PRODUCT_RELATED_PRODUCT_CATEGORY('detail',' ',(#59));
#25=PRODUCT_DEFINITION_SHAPE('NONE','NONE',#60);
#26=ADVANCED_BREP_SHAPE_REPRESENTATION('HALDERN_EH_23150_0035',(#61,#62),#6);
#29=UNCERTAINTY_MEASURE_WITH_UNIT(LENGTH_MEASURE(1.0E-006),#31,'','');
#31= (CONVERSION_BASED_UNIT('MILLIMETRE',#65)LENGTH_UNIT()NAMED_UNIT(#68));
#32= (NAMED_UNIT(#70)PLANE_ANGLE_UNIT()SI_UNIT($,.RADIAN.));
#33= (NAMED_UNIT(#70)SOLID_ANGLE_UNIT()SI_UNIT($,.STERADIAN.));
#35=PRESENTATION_STYLE_ASSIGNMENT((#76));
#36=ADVANCED_FACE('',(#77),#78,.F.);
#37=PRESENTATION_STYLE_ASSIGNMENT((#79));
#38=ADVANCED_FACE('',(#80),#81,.F.);
#39=PRESENTATION_STYLE_ASSIGNMENT((#82));
#40=ADVANCED_FACE('',(#83),#84,.F.);
#41=PRESENTATION_STYLE_ASSIGNMENT((#85));
#42=ADVANCED_FACE('',(#86),#87,.T.);
#43=PRESENTATION_STYLE_ASSIGNMENT((#88));
#44=ADVANCED_FACE('',(#89),#90,.F.);
#45=PRESENTATION_STYLE_ASSIGNMENT((#91));
#46=ADVANCED_FACE('',(#92),#93,.F.);
#47=PRESENTATION_STYLE_ASSIGNMENT((#94));
#48=ADVANCED_FACE('',(#95),#96,.F.);
#49=PRESENTATION_STYLE_ASSIGNMENT((#97));
#50=ADVANCED_FACE('',(#98),#99,.F.);
#51=PRESENTATION_STYLE_ASSIGNMENT((#100));
#52=ADVANCED_FACE('',(#101),#102,.F.);
#53=PRESENTATION_STYLE_ASSIGNMENT((#103));
#54=ADVANCED_FACE('',(#104),#105,.T.);
#55=PRESENTATION_STYLE_ASSIGNMENT((#106));
#56=ADVANCED_FACE('',(#107),#108,.T.);
#57=PRESENTATION_STYLE_ASSIGNMENT((#109));
#58=ADVANCED_FACE('',(#110),#111,.T.);
#59=PRODUCT('HALDERN_EH_23150_0035','HALDERN_EH_23150_0035','PART-HALDERN_EH_23150_0035-DESC',(#112));
#60=PRODUCT_DEFINITION('NONE','NONE',#113,#2);
#61=MANIFOLD_SOLID_BREP('HALDERN_EH_23150_0035',#114);
#62=AXIS2_PLACEMENT_3D('',#115,#116,#117);
#65=LENGTH_MEASURE_WITH_UNIT(LENGTH_MEASURE(1.0),#118);
#68=DIMENSIONAL_EXPONENTS(1.0,0.0,0.0,0.0,0.0,0.0,0.0);
#70=DIMENSIONAL_EXPONENTS(0.0,0.0,0.0,0.0,0.0,0.0,0.0);
#76=SURFACE_STYLE_USAGE(.BOTH.,#119);
#77=FACE_OUTER_BOUND('',#120,.T.);
#78=PLANE('',#121);
#79=SURFACE_STYLE_USAGE(.BOTH.,#122);
#80=FACE_OUTER_BOUND('',#123,.T.);
#81=PLANE('',#124);
#82=SURFACE_STYLE_USAGE(.BOTH.,#125);
#83=FACE_OUTER_BOUND('',#126,.T.);
#84=PLANE('',#127);
#85=SURFACE_STYLE_USAGE(.BOTH.,#128);
#86=FACE_OUTER_BOUND('',#129,.T.);
#87=CYLINDRICAL_SURFACE('',#130,37.0);
#88=SURFACE_STYLE_USAGE(.BOTH.,#131);
#89=FACE_OUTER_BOUND('',#132,.T.);
#90=PLANE('',#133);
#91=SURFACE_STYLE_USAGE(.BOTH.,#134);
#92=FACE_OUTER_BOUND('',#135,.T.);
#93=PLANE('',#136);
#94=SURFACE_STYLE_USAGE(.BOTH.,#137);
#95=FACE_OUTER_BOUND('',#138,.T.);
#96=PLANE('',#139);
#97=SURFACE_STYLE_USAGE(.BOTH.,#140);
#98=FACE_OUTER_BOUND('',#141,.T.);
#99=CYLINDRICAL_SURFACE('',#142,16.5);
#100=SURFACE_STYLE_USAGE(.BOTH.,#143);
#101=FACE_OUTER_BOUND('',#144,.T.);
#102=PLANE('',#145);
#103=SURFACE_STYLE_USAGE(.BOTH.,#146);
#104=FACE_OUTER_BOUND('',#147,.T.);
#105=PLANE('',#148);
#106=SURFACE_STYLE_USAGE(.BOTH.,#149);
#107=FACE_OUTER_BOUND('',#150,.T.);
#108=PLANE('',#151);
#109=SURFACE_STYLE_USAGE(.BOTH.,#152);
#110=FACE_OUTER_BOUND('',#153,.T.);
#111=PLANE('',#154);
#112=PRODUCT_CONTEXT('',#22,'mechanical');
#113=PRODUCT_DEFINITION_FORMATION_WITH_SPECIFIED_SOURCE(' ','NONE',#59,.NOT_KNOWN.);
#114=CLOSED_SHELL('',(#36,#38,#40,#42,#44,#46,#48,#50,#52,#54,#56,#58));
#115=CARTESIAN_POINT('',(0.0,0.0,0.0));
#116=DIRECTION('',(0.0,0.0,1.0));
#117=DIRECTION('',(1.0,0.0,0.0));
#118= (NAMED_UNIT(#68)LENGTH_UNIT()SI_UNIT(.MILLI.,.METRE.));
#119=SURFACE_SIDE_STYLE('',(#156));
#120=EDGE_LOOP('',(#157,#158,#159,#160,#161));
#121=AXIS2_PLACEMENT_3D('',#162,#163,#164);
#122=SURFACE_SIDE_STYLE('',(#165));
#123=EDGE_LOOP('',(#166,#167,#168,#169));
#124=AXIS2_PLACEMENT_3D('',#170,#171,#172);
#125=SURFACE_SIDE_STYLE('',(#173));
#126=EDGE_LOOP('',(#174,#175,#176,#177,#178));
#127=AXIS2_PLACEMENT_3D('',#179,#180,#181);
#128=SURFACE_SIDE_STYLE('',(#182));
#129=EDGE_LOOP('',(#183,#184,#185,#186));
#130=AXIS2_PLACEMENT_3D('',#187,#188,#189);
#131=SURFACE_SIDE_STYLE('',(#190));
#132=EDGE_LOOP('',(#191,#192,#193,#194,#195));
#133=AXIS2_PLACEMENT_3D('',#196,#197,#198);
#134=SURFACE_SIDE_STYLE('',(#199));
#135=EDGE_LOOP('',(#200,#201,#202,#203));
#136=AXIS2_PLACEMENT_3D('',#204,#205,#206);
#137=SURFACE_SIDE_STYLE('',(#207));
#138=EDGE_LOOP('',(#208,#209,#210,#211,#212));
#139=AXIS2_PLACEMENT_3D('',#213,#214,#215);
#140=SURFACE_SIDE_STYLE('',(#216));
#141=EDGE_LOOP('',(#217,#218,#219,#220));
#142=AXIS2_PLACEMENT_3D('',#221,#222,#223);
#143=SURFACE_SIDE_STYLE('',(#224));
#144=EDGE_LOOP('',(#225,#226,#227,#228,#229,#230,#231,#232));
#145=AXIS2_PLACEMENT_3D('',#233,#234,#235);
#146=SURFACE_SIDE_STYLE('',(#236));
#147=EDGE_LOOP('',(#237,#238,#239,#240,#241,#242,#243,#244));
#148=AXIS2_PLACEMENT_3D('',#245,#246,#247);
#149=SURFACE_SIDE_STYLE('',(#248));
#150=EDGE_LOOP('',(#249,#250,#251,#252));
#151=AXIS2_PLACEMENT_3D('',#253,#254,#255);
#152=SURFACE_SIDE_STYLE('',(#256));
#153=EDGE_LOOP('',(#257,#258,#259,#260));
#154=AXIS2_PLACEMENT_3D('',#261,#262,#263);
#156=SURFACE_STYLE_FILL_AREA(#264);
#157=ORIENTED_EDGE('',*,*,#265,.F.);
#158=ORIENTED_EDGE('',*,*,#266,.F.);
#159=ORIENTED_EDGE('',*,*,#267,.T.);
#160=ORIENTED_EDGE('',*,*,#268,.T.);
#161=ORIENTED_EDGE('',*,*,#269,.F.);
#162=CARTESIAN_POINT('',(278.0,50.0,16.5));
#163=DIRECTION('',(0.0,-0.0,1.0));
#164=DIRECTION('',(1.0,0.0,-0.0));
#165=SURFACE_STYLE_FILL_AREA(#270);
#166=ORIENTED_EDGE('',*,*,#271,.T.);
#167=ORIENTED_EDGE('',*,*,#269,.T.);
#168=ORIENTED_EDGE('',*,*,#272,.T.);
#169=ORIENTED_EDGE('',*,*,#273,.F.);
#170=CARTESIAN_POINT('',(0.0,50.0,16.5));
#171=DIRECTION('',(1.0,0.0,0.0));
#172=DIRECTION('',(0.0,0.0,-1.0));
#173=SURFACE_STYLE_FILL_AREA(#274);
#174=ORIENTED_EDGE('',*,*,#275,.F.);
#175=ORIENTED_EDGE('',*,*,#273,.T.);
#176=ORIENTED_EDGE('',*,*,#276,.T.);
#177=ORIENTED_EDGE('',*,*,#277,.F.);
#178=ORIENTED_EDGE('',*,*,#278,.F.);
#179=CARTESIAN_POINT('',(0.0,50.0,37.0));
#180=DIRECTION('',(0.0,0.0,-1.0));
#181=DIRECTION('',(-1.0,0.0,0.0));
#182=SURFACE_STYLE_FILL_AREA(#279);
#183=ORIENTED_EDGE('',*,*,#280,.T.);
#184=ORIENTED_EDGE('',*,*,#281,.F.);
#185=ORIENTED_EDGE('',*,*,#282,.F.);
#186=ORIENTED_EDGE('',*,*,#277,.T.);
#187=CARTESIAN_POINT('',(278.0,50.0,-3.46944695195361E-015));
#188=DIRECTION('',(0.0,1.0,0.0));
#189=DIRECTION('',(0.0,0.0,-1.0));
#190=SURFACE_STYLE_FILL_AREA(#283);
#191=ORIENTED_EDGE('',*,*,#284,.T.);
#192=ORIENTED_EDGE('',*,*,#285,.F.);
#193=ORIENTED_EDGE('',*,*,#281,.T.);
#194=ORIENTED_EDGE('',*,*,#286,.T.);
#195=ORIENTED_EDGE('',*,*,#287,.F.);
#196=CARTESIAN_POINT('',(278.0,50.0,-37.0));
#197=DIRECTION('',(0.0,-0.0,1.0));
#198=DIRECTION('',(1.0,0.0,-0.0));
#199=SURFACE_STYLE_FILL_AREA(#288);
#200=ORIENTED_EDGE('',*,*,#289,.T.);
#201=ORIENTED_EDGE('',*,*,#287,.T.);
#202=ORIENTED_EDGE('',*,*,#290,.T.);
#203=ORIENTED_EDGE('',*,*,#291,.F.);
#204=CARTESIAN_POINT('',(0.0,50.0,-37.0));
#205=DIRECTION('',(1.0,0.0,0.0));
#206=DIRECTION('',(0.0,0.0,-1.0));
#207=SURFACE_STYLE_FILL_AREA(#292);
#208=ORIENTED_EDGE('',*,*,#293,.F.);
#209=ORIENTED_EDGE('',*,*,#291,.T.);
#210=ORIENTED_EDGE('',*,*,#294,.T.);
#211=ORIENTED_EDGE('',*,*,#295,.F.);
#212=ORIENTED_EDGE('',*,*,#296,.F.);
#213=CARTESIAN_POINT('',(0.0,50.0,-16.5));
#214=DIRECTION('',(0.0,0.0,-1.0));
#215=DIRECTION('',(-1.0,0.0,0.0));
#216=SURFACE_STYLE_FILL_AREA(#297);
#217=ORIENTED_EDGE('',*,*,#298,.F.);
#218=ORIENTED_EDGE('',*,*,#267,.F.);
#219=ORIENTED_EDGE('',*,*,#299,.T.);
#220=ORIENTED_EDGE('',*,*,#295,.T.);
#221=CARTESIAN_POINT('',(278.0,50.0,1.73472347597681E-015));
#222=DIRECTION('',(0.0,1.0,0.0));
#223=DIRECTION('',(0.0,0.0,-1.0));
#224=SURFACE_STYLE_FILL_AREA(#300);
#225=ORIENTED_EDGE('',*,*,#268,.F.);
#226=ORIENTED_EDGE('',*,*,#298,.T.);
#227=ORIENTED_EDGE('',*,*,#294,.F.);
#228=ORIENTED_EDGE('',*,*,#290,.F.);
#229=ORIENTED_EDGE('',*,*,#286,.F.);
#230=ORIENTED_EDGE('',*,*,#280,.F.);
#231=ORIENTED_EDGE('',*,*,#276,.F.);
#232=ORIENTED_EDGE('',*,*,#272,.F.);
#233=CARTESIAN_POINT('',(278.0,0.0,-3.46944695195361E-015));
#234=DIRECTION('',(0.0,1.0,0.0));
#235=DIRECTION('',(0.0,-0.0,1.0));
#236=SURFACE_STYLE_FILL_AREA(#301);
#237=ORIENTED_EDGE('',*,*,#285,.T.);
#238=ORIENTED_EDGE('',*,*,#302,.T.);
#239=ORIENTED_EDGE('',*,*,#296,.T.);
#240=ORIENTED_EDGE('',*,*,#299,.F.);
#241=ORIENTED_EDGE('',*,*,#266,.T.);
#242=ORIENTED_EDGE('',*,*,#303,.F.);
#243=ORIENTED_EDGE('',*,*,#278,.T.);
#244=ORIENTED_EDGE('',*,*,#282,.T.);
#245=CARTESIAN_POINT('',(278.0,50.0,-3.46944695195361E-015));
#246=DIRECTION('',(0.0,1.0,0.0));
#247=DIRECTION('',(0.0,-0.0,1.0));
#248=SURFACE_STYLE_FILL_AREA(#304);
#249=ORIENTED_EDGE('',*,*,#265,.T.);
#250=ORIENTED_EDGE('',*,*,#271,.F.);
#251=ORIENTED_EDGE('',*,*,#275,.T.);
#252=ORIENTED_EDGE('',*,*,#303,.T.);
#253=CARTESIAN_POINT('',(0.0,12.0,37.0));
#254=DIRECTION('',(-0.707106781186548,0.707106781186547,0.0));
#255=DIRECTION('',(-0.707106781186547,-0.707106781186548,0.0));
#256=SURFACE_STYLE_FILL_AREA(#305);
#257=ORIENTED_EDGE('',*,*,#293,.T.);
#258=ORIENTED_EDGE('',*,*,#302,.F.);
#259=ORIENTED_EDGE('',*,*,#284,.F.);
#260=ORIENTED_EDGE('',*,*,#289,.F.);
#261=CARTESIAN_POINT('',(0.0,12.0,37.0));
#262=DIRECTION('',(-0.707106781186548,0.707106781186547,0.0));
#263=DIRECTION('',(-0.707106781186547,-0.707106781186548,0.0));
#264=FILL_AREA_STYLE('',(#306));
#265=EDGE_CURVE('',#307,#308,#309,.T.);
#266=EDGE_CURVE('',#310,#307,#311,.T.);
#267=EDGE_CURVE('',#310,#312,#313,.T.);
#268=EDGE_CURVE('',#312,#314,#315,.T.);
#269=EDGE_CURVE('',#308,#314,#316,.T.);
#270=FILL_AREA_STYLE('',(#317));
#271=EDGE_CURVE('',#318,#308,#319,.T.);
#272=EDGE_CURVE('',#314,#320,#321,.T.);
#273=EDGE_CURVE('',#318,#320,#322,.T.);
#274=FILL_AREA_STYLE('',(#323));
#275=EDGE_CURVE('',#318,#324,#325,.T.);
#276=EDGE_CURVE('',#320,#326,#327,.T.);
#277=EDGE_CURVE('',#328,#326,#329,.T.);
#278=EDGE_CURVE('',#324,#328,#330,.T.);
#279=FILL_AREA_STYLE('',(#331));
#280=EDGE_CURVE('',#326,#332,#333,.T.);
#281=EDGE_CURVE('',#334,#332,#335,.T.);
#282=EDGE_CURVE('',#328,#334,#336,.T.);
#283=FILL_AREA_STYLE('',(#337));
#284=EDGE_CURVE('',#338,#339,#340,.T.);
#285=EDGE_CURVE('',#334,#339,#341,.T.);
#286=EDGE_CURVE('',#332,#342,#343,.T.);
#287=EDGE_CURVE('',#338,#342,#344,.T.);
#288=FILL_AREA_STYLE('',(#345));
#289=EDGE_CURVE('',#346,#338,#347,.T.);
#290=EDGE_CURVE('',#342,#348,#349,.T.);
#291=EDGE_CURVE('',#346,#348,#350,.T.);
#292=FILL_AREA_STYLE('',(#351));
#293=EDGE_CURVE('',#346,#352,#353,.T.);
#294=EDGE_CURVE('',#348,#354,#355,.T.);
#295=EDGE_CURVE('',#356,#354,#357,.T.);
#296=EDGE_CURVE('',#352,#356,#358,.T.);
#297=FILL_AREA_STYLE('',(#359));
#298=EDGE_CURVE('',#312,#354,#360,.T.);
#299=EDGE_CURVE('',#310,#356,#361,.T.);
#300=FILL_AREA_STYLE('',(#362));
#301=FILL_AREA_STYLE('',(#363));
#302=EDGE_CURVE('',#339,#352,#364,.T.);
#303=EDGE_CURVE('',#324,#307,#365,.T.);
#304=FILL_AREA_STYLE('',(#366));
#305=FILL_AREA_STYLE('',(#367));
#306=FILL_AREA_STYLE_COLOUR('',#368);
#307=VERTEX_POINT('',#369);
#308=VERTEX_POINT('',#370);
#309=LINE('',#371,#372);
#310=VERTEX_POINT('',#373);
#311=LINE('',#374,#375);
#312=VERTEX_POINT('',#376);
#313=LINE('',#377,#378);
#314=VERTEX_POINT('',#379);
#315=LINE('',#380,#381);
#316=LINE('',#382,#383);
#317=FILL_AREA_STYLE_COLOUR('',#384);
#318=VERTEX_POINT('',#385);
#319=LINE('',#386,#387);
#320=VERTEX_POINT('',#388);
#321=LINE('',#389,#390);
#322=LINE('',#391,#392);
#323=FILL_AREA_STYLE_COLOUR('',#393);
#324=VERTEX_POINT('',#394);
#325=LINE('',#395,#396);
#326=VERTEX_POINT('',#397);
#327=LINE('',#398,#399);
#328=VERTEX_POINT('',#400);
#329=LINE('',#401,#402);
#330=LINE('',#403,#404);
#331=FILL_AREA_STYLE_COLOUR('',#405);
#332=VERTEX_POINT('',#406);
#333=CIRCLE('',#407,37.0);
#334=VERTEX_POINT('',#408);
#335=LINE('',#409,#410);
#336=CIRCLE('',#411,37.0);
#337=FILL_AREA_STYLE_COLOUR('',#412);
#338=VERTEX_POINT('',#413);
#339=VERTEX_POINT('',#414);
#340=LINE('',#415,#416);
#341=LINE('',#417,#418);
#342=VERTEX_POINT('',#419);
#343=LINE('',#420,#421);
#344=LINE('',#422,#423);
#345=FILL_AREA_STYLE_COLOUR('',#424);
#346=VERTEX_POINT('',#425);
#347=LINE('',#426,#427);
#348=VERTEX_POINT('',#428);
#349=LINE('',#429,#430);
#350=LINE('',#431,#432);
#351=FILL_AREA_STYLE_COLOUR('',#433);
#352=VERTEX_POINT('',#434);
#353=LINE('',#435,#436);
#354=VERTEX_POINT('',#437);
#355=LINE('',#438,#439);
#356=VERTEX_POINT('',#440);
#357=LINE('',#441,#442);
#358=LINE('',#443,#444);
#359=FILL_AREA_STYLE_COLOUR('',#445);
#360=CIRCLE('',#446,16.5);
#361=CIRCLE('',#447,16.5);
#362=FILL_AREA_STYLE_COLOUR('',#448);
#363=FILL_AREA_STYLE_COLOUR('',#449);
#364=LINE('',#450,#451);
#365=LINE('',#452,#453);
#366=FILL_AREA_STYLE_COLOUR('',#454);
#367=FILL_AREA_STYLE_COLOUR('',#455);
#368=COLOUR_RGB('',0.689999997615814,0.689999997615814,0.689999997615814);
#369=CARTESIAN_POINT('',(38.0,50.0,16.5));
#370=CARTESIAN_POINT('',(0.0,12.0,16.5));
#371=CARTESIAN_POINT('',(158.0,170.0,16.5));
#372=VECTOR('',#456,1000.0);
#373=CARTESIAN_POINT('',(278.0,50.0,16.5));
#374=CARTESIAN_POINT('',(278.0,50.0,16.5));
#375=VECTOR('',#457,1000.0);
#376=CARTESIAN_POINT('',(278.0,0.0,16.5));
#377=CARTESIAN_POINT('',(278.0,50.0,16.5));
#378=VECTOR('',#458,1000.0);
#379=CARTESIAN_POINT('',(0.0,0.0,16.5));
#380=CARTESIAN_POINT('',(278.0,0.0,16.5));
#381=VECTOR('',#459,1000.0);
#382=CARTESIAN_POINT('',(0.0,50.0,16.5));
#383=VECTOR('',#460,1000.0);
#384=COLOUR_RGB('',0.689999997615814,0.689999997615814,0.689999997615814);
#385=CARTESIAN_POINT('',(0.0,12.0,37.0));
#386=CARTESIAN_POINT('',(0.0,12.0,37.0));
#387=VECTOR('',#461,1000.0);
#388=CARTESIAN_POINT('',(0.0,0.0,37.0));
#389=CARTESIAN_POINT('',(0.0,0.0,16.5));
#390=VECTOR('',#462,1000.0);
#391=CARTESIAN_POINT('',(0.0,50.0,37.0));
#392=VECTOR('',#463,1000.0);
#393=COLOUR_RGB('',0.689999997615814,0.689999997615814,0.689999997615814);
#394=CARTESIAN_POINT('',(38.0,50.0,37.0));
#395=CARTESIAN_POINT('',(0.0,12.0,37.0));
#396=VECTOR('',#464,1000.0);
#397=CARTESIAN_POINT('',(278.0,0.0,37.0));
#398=CARTESIAN_POINT('',(0.0,0.0,37.0));
#399=VECTOR('',#465,1000.0);
#400=CARTESIAN_POINT('',(278.0,50.0,37.0));
#401=CARTESIAN_POINT('',(278.0,50.0,37.0));
#402=VECTOR('',#466,1000.0);
#403=CARTESIAN_POINT('',(0.0,50.0,37.0));
#404=VECTOR('',#467,1000.0);
#405=COLOUR_RGB('',0.689999997615814,0.689999997615814,0.689999997615814);
#406=CARTESIAN_POINT('',(278.0,0.0,-37.0));
#407=AXIS2_PLACEMENT_3D('',#468,#469,#470);
#408=CARTESIAN_POINT('',(278.0,50.0,-37.0));
#409=CARTESIAN_POINT('',(278.0,50.0,-37.0));
#410=VECTOR('',#471,1000.0);
#411=AXIS2_PLACEMENT_3D('',#472,#473,#474);
#412=COLOUR_RGB('',0.689999997615814,0.689999997615814,0.689999997615814);
#413=CARTESIAN_POINT('',(0.0,12.0,-37.0));
#414=CARTESIAN_POINT('',(38.0,50.0,-37.0));
#415=CARTESIAN_POINT('',(0.0,12.0,-37.0));
#416=VECTOR('',#475,1000.0);
#417=CARTESIAN_POINT('',(278.0,50.0,-37.0));
#418=VECTOR('',#476,1000.0);
#419=CARTESIAN_POINT('',(0.0,0.0,-37.0));
#420=CARTESIAN_POINT('',(278.0,0.0,-37.0));
#421=VECTOR('',#477,1000.0);
#422=CARTESIAN_POINT('',(0.0,50.0,-37.0));
#423=VECTOR('',#478,1000.0);
#424=COLOUR_RGB('',0.689999997615814,0.689999997615814,0.689999997615814);
#425=CARTESIAN_POINT('',(0.0,12.0,-16.5));
#426=CARTESIAN_POINT('',(0.0,12.0,37.0));
#427=VECTOR('',#479,1000.0);
#428=CARTESIAN_POINT('',(0.0,0.0,-16.5));
#429=CARTESIAN_POINT('',(0.0,0.0,-37.0));
#430=VECTOR('',#480,1000.0);
#431=CARTESIAN_POINT('',(0.0,50.0,-16.5));
#432=VECTOR('',#481,1000.0);
#433=COLOUR_RGB('',0.689999997615814,0.689999997615814,0.689999997615814);
#434=CARTESIAN_POINT('',(38.0,50.0,-16.5));
#435=CARTESIAN_POINT('',(19.0,31.0,-16.5));
#436=VECTOR('',#482,1000.0);
#437=CARTESIAN_POINT('',(278.0,0.0,-16.5));
#438=CARTESIAN_POINT('',(0.0,0.0,-16.5));
#439=VECTOR('',#483,1000.0);
#440=CARTESIAN_POINT('',(278.0,50.0,-16.5));
#441=CARTESIAN_POINT('',(278.0,50.0,-16.5));
#442=VECTOR('',#484,1000.0);
#443=CARTESIAN_POINT('',(0.0,50.0,-16.5));
#444=VECTOR('',#485,1000.0);
#445=COLOUR_RGB('',0.689999997615814,0.689999997615814,0.689999997615814);
#446=AXIS2_PLACEMENT_3D('',#486,#487,#488);
#447=AXIS2_PLACEMENT_3D('',#489,#490,#491);
#448=COLOUR_RGB('',0.689999997615814,0.689999997615814,0.689999997615814);
#449=COLOUR_RGB('',0.689999997615814,0.689999997615814,0.689999997615814);
#450=CARTESIAN_POINT('',(38.0,50.0,-3.46944695195361E-015));
#451=VECTOR('',#492,1000.0);
#452=CARTESIAN_POINT('',(38.0,50.0,37.0));
#453=VECTOR('',#493,1000.0);
#454=COLOUR_RGB('',0.689999997615814,0.689999997615814,0.689999997615814);
#455=COLOUR_RGB('',0.689999997615814,0.689999997615814,0.689999997615814);
#456=DIRECTION('',(-0.707106781186547,-0.707106781186548,0.0));
#457=DIRECTION('',(-1.0,0.0,0.0));
#458=DIRECTION('',(-0.0,-1.0,-0.0));
#459=DIRECTION('',(-1.0,0.0,0.0));
#460=DIRECTION('',(-0.0,-1.0,-0.0));
#461=DIRECTION('',(-0.0,-0.0,-1.0));
#462=DIRECTION('',(0.0,0.0,1.0));
#463=DIRECTION('',(-0.0,-1.0,-0.0));
#464=DIRECTION('',(0.707106781186547,0.707106781186548,0.0));
#465=DIRECTION('',(1.0,0.0,0.0));
#466=DIRECTION('',(-0.0,-1.0,-0.0));
#467=DIRECTION('',(1.0,0.0,0.0));
#468=CARTESIAN_POINT('',(278.0,0.0,-3.46944695195361E-015));
#469=DIRECTION('',(-0.0,1.0,0.0));
#470=DIRECTION('',(1.0,0.0,0.0));
#471=DIRECTION('',(-0.0,-1.0,-0.0));
#472=CARTESIAN_POINT('',(278.0,50.0,-3.46944695195361E-015));
#473=DIRECTION('',(-0.0,1.0,0.0));
#474=DIRECTION('',(1.0,0.0,0.0));
#475=DIRECTION('',(0.707106781186547,0.707106781186548,0.0));
#476=DIRECTION('',(-1.0,0.0,0.0));
#477=DIRECTION('',(-1.0,0.0,0.0));
#478=DIRECTION('',(-0.0,-1.0,-0.0));
#479=DIRECTION('',(-0.0,-0.0,-1.0));
#480=DIRECTION('',(0.0,0.0,1.0));
#481=DIRECTION('',(-0.0,-1.0,-0.0));
#482=DIRECTION('',(0.707106781186547,0.707106781186548,0.0));
#483=DIRECTION('',(1.0,0.0,0.0));
#484=DIRECTION('',(-0.0,-1.0,-0.0));
#485=DIRECTION('',(1.0,0.0,0.0));
#486=CARTESIAN_POINT('',(278.0,0.0,1.73472347597681E-015));
#487=DIRECTION('',(-0.0,1.0,0.0));
#488=DIRECTION('',(1.0,0.0,0.0));
#489=CARTESIAN_POINT('',(278.0,50.0,1.73472347597681E-015));
#490=DIRECTION('',(-0.0,1.0,0.0));
#491=DIRECTION('',(1.0,0.0,0.0));
#492=DIRECTION('',(0.0,-0.0,1.0));
#493=DIRECTION('',(-0.0,-0.0,-1.0));
ENDSEC;
END-ISO-10303-21;
