ISO-10303-21;
HEADER;
FILE_DESCRIPTION(('STEP AP214'),'1');
FILE_NAME('C:/Temp/output/halder/CAD/Temp/HALDERN_EH_23111_0814.stp','2015-05-04T09:25:16',('TraceParts'),('TraceParts S.A.'),'Spatial InterOp 3D',' ',' ');
FILE_SCHEMA(('automotive_design'));
ENDSEC;
DATA;
#1=MECHANICAL_DESIGN_GEOMETRIC_PRESENTATION_REPRESENTATION(' ',(#10,#11,#12,#13,#14,#15,#16,#17,#18,#19,#20,#21,#22,#23),#6);
#2=PRODUCT_DEFINITION_CONTEXT('',#24,'design');
#3=APPLICATION_PROTOCOL_DEFINITION('INTERNATIONAL STANDARD','automotive_design',1994,#24);
#4=PRODUCT_CATEGORY_RELATIONSHIP('NONE','NONE',#25,#26);
#5=SHAPE_DEFINITION_REPRESENTATION(#27,#28);
#6= (GEOMETRIC_REPRESENTATION_CONTEXT(3)GLOBAL_UNCERTAINTY_ASSIGNED_CONTEXT((#31))GLOBAL_UNIT_ASSIGNED_CONTEXT((#33,#34,#35))REPRESENTATION_CONTEXT('NONE','WORKSPACE'));
#10=STYLED_ITEM('',(#37),#38);
#11=STYLED_ITEM('',(#39),#40);
#12=STYLED_ITEM('',(#41),#42);
#13=STYLED_ITEM('',(#43),#44);
#14=STYLED_ITEM('',(#45),#46);
#15=STYLED_ITEM('',(#47),#48);
#16=STYLED_ITEM('',(#49),#50);
#17=STYLED_ITEM('',(#51),#52);
#18=STYLED_ITEM('',(#53),#54);
#19=STYLED_ITEM('',(#55),#56);
#20=STYLED_ITEM('',(#57),#58);
#21=STYLED_ITEM('',(#59),#60);
#22=STYLED_ITEM('',(#61),#62);
#23=STYLED_ITEM('',(#63),#64);
#24=APPLICATION_CONTEXT(' ');
#25=PRODUCT_CATEGORY('part','NONE');
#26=PRODUCT_RELATED_PRODUCT_CATEGORY('detail',' ',(#65));
#27=PRODUCT_DEFINITION_SHAPE('NONE','NONE',#66);
#28=ADVANCED_BREP_SHAPE_REPRESENTATION('1',(#67,#68),#6);
#31=UNCERTAINTY_MEASURE_WITH_UNIT(LENGTH_MEASURE(1.0E-006),#33,'','');
#33= (CONVERSION_BASED_UNIT('MILLIMETRE',#71)LENGTH_UNIT()NAMED_UNIT(#74));
#34= (NAMED_UNIT(#76)PLANE_ANGLE_UNIT()SI_UNIT($,.RADIAN.));
#35= (NAMED_UNIT(#76)SOLID_ANGLE_UNIT()SI_UNIT($,.STERADIAN.));
#37=PRESENTATION_STYLE_ASSIGNMENT((#82));
#38=ADVANCED_FACE('',(#83),#84,.T.);
#39=PRESENTATION_STYLE_ASSIGNMENT((#85));
#40=ADVANCED_FACE('',(#86),#87,.T.);
#41=PRESENTATION_STYLE_ASSIGNMENT((#88));
#42=ADVANCED_FACE('',(#89,#90),#91,.T.);
#43=PRESENTATION_STYLE_ASSIGNMENT((#92));
#44=ADVANCED_FACE('',(#93),#94,.F.);
#45=PRESENTATION_STYLE_ASSIGNMENT((#95));
#46=ADVANCED_FACE('',(#96),#97,.F.);
#47=PRESENTATION_STYLE_ASSIGNMENT((#98));
#48=ADVANCED_FACE('',(#99),#100,.F.);
#49=PRESENTATION_STYLE_ASSIGNMENT((#101));
#50=ADVANCED_FACE('',(#102),#103,.T.);
#51=PRESENTATION_STYLE_ASSIGNMENT((#104));
#52=ADVANCED_FACE('',(#105),#106,.T.);
#53=PRESENTATION_STYLE_ASSIGNMENT((#107));
#54=ADVANCED_FACE('',(#108),#109,.F.);
#55=PRESENTATION_STYLE_ASSIGNMENT((#110));
#56=ADVANCED_FACE('',(#111),#112,.T.);
#57=PRESENTATION_STYLE_ASSIGNMENT((#113));
#58=ADVANCED_FACE('',(#114),#115,.F.);
#59=PRESENTATION_STYLE_ASSIGNMENT((#116));
#60=ADVANCED_FACE('',(#117),#118,.T.);
#61=PRESENTATION_STYLE_ASSIGNMENT((#119));
#62=ADVANCED_FACE('',(#120,#121),#122,.T.);
#63=PRESENTATION_STYLE_ASSIGNMENT((#123));
#64=ADVANCED_FACE('',(#124),#125,.F.);
#65=PRODUCT('1','1','PART-1-DESC',(#126));
#66=PRODUCT_DEFINITION('NONE','NONE',#127,#2);
#67=MANIFOLD_SOLID_BREP('1',#128);
#68=AXIS2_PLACEMENT_3D('',#129,#130,#131);
#71=LENGTH_MEASURE_WITH_UNIT(LENGTH_MEASURE(1.0),#132);
#74=DIMENSIONAL_EXPONENTS(1.0,0.0,0.0,0.0,0.0,0.0,0.0);
#76=DIMENSIONAL_EXPONENTS(0.0,0.0,0.0,0.0,0.0,0.0,0.0);
#82=SURFACE_STYLE_USAGE(.BOTH.,#133);
#83=FACE_OUTER_BOUND('',#134,.T.);
#84=CONICAL_SURFACE('',#135,22.05,0.785398163397448);
#85=SURFACE_STYLE_USAGE(.BOTH.,#136);
#86=FACE_OUTER_BOUND('',#137,.T.);
#87=CONICAL_SURFACE('',#138,22.05,0.785398163397448);
#88=SURFACE_STYLE_USAGE(.BOTH.,#139);
#89=FACE_BOUND('',#140,.T.);
#90=FACE_OUTER_BOUND('',#141,.T.);
#91=PLANE('',#142);
#92=SURFACE_STYLE_USAGE(.BOTH.,#143);
#93=FACE_OUTER_BOUND('',#144,.T.);
#94=CONICAL_SURFACE('',#145,15.3,0.785398163397447);
#95=SURFACE_STYLE_USAGE(.BOTH.,#146);
#96=FACE_OUTER_BOUND('',#147,.T.);
#97=CONICAL_SURFACE('',#148,15.3,0.785398163397448);
#98=SURFACE_STYLE_USAGE(.BOTH.,#149);
#99=FACE_OUTER_BOUND('',#150,.T.);
#100=CYLINDRICAL_SURFACE('',#151,15.0);
#101=SURFACE_STYLE_USAGE(.BOTH.,#152);
#102=FACE_OUTER_BOUND('',#153,.T.);
#103=CONICAL_SURFACE('',#154,22.05,0.785398163397448);
#104=SURFACE_STYLE_USAGE(.BOTH.,#155);
#105=FACE_OUTER_BOUND('',#156,.T.);
#106=CYLINDRICAL_SURFACE('',#157,22.5);
#107=SURFACE_STYLE_USAGE(.BOTH.,#158);
#108=FACE_OUTER_BOUND('',#159,.T.);
#109=CYLINDRICAL_SURFACE('',#160,15.0);
#110=SURFACE_STYLE_USAGE(.BOTH.,#161);
#111=FACE_OUTER_BOUND('',#162,.T.);
#112=CONICAL_SURFACE('',#163,22.05,0.785398163397448);
#113=SURFACE_STYLE_USAGE(.BOTH.,#164);
#114=FACE_OUTER_BOUND('',#165,.T.);
#115=CONICAL_SURFACE('',#166,15.3,0.785398163397447);
#116=SURFACE_STYLE_USAGE(.BOTH.,#167);
#117=FACE_OUTER_BOUND('',#168,.T.);
#118=CYLINDRICAL_SURFACE('',#169,22.5);
#119=SURFACE_STYLE_USAGE(.BOTH.,#170);
#120=FACE_BOUND('',#171,.T.);
#121=FACE_OUTER_BOUND('',#172,.T.);
#122=PLANE('',#173);
#123=SURFACE_STYLE_USAGE(.BOTH.,#174);
#124=FACE_OUTER_BOUND('',#175,.T.);
#125=CONICAL_SURFACE('',#176,15.3,0.785398163397448);
#126=PRODUCT_CONTEXT('',#24,'mechanical');
#127=PRODUCT_DEFINITION_FORMATION_WITH_SPECIFIED_SOURCE(' ','NONE',#65,.NOT_KNOWN.);
#128=CLOSED_SHELL('',(#52,#38,#50,#58,#54,#46,#64,#48,#44,#56,#40,#60,#62,#42));
#129=CARTESIAN_POINT('',(0.0,0.0,0.0));
#130=DIRECTION('',(0.0,0.0,1.0));
#131=DIRECTION('',(1.0,0.0,0.0));
#132= (NAMED_UNIT(#74)LENGTH_UNIT()SI_UNIT(.MILLI.,.METRE.));
#133=SURFACE_SIDE_STYLE('',(#178));
#134=EDGE_LOOP('',(#179,#180,#181,#182,#183));
#135=AXIS2_PLACEMENT_3D('',#184,#185,#186);
#136=SURFACE_SIDE_STYLE('',(#187));
#137=EDGE_LOOP('',(#188,#189,#190,#191,#192));
#138=AXIS2_PLACEMENT_3D('',#193,#194,#195);
#139=SURFACE_SIDE_STYLE('',(#196));
#140=EDGE_LOOP('',(#197,#198));
#141=EDGE_LOOP('',(#199,#200));
#142=AXIS2_PLACEMENT_3D('',#201,#202,#203);
#143=SURFACE_SIDE_STYLE('',(#204));
#144=EDGE_LOOP('',(#205,#206,#207,#208));
#145=AXIS2_PLACEMENT_3D('',#209,#210,#211);
#146=SURFACE_SIDE_STYLE('',(#212));
#147=EDGE_LOOP('',(#213,#214,#215,#216));
#148=AXIS2_PLACEMENT_3D('',#217,#218,#219);
#149=SURFACE_SIDE_STYLE('',(#220));
#150=EDGE_LOOP('',(#221,#222,#223,#224));
#151=AXIS2_PLACEMENT_3D('',#225,#226,#227);
#152=SURFACE_SIDE_STYLE('',(#228));
#153=EDGE_LOOP('',(#229,#230,#231,#232,#233));
#154=AXIS2_PLACEMENT_3D('',#234,#235,#236);
#155=SURFACE_SIDE_STYLE('',(#237));
#156=EDGE_LOOP('',(#238,#239,#240,#241,#242,#243));
#157=AXIS2_PLACEMENT_3D('',#244,#245,#246);
#158=SURFACE_SIDE_STYLE('',(#247));
#159=EDGE_LOOP('',(#248,#249,#250,#251));
#160=AXIS2_PLACEMENT_3D('',#252,#253,#254);
#161=SURFACE_SIDE_STYLE('',(#255));
#162=EDGE_LOOP('',(#256,#257,#258,#259,#260));
#163=AXIS2_PLACEMENT_3D('',#261,#262,#263);
#164=SURFACE_SIDE_STYLE('',(#264));
#165=EDGE_LOOP('',(#265,#266,#267,#268));
#166=AXIS2_PLACEMENT_3D('',#269,#270,#271);
#167=SURFACE_SIDE_STYLE('',(#272));
#168=EDGE_LOOP('',(#273,#274,#275,#276,#277,#278));
#169=AXIS2_PLACEMENT_3D('',#279,#280,#281);
#170=SURFACE_SIDE_STYLE('',(#282));
#171=EDGE_LOOP('',(#283,#284));
#172=EDGE_LOOP('',(#285,#286));
#173=AXIS2_PLACEMENT_3D('',#287,#288,#289);
#174=SURFACE_SIDE_STYLE('',(#290));
#175=EDGE_LOOP('',(#291,#292,#293,#294));
#176=AXIS2_PLACEMENT_3D('',#295,#296,#297);
#178=SURFACE_STYLE_FILL_AREA(#298);
#179=ORIENTED_EDGE('',*,*,#299,.F.);
#180=ORIENTED_EDGE('',*,*,#300,.F.);
#181=ORIENTED_EDGE('',*,*,#301,.F.);
#182=ORIENTED_EDGE('',*,*,#302,.F.);
#183=ORIENTED_EDGE('',*,*,#303,.F.);
#184=CARTESIAN_POINT('',(0.449999999999999,0.0,5.5107285922007E-017));
#185=DIRECTION('',(1.0,-0.0,1.22460635382238E-016));
#186=DIRECTION('',(0.0,1.0,0.0));
#187=SURFACE_STYLE_FILL_AREA(#304);
#188=ORIENTED_EDGE('',*,*,#299,.T.);
#189=ORIENTED_EDGE('',*,*,#305,.F.);
#190=ORIENTED_EDGE('',*,*,#306,.F.);
#191=ORIENTED_EDGE('',*,*,#301,.T.);
#192=ORIENTED_EDGE('',*,*,#307,.F.);
#193=CARTESIAN_POINT('',(0.449999999999999,0.0,5.5107285922007E-017));
#194=DIRECTION('',(1.0,-0.0,1.22460635382238E-016));
#195=DIRECTION('',(0.0,1.0,0.0));
#196=SURFACE_STYLE_FILL_AREA(#308);
#197=ORIENTED_EDGE('',*,*,#309,.T.);
#198=ORIENTED_EDGE('',*,*,#310,.T.);
#199=ORIENTED_EDGE('',*,*,#311,.T.);
#200=ORIENTED_EDGE('',*,*,#312,.T.);
#201=CARTESIAN_POINT('',(20.0,0.0,0.0));
#202=DIRECTION('',(1.0,0.0,0.0));
#203=DIRECTION('',(0.0,0.0,-1.0));
#204=SURFACE_STYLE_FILL_AREA(#313);
#205=ORIENTED_EDGE('',*,*,#314,.T.);
#206=ORIENTED_EDGE('',*,*,#315,.F.);
#207=ORIENTED_EDGE('',*,*,#316,.T.);
#208=ORIENTED_EDGE('',*,*,#309,.F.);
#209=CARTESIAN_POINT('',(19.7,0.0,0.0));
#210=DIRECTION('',(1.0,-0.0,-0.0));
#211=DIRECTION('',(0.0,1.0,0.0));
#212=SURFACE_STYLE_FILL_AREA(#317);
#213=ORIENTED_EDGE('',*,*,#318,.F.);
#214=ORIENTED_EDGE('',*,*,#319,.T.);
#215=ORIENTED_EDGE('',*,*,#320,.F.);
#216=ORIENTED_EDGE('',*,*,#321,.F.);
#217=CARTESIAN_POINT('',(0.300000000000001,0.0,0.0));
#218=DIRECTION('',(-1.0,-0.0,-0.0));
#219=DIRECTION('',(0.0,1.0,0.0));
#220=SURFACE_STYLE_FILL_AREA(#322);
#221=ORIENTED_EDGE('',*,*,#323,.T.);
#222=ORIENTED_EDGE('',*,*,#324,.F.);
#223=ORIENTED_EDGE('',*,*,#325,.T.);
#224=ORIENTED_EDGE('',*,*,#315,.T.);
#225=CARTESIAN_POINT('',(10.0,0.0,0.0));
#226=DIRECTION('',(1.0,0.0,0.0));
#227=DIRECTION('',(0.0,1.0,0.0));
#228=SURFACE_STYLE_FILL_AREA(#326);
#229=ORIENTED_EDGE('',*,*,#327,.F.);
#230=ORIENTED_EDGE('',*,*,#312,.F.);
#231=ORIENTED_EDGE('',*,*,#328,.F.);
#232=ORIENTED_EDGE('',*,*,#329,.F.);
#233=ORIENTED_EDGE('',*,*,#330,.F.);
#234=CARTESIAN_POINT('',(19.55,0.0,-1.10214571844014E-016));
#235=DIRECTION('',(-1.0,0.0,-2.44921270764476E-016));
#236=DIRECTION('',(0.0,1.0,0.0));
#237=SURFACE_STYLE_FILL_AREA(#331);
#238=ORIENTED_EDGE('',*,*,#332,.F.);
#239=ORIENTED_EDGE('',*,*,#305,.T.);
#240=ORIENTED_EDGE('',*,*,#303,.T.);
#241=ORIENTED_EDGE('',*,*,#333,.F.);
#242=ORIENTED_EDGE('',*,*,#334,.T.);
#243=ORIENTED_EDGE('',*,*,#330,.T.);
#244=CARTESIAN_POINT('',(10.0,0.0,0.0));
#245=DIRECTION('',(1.0,0.0,0.0));
#246=DIRECTION('',(0.0,0.0,-1.0));
#247=SURFACE_STYLE_FILL_AREA(#335);
#248=ORIENTED_EDGE('',*,*,#323,.F.);
#249=ORIENTED_EDGE('',*,*,#336,.T.);
#250=ORIENTED_EDGE('',*,*,#325,.F.);
#251=ORIENTED_EDGE('',*,*,#319,.F.);
#252=CARTESIAN_POINT('',(10.0,0.0,0.0));
#253=DIRECTION('',(1.0,0.0,0.0));
#254=DIRECTION('',(0.0,1.0,0.0));
#255=SURFACE_STYLE_FILL_AREA(#337);
#256=ORIENTED_EDGE('',*,*,#327,.T.);
#257=ORIENTED_EDGE('',*,*,#334,.F.);
#258=ORIENTED_EDGE('',*,*,#338,.F.);
#259=ORIENTED_EDGE('',*,*,#328,.T.);
#260=ORIENTED_EDGE('',*,*,#311,.F.);
#261=CARTESIAN_POINT('',(19.55,0.0,-1.10214571844014E-016));
#262=DIRECTION('',(-1.0,0.0,-2.44921270764476E-016));
#263=DIRECTION('',(0.0,1.0,0.0));
#264=SURFACE_STYLE_FILL_AREA(#339);
#265=ORIENTED_EDGE('',*,*,#314,.F.);
#266=ORIENTED_EDGE('',*,*,#310,.F.);
#267=ORIENTED_EDGE('',*,*,#316,.F.);
#268=ORIENTED_EDGE('',*,*,#336,.F.);
#269=CARTESIAN_POINT('',(19.7,0.0,0.0));
#270=DIRECTION('',(1.0,-0.0,-0.0));
#271=DIRECTION('',(0.0,1.0,0.0));
#272=SURFACE_STYLE_FILL_AREA(#340);
#273=ORIENTED_EDGE('',*,*,#332,.T.);
#274=ORIENTED_EDGE('',*,*,#329,.T.);
#275=ORIENTED_EDGE('',*,*,#338,.T.);
#276=ORIENTED_EDGE('',*,*,#333,.T.);
#277=ORIENTED_EDGE('',*,*,#302,.T.);
#278=ORIENTED_EDGE('',*,*,#306,.T.);
#279=CARTESIAN_POINT('',(10.0,0.0,0.0));
#280=DIRECTION('',(1.0,0.0,0.0));
#281=DIRECTION('',(0.0,0.0,-1.0));
#282=SURFACE_STYLE_FILL_AREA(#341);
#283=ORIENTED_EDGE('',*,*,#321,.T.);
#284=ORIENTED_EDGE('',*,*,#342,.T.);
#285=ORIENTED_EDGE('',*,*,#307,.T.);
#286=ORIENTED_EDGE('',*,*,#300,.T.);
#287=CARTESIAN_POINT('',(0.0,0.0,0.0));
#288=DIRECTION('',(-1.0,0.0,0.0));
#289=DIRECTION('',(0.0,0.0,1.0));
#290=SURFACE_STYLE_FILL_AREA(#343);
#291=ORIENTED_EDGE('',*,*,#318,.T.);
#292=ORIENTED_EDGE('',*,*,#342,.F.);
#293=ORIENTED_EDGE('',*,*,#320,.T.);
#294=ORIENTED_EDGE('',*,*,#324,.T.);
#295=CARTESIAN_POINT('',(0.300000000000001,0.0,0.0));
#296=DIRECTION('',(-1.0,-0.0,-0.0));
#297=DIRECTION('',(0.0,1.0,0.0));
#298=FILL_AREA_STYLE('',(#344));
#299=EDGE_CURVE('',#345,#346,#347,.T.);
#300=EDGE_CURVE('',#348,#345,#349,.T.);
#301=EDGE_CURVE('',#350,#348,#351,.T.);
#302=EDGE_CURVE('',#352,#350,#353,.T.);
#303=EDGE_CURVE('',#346,#352,#354,.T.);
#304=FILL_AREA_STYLE('',(#355));
#305=EDGE_CURVE('',#356,#346,#357,.T.);
#306=EDGE_CURVE('',#350,#356,#358,.T.);
#307=EDGE_CURVE('',#345,#348,#359,.T.);
#308=FILL_AREA_STYLE('',(#360));
#309=EDGE_CURVE('',#361,#362,#363,.T.);
#310=EDGE_CURVE('',#362,#361,#364,.T.);
#311=EDGE_CURVE('',#365,#366,#367,.T.);
#312=EDGE_CURVE('',#366,#365,#368,.T.);
#313=FILL_AREA_STYLE('',(#369));
#314=EDGE_CURVE('',#361,#370,#371,.T.);
#315=EDGE_CURVE('',#372,#370,#373,.T.);
#316=EDGE_CURVE('',#372,#362,#374,.T.);
#317=FILL_AREA_STYLE('',(#375));
#318=EDGE_CURVE('',#376,#377,#378,.T.);
#319=EDGE_CURVE('',#376,#379,#380,.T.);
#320=EDGE_CURVE('',#381,#379,#382,.T.);
#321=EDGE_CURVE('',#377,#381,#383,.T.);
#322=FILL_AREA_STYLE('',(#384));
#323=EDGE_CURVE('',#370,#376,#385,.T.);
#324=EDGE_CURVE('',#379,#376,#386,.T.);
#325=EDGE_CURVE('',#379,#372,#387,.T.);
#326=FILL_AREA_STYLE('',(#388));
#327=EDGE_CURVE('',#365,#389,#390,.T.);
#328=EDGE_CURVE('',#391,#366,#392,.T.);
#329=EDGE_CURVE('',#393,#391,#394,.T.);
#330=EDGE_CURVE('',#389,#393,#395,.T.);
#331=FILL_AREA_STYLE('',(#396));
#332=EDGE_CURVE('',#356,#393,#397,.T.);
#333=EDGE_CURVE('',#398,#352,#399,.T.);
#334=EDGE_CURVE('',#398,#389,#400,.T.);
#335=FILL_AREA_STYLE('',(#401));
#336=EDGE_CURVE('',#370,#372,#402,.T.);
#337=FILL_AREA_STYLE('',(#403));
#338=EDGE_CURVE('',#391,#398,#404,.T.);
#339=FILL_AREA_STYLE('',(#405));
#340=FILL_AREA_STYLE('',(#406));
#341=FILL_AREA_STYLE('',(#407));
#342=EDGE_CURVE('',#381,#377,#408,.T.);
#343=FILL_AREA_STYLE('',(#409));
#344=FILL_AREA_STYLE_COLOUR('',#410);
#345=VERTEX_POINT('',#411);
#346=VERTEX_POINT('',#412);
#347=LINE('',#413,#414);
#348=VERTEX_POINT('',#415);
#349=CIRCLE('',#416,21.6);
#350=VERTEX_POINT('',#417);
#351=LINE('',#418,#419);
#352=VERTEX_POINT('',#420);
#353=CIRCLE('',#421,22.5);
#354=CIRCLE('',#422,22.5);
#355=FILL_AREA_STYLE_COLOUR('',#423);
#356=VERTEX_POINT('',#424);
#357=CIRCLE('',#425,22.5);
#358=CIRCLE('',#426,22.5);
#359=CIRCLE('',#427,21.6);
#360=FILL_AREA_STYLE_COLOUR('',#428);
#361=VERTEX_POINT('',#429);
#362=VERTEX_POINT('',#430);
#363=CIRCLE('',#431,15.6);
#364=CIRCLE('',#432,15.6);
#365=VERTEX_POINT('',#433);
#366=VERTEX_POINT('',#434);
#367=CIRCLE('',#435,21.6);
#368=CIRCLE('',#436,21.6);
#369=FILL_AREA_STYLE_COLOUR('',#437);
#370=VERTEX_POINT('',#438);
#371=LINE('',#439,#440);
#372=VERTEX_POINT('',#441);
#373=CIRCLE('',#442,15.0);
#374=LINE('',#443,#444);
#375=FILL_AREA_STYLE_COLOUR('',#445);
#376=VERTEX_POINT('',#446);
#377=VERTEX_POINT('',#447);
#378=LINE('',#448,#449);
#379=VERTEX_POINT('',#450);
#380=CIRCLE('',#451,15.0);
#381=VERTEX_POINT('',#452);
#382=LINE('',#453,#454);
#383=CIRCLE('',#455,15.6);
#384=FILL_AREA_STYLE_COLOUR('',#456);
#385=LINE('',#457,#458);
#386=CIRCLE('',#459,15.0);
#387=LINE('',#460,#461);
#388=FILL_AREA_STYLE_COLOUR('',#462);
#389=VERTEX_POINT('',#463);
#390=LINE('',#464,#465);
#391=VERTEX_POINT('',#466);
#392=LINE('',#467,#468);
#393=VERTEX_POINT('',#469);
#394=CIRCLE('',#470,22.5);
#395=CIRCLE('',#471,22.5);
#396=FILL_AREA_STYLE_COLOUR('',#472);
#397=LINE('',#473,#474);
#398=VERTEX_POINT('',#475);
#399=LINE('',#476,#477);
#400=CIRCLE('',#478,22.5);
#401=FILL_AREA_STYLE_COLOUR('',#479);
#402=CIRCLE('',#480,15.0);
#403=FILL_AREA_STYLE_COLOUR('',#481);
#404=CIRCLE('',#482,22.5);
#405=FILL_AREA_STYLE_COLOUR('',#483);
#406=FILL_AREA_STYLE_COLOUR('',#484);
#407=FILL_AREA_STYLE_COLOUR('',#485);
#408=CIRCLE('',#486,15.6);
#409=FILL_AREA_STYLE_COLOUR('',#487);
#410=COLOUR_RGB('',0.752941191196442,0.752941191196442,0.752941191196442);
#411=CARTESIAN_POINT('',(0.0,21.6,0.0));
#412=CARTESIAN_POINT('',(0.9,22.5,1.10214571844014E-016));
#413=CARTESIAN_POINT('',(0.449999999999999,22.05,2.75536429610035E-015));
#414=VECTOR('',#488,1.0);
#415=CARTESIAN_POINT('',(0.0,-21.6,-2.64514972425634E-015));
#416=AXIS2_PLACEMENT_3D('',#489,#490,#491);
#417=CARTESIAN_POINT('',(0.9,-22.5,-2.64514972425633E-015));
#418=CARTESIAN_POINT('',(0.449999999999999,-22.05,-2.64514972425634E-015));
#419=VECTOR('',#492,1.0);
#420=CARTESIAN_POINT('',(0.899999999999998,2.75536429610035E-015,22.5));
#421=AXIS2_PLACEMENT_3D('',#493,#494,#495);
#422=AXIS2_PLACEMENT_3D('',#496,#497,#498);
#423=COLOUR_RGB('',0.752941191196442,0.752941191196442,0.752941191196442);
#424=CARTESIAN_POINT('',(0.900000000000003,-2.75536429610035E-015,-22.5));
#425=AXIS2_PLACEMENT_3D('',#499,#500,#501);
#426=AXIS2_PLACEMENT_3D('',#502,#503,#504);
#427=AXIS2_PLACEMENT_3D('',#505,#506,#507);
#428=COLOUR_RGB('',0.752941191196442,0.752941191196442,0.752941191196442);
#429=CARTESIAN_POINT('',(20.0,15.6,0.0));
#430=CARTESIAN_POINT('',(20.0,-15.6,1.91038591196291E-015));
#431=AXIS2_PLACEMENT_3D('',#508,#509,#510);
#432=AXIS2_PLACEMENT_3D('',#511,#512,#513);
#433=CARTESIAN_POINT('',(20.0,21.6,0.0));
#434=CARTESIAN_POINT('',(20.0,-21.6,2.64514972425634E-015));
#435=AXIS2_PLACEMENT_3D('',#514,#515,#516);
#436=AXIS2_PLACEMENT_3D('',#517,#518,#519);
#437=COLOUR_RGB('',0.752941191196442,0.752941191196442,0.752941191196442);
#438=CARTESIAN_POINT('',(19.4,15.0,0.0));
#439=CARTESIAN_POINT('',(19.7,15.3,-1.87364772134824E-015));
#440=VECTOR('',#520,1.0);
#441=CARTESIAN_POINT('',(19.4,-15.0,1.83690953073357E-015));
#442=AXIS2_PLACEMENT_3D('',#521,#522,#523);
#443=CARTESIAN_POINT('',(19.7,-15.3,1.87364772134824E-015));
#444=VECTOR('',#524,1.0);
#445=COLOUR_RGB('',0.752941191196442,0.752941191196442,0.752941191196442);
#446=CARTESIAN_POINT('',(0.600000000000001,15.0,0.0));
#447=CARTESIAN_POINT('',(0.0,15.6,0.0));
#448=CARTESIAN_POINT('',(0.300000000000001,15.3,-1.87364772134824E-015));
#449=VECTOR('',#525,1.0);
#450=CARTESIAN_POINT('',(0.600000000000001,-15.0,1.83690953073357E-015));
#451=AXIS2_PLACEMENT_3D('',#526,#527,#528);
#452=CARTESIAN_POINT('',(0.0,-15.6,1.91038591196291E-015));
#453=CARTESIAN_POINT('',(0.300000000000001,-15.3,1.87364772134824E-015));
#454=VECTOR('',#529,1.0);
#455=AXIS2_PLACEMENT_3D('',#530,#531,#532);
#456=COLOUR_RGB('',0.752941191196442,0.752941191196442,0.752941191196442);
#457=CARTESIAN_POINT('',(10.0,15.0,-1.83690953073357E-015));
#458=VECTOR('',#533,1.0);
#459=AXIS2_PLACEMENT_3D('',#534,#535,#536);
#460=CARTESIAN_POINT('',(10.0,-15.0,1.83690953073357E-015));
#461=VECTOR('',#537,1.0);
#462=COLOUR_RGB('',0.752941191196442,0.752941191196442,0.752941191196442);
#463=CARTESIAN_POINT('',(19.1,22.5,-2.20429143688028E-016));
#464=CARTESIAN_POINT('',(19.55,22.05,-2.81047158202236E-015));
#465=VECTOR('',#538,1.0);
#466=CARTESIAN_POINT('',(19.1,-22.5,2.53493515241232E-015));
#467=CARTESIAN_POINT('',(19.55,-22.05,2.59004243833433E-015));
#468=VECTOR('',#539,1.0);
#469=CARTESIAN_POINT('',(19.1,-2.75536429610035E-015,-22.5));
#470=AXIS2_PLACEMENT_3D('',#540,#541,#542);
#471=AXIS2_PLACEMENT_3D('',#543,#544,#545);
#472=COLOUR_RGB('',0.752941191196442,0.752941191196442,0.752941191196442);
#473=CARTESIAN_POINT('',(10.0,-2.75536429610035E-015,-22.5));
#474=VECTOR('',#546,1.0);
#475=CARTESIAN_POINT('',(19.1,2.75536429610035E-015,22.5));
#476=CARTESIAN_POINT('',(10.0,2.75536429610035E-015,22.5));
#477=VECTOR('',#547,1.0);
#478=AXIS2_PLACEMENT_3D('',#548,#549,#550);
#479=COLOUR_RGB('',0.752941191196442,0.752941191196442,0.752941191196442);
#480=AXIS2_PLACEMENT_3D('',#551,#552,#553);
#481=COLOUR_RGB('',0.752941191196442,0.752941191196442,0.752941191196442);
#482=AXIS2_PLACEMENT_3D('',#554,#555,#556);
#483=COLOUR_RGB('',0.752941191196442,0.752941191196442,0.752941191196442);
#484=COLOUR_RGB('',0.752941191196442,0.752941191196442,0.752941191196442);
#485=COLOUR_RGB('',0.752941191196442,0.752941191196442,0.752941191196442);
#486=AXIS2_PLACEMENT_3D('',#557,#558,#559);
#487=COLOUR_RGB('',0.752941191196442,0.752941191196442,0.752941191196442);
#488=DIRECTION('',(0.707106781186548,0.707106781186547,1.73185491414387E-016));
#489=CARTESIAN_POINT('',(0.0,0.0,-9.86076131526265E-032));
#490=DIRECTION('',(-1.0,0.0,0.0));
#491=DIRECTION('',(0.0,1.0,0.0));
#492=DIRECTION('',(-0.707106781186548,0.707106781186547,-1.7888002385964E-032));
#493=CARTESIAN_POINT('',(0.9,0.0,0.0));
#494=DIRECTION('',(1.0,0.0,1.22460635382238E-016));
#495=DIRECTION('',(1.22460635382238E-016,0.0,-1.0));
#496=CARTESIAN_POINT('',(0.9,0.0,0.0));
#497=DIRECTION('',(1.0,0.0,1.22460635382238E-016));
#498=DIRECTION('',(1.22460635382238E-016,0.0,-1.0));
#499=CARTESIAN_POINT('',(0.9,0.0,0.0));
#500=DIRECTION('',(1.0,0.0,1.22460635382238E-016));
#501=DIRECTION('',(1.22460635382238E-016,0.0,-1.0));
#502=CARTESIAN_POINT('',(0.9,0.0,0.0));
#503=DIRECTION('',(1.0,0.0,1.22460635382238E-016));
#504=DIRECTION('',(1.22460635382238E-016,0.0,-1.0));
#505=CARTESIAN_POINT('',(0.0,0.0,-9.86076131526265E-032));
#506=DIRECTION('',(-1.0,0.0,0.0));
#507=DIRECTION('',(0.0,1.0,0.0));
#508=CARTESIAN_POINT('',(20.0,0.0,0.0));
#509=DIRECTION('',(-1.0,0.0,0.0));
#510=DIRECTION('',(0.0,1.0,0.0));
#511=CARTESIAN_POINT('',(20.0,0.0,0.0));
#512=DIRECTION('',(-1.0,0.0,0.0));
#513=DIRECTION('',(0.0,1.0,0.0));
#514=CARTESIAN_POINT('',(20.0,0.0,1.97215226305253E-031));
#515=DIRECTION('',(1.0,0.0,0.0));
#516=DIRECTION('',(0.0,1.0,0.0));
#517=CARTESIAN_POINT('',(20.0,0.0,1.97215226305253E-031));
#518=DIRECTION('',(1.0,0.0,0.0));
#519=DIRECTION('',(0.0,1.0,0.0));
#520=DIRECTION('',(-0.707106781186549,-0.707106781186547,8.65927457071934E-017));
#521=CARTESIAN_POINT('',(19.4,0.0,0.0));
#522=DIRECTION('',(1.0,0.0,0.0));
#523=DIRECTION('',(0.0,1.0,0.0));
#524=DIRECTION('',(0.707106781186549,-0.707106781186547,8.65927457071934E-017));
#525=DIRECTION('',(-0.707106781186548,0.707106781186547,-8.65927457071935E-017));
#526=CARTESIAN_POINT('',(0.600000000000001,0.0,0.0));
#527=DIRECTION('',(1.0,0.0,0.0));
#528=DIRECTION('',(0.0,1.0,0.0));
#529=DIRECTION('',(0.707106781186548,0.707106781186547,-8.65927457071935E-017));
#530=CARTESIAN_POINT('',(0.0,0.0,0.0));
#531=DIRECTION('',(1.0,0.0,0.0));
#532=DIRECTION('',(0.0,1.0,0.0));
#533=DIRECTION('',(-1.0,-0.0,0.0));
#534=CARTESIAN_POINT('',(0.600000000000001,0.0,0.0));
#535=DIRECTION('',(1.0,0.0,0.0));
#536=DIRECTION('',(0.0,1.0,0.0));
#537=DIRECTION('',(1.0,-0.0,0.0));
#538=DIRECTION('',(-0.707106781186548,0.707106781186547,-2.59778237121581E-016));
#539=DIRECTION('',(0.707106781186548,0.707106781186547,8.65927457071936E-017));
#540=CARTESIAN_POINT('',(19.1,0.0,0.0));
#541=DIRECTION('',(-1.0,0.0,-2.44921270764475E-016));
#542=DIRECTION('',(2.44921270764475E-016,0.0,-1.0));
#543=CARTESIAN_POINT('',(19.1,0.0,0.0));
#544=DIRECTION('',(-1.0,0.0,-2.44921270764475E-016));
#545=DIRECTION('',(2.44921270764475E-016,0.0,-1.0));
#546=DIRECTION('',(1.0,0.0,0.0));
#547=DIRECTION('',(-1.0,-0.0,-0.0));
#548=CARTESIAN_POINT('',(19.1,0.0,0.0));
#549=DIRECTION('',(-1.0,0.0,-2.44921270764475E-016));
#550=DIRECTION('',(2.44921270764475E-016,0.0,-1.0));
#551=CARTESIAN_POINT('',(19.4,0.0,0.0));
#552=DIRECTION('',(1.0,0.0,0.0));
#553=DIRECTION('',(0.0,1.0,0.0));
#554=CARTESIAN_POINT('',(19.1,0.0,0.0));
#555=DIRECTION('',(-1.0,0.0,-2.44921270764475E-016));
#556=DIRECTION('',(2.44921270764475E-016,0.0,-1.0));
#557=CARTESIAN_POINT('',(0.0,0.0,0.0));
#558=DIRECTION('',(1.0,0.0,0.0));
#559=DIRECTION('',(0.0,1.0,0.0));
ENDSEC;
END-ISO-10303-21;
