ISO-10303-21;
HEADER;
FILE_DESCRIPTION(('STEP AP214'),'1');
FILE_NAME('C:/Temp/output/halder/CAD/Temp/HALDERN_EH_23111_0812.stp','2015-05-04T09:25:16',('TraceParts'),('TraceParts S.A.'),'Spatial InterOp 3D',' ',' ');
FILE_SCHEMA(('automotive_design'));
ENDSEC;
DATA;
#1=MECHANICAL_DESIGN_GEOMETRIC_PRESENTATION_REPRESENTATION(' ',(#10,#11,#12,#13,#14,#15,#16,#17,#18,#19,#20,#21,#22,#23),#6);
#2=PRODUCT_DEFINITION_CONTEXT('',#24,'design');
#3=APPLICATION_PROTOCOL_DEFINITION('INTERNATIONAL STANDARD','automotive_design',1994,#24);
#4=PRODUCT_CATEGORY_RELATIONSHIP('NONE','NONE',#25,#26);
#5=SHAPE_DEFINITION_REPRESENTATION(#27,#28);
#6= (GEOMETRIC_REPRESENTATION_CONTEXT(3)GLOBAL_UNCERTAINTY_ASSIGNED_CONTEXT((#31))GLOBAL_UNIT_ASSIGNED_CONTEXT((#33,#34,#35))REPRESENTATION_CONTEXT('NONE','WORKSPACE'));
#10=STYLED_ITEM('',(#37),#38);
#11=STYLED_ITEM('',(#39),#40);
#12=STYLED_ITEM('',(#41),#42);
#13=STYLED_ITEM('',(#43),#44);
#14=STYLED_ITEM('',(#45),#46);
#15=STYLED_ITEM('',(#47),#48);
#16=STYLED_ITEM('',(#49),#50);
#17=STYLED_ITEM('',(#51),#52);
#18=STYLED_ITEM('',(#53),#54);
#19=STYLED_ITEM('',(#55),#56);
#20=STYLED_ITEM('',(#57),#58);
#21=STYLED_ITEM('',(#59),#60);
#22=STYLED_ITEM('',(#61),#62);
#23=STYLED_ITEM('',(#63),#64);
#24=APPLICATION_CONTEXT(' ');
#25=PRODUCT_CATEGORY('part','NONE');
#26=PRODUCT_RELATED_PRODUCT_CATEGORY('detail',' ',(#65));
#27=PRODUCT_DEFINITION_SHAPE('NONE','NONE',#66);
#28=ADVANCED_BREP_SHAPE_REPRESENTATION('1',(#67,#68),#6);
#31=UNCERTAINTY_MEASURE_WITH_UNIT(LENGTH_MEASURE(1.0E-006),#33,'','');
#33= (CONVERSION_BASED_UNIT('MILLIMETRE',#71)LENGTH_UNIT()NAMED_UNIT(#74));
#34= (NAMED_UNIT(#76)PLANE_ANGLE_UNIT()SI_UNIT($,.RADIAN.));
#35= (NAMED_UNIT(#76)SOLID_ANGLE_UNIT()SI_UNIT($,.STERADIAN.));
#37=PRESENTATION_STYLE_ASSIGNMENT((#82));
#38=ADVANCED_FACE('',(#83,#84),#85,.T.);
#39=PRESENTATION_STYLE_ASSIGNMENT((#86));
#40=ADVANCED_FACE('',(#87),#88,.T.);
#41=PRESENTATION_STYLE_ASSIGNMENT((#89));
#42=ADVANCED_FACE('',(#90),#91,.T.);
#43=PRESENTATION_STYLE_ASSIGNMENT((#92));
#44=ADVANCED_FACE('',(#93),#94,.T.);
#45=PRESENTATION_STYLE_ASSIGNMENT((#95));
#46=ADVANCED_FACE('',(#96),#97,.F.);
#47=PRESENTATION_STYLE_ASSIGNMENT((#98));
#48=ADVANCED_FACE('',(#99),#100,.F.);
#49=PRESENTATION_STYLE_ASSIGNMENT((#101));
#50=ADVANCED_FACE('',(#102),#103,.F.);
#51=PRESENTATION_STYLE_ASSIGNMENT((#104));
#52=ADVANCED_FACE('',(#105),#106,.F.);
#53=PRESENTATION_STYLE_ASSIGNMENT((#107));
#54=ADVANCED_FACE('',(#108,#109),#110,.T.);
#55=PRESENTATION_STYLE_ASSIGNMENT((#111));
#56=ADVANCED_FACE('',(#112),#113,.F.);
#57=PRESENTATION_STYLE_ASSIGNMENT((#114));
#58=ADVANCED_FACE('',(#115),#116,.T.);
#59=PRESENTATION_STYLE_ASSIGNMENT((#117));
#60=ADVANCED_FACE('',(#118),#119,.F.);
#61=PRESENTATION_STYLE_ASSIGNMENT((#120));
#62=ADVANCED_FACE('',(#121),#122,.T.);
#63=PRESENTATION_STYLE_ASSIGNMENT((#123));
#64=ADVANCED_FACE('',(#124),#125,.T.);
#65=PRODUCT('1','1','PART-1-DESC',(#126));
#66=PRODUCT_DEFINITION('NONE','NONE',#127,#2);
#67=MANIFOLD_SOLID_BREP('1',#128);
#68=AXIS2_PLACEMENT_3D('',#129,#130,#131);
#71=LENGTH_MEASURE_WITH_UNIT(LENGTH_MEASURE(1.0),#132);
#74=DIMENSIONAL_EXPONENTS(1.0,0.0,0.0,0.0,0.0,0.0,0.0);
#76=DIMENSIONAL_EXPONENTS(0.0,0.0,0.0,0.0,0.0,0.0,0.0);
#82=SURFACE_STYLE_USAGE(.BOTH.,#133);
#83=FACE_BOUND('',#134,.T.);
#84=FACE_OUTER_BOUND('',#135,.T.);
#85=PLANE('',#136);
#86=SURFACE_STYLE_USAGE(.BOTH.,#137);
#87=FACE_OUTER_BOUND('',#138,.T.);
#88=CONICAL_SURFACE('',#139,17.15,0.785398163397448);
#89=SURFACE_STYLE_USAGE(.BOTH.,#140);
#90=FACE_OUTER_BOUND('',#141,.T.);
#91=CONICAL_SURFACE('',#142,17.15,0.785398163397448);
#92=SURFACE_STYLE_USAGE(.BOTH.,#143);
#93=FACE_OUTER_BOUND('',#144,.T.);
#94=CONICAL_SURFACE('',#145,17.15,0.785398163397448);
#95=SURFACE_STYLE_USAGE(.BOTH.,#146);
#96=FACE_OUTER_BOUND('',#147,.T.);
#97=CONICAL_SURFACE('',#148,12.75,0.785398163397448);
#98=SURFACE_STYLE_USAGE(.BOTH.,#149);
#99=FACE_OUTER_BOUND('',#150,.T.);
#100=CYLINDRICAL_SURFACE('',#151,12.5);
#101=SURFACE_STYLE_USAGE(.BOTH.,#152);
#102=FACE_OUTER_BOUND('',#153,.T.);
#103=CONICAL_SURFACE('',#154,12.75,0.785398163397448);
#104=SURFACE_STYLE_USAGE(.BOTH.,#155);
#105=FACE_OUTER_BOUND('',#156,.T.);
#106=CONICAL_SURFACE('',#157,12.75,0.785398163397448);
#107=SURFACE_STYLE_USAGE(.BOTH.,#158);
#108=FACE_BOUND('',#159,.T.);
#109=FACE_OUTER_BOUND('',#160,.T.);
#110=PLANE('',#161);
#111=SURFACE_STYLE_USAGE(.BOTH.,#162);
#112=FACE_OUTER_BOUND('',#163,.T.);
#113=CONICAL_SURFACE('',#164,12.75,0.785398163397448);
#114=SURFACE_STYLE_USAGE(.BOTH.,#165);
#115=FACE_OUTER_BOUND('',#166,.T.);
#116=CYLINDRICAL_SURFACE('',#167,17.5);
#117=SURFACE_STYLE_USAGE(.BOTH.,#168);
#118=FACE_OUTER_BOUND('',#169,.T.);
#119=CYLINDRICAL_SURFACE('',#170,12.5);
#120=SURFACE_STYLE_USAGE(.BOTH.,#171);
#121=FACE_OUTER_BOUND('',#172,.T.);
#122=CYLINDRICAL_SURFACE('',#173,17.5);
#123=SURFACE_STYLE_USAGE(.BOTH.,#174);
#124=FACE_OUTER_BOUND('',#175,.T.);
#125=CONICAL_SURFACE('',#176,17.15,0.785398163397448);
#126=PRODUCT_CONTEXT('',#24,'mechanical');
#127=PRODUCT_DEFINITION_FORMATION_WITH_SPECIFIED_SOURCE(' ','NONE',#65,.NOT_KNOWN.);
#128=CLOSED_SHELL('',(#58,#42,#40,#52,#60,#46,#50,#48,#56,#44,#64,#62,#54,#38));
#129=CARTESIAN_POINT('',(0.0,0.0,0.0));
#130=DIRECTION('',(0.0,0.0,1.0));
#131=DIRECTION('',(1.0,0.0,0.0));
#132= (NAMED_UNIT(#74)LENGTH_UNIT()SI_UNIT(.MILLI.,.METRE.));
#133=SURFACE_SIDE_STYLE('',(#178));
#134=EDGE_LOOP('',(#179,#180));
#135=EDGE_LOOP('',(#181,#182));
#136=AXIS2_PLACEMENT_3D('',#183,#184,#185);
#137=SURFACE_SIDE_STYLE('',(#186));
#138=EDGE_LOOP('',(#187,#188,#189,#190,#191));
#139=AXIS2_PLACEMENT_3D('',#192,#193,#194);
#140=SURFACE_SIDE_STYLE('',(#195));
#141=EDGE_LOOP('',(#196,#197,#198,#199,#200));
#142=AXIS2_PLACEMENT_3D('',#201,#202,#203);
#143=SURFACE_SIDE_STYLE('',(#204));
#144=EDGE_LOOP('',(#205,#206,#207,#208,#209));
#145=AXIS2_PLACEMENT_3D('',#210,#211,#212);
#146=SURFACE_SIDE_STYLE('',(#213));
#147=EDGE_LOOP('',(#214,#215,#216,#217));
#148=AXIS2_PLACEMENT_3D('',#218,#219,#220);
#149=SURFACE_SIDE_STYLE('',(#221));
#150=EDGE_LOOP('',(#222,#223,#224,#225));
#151=AXIS2_PLACEMENT_3D('',#226,#227,#228);
#152=SURFACE_SIDE_STYLE('',(#229));
#153=EDGE_LOOP('',(#230,#231,#232,#233));
#154=AXIS2_PLACEMENT_3D('',#234,#235,#236);
#155=SURFACE_SIDE_STYLE('',(#237));
#156=EDGE_LOOP('',(#238,#239,#240,#241));
#157=AXIS2_PLACEMENT_3D('',#242,#243,#244);
#158=SURFACE_SIDE_STYLE('',(#245));
#159=EDGE_LOOP('',(#246,#247));
#160=EDGE_LOOP('',(#248,#249));
#161=AXIS2_PLACEMENT_3D('',#250,#251,#252);
#162=SURFACE_SIDE_STYLE('',(#253));
#163=EDGE_LOOP('',(#254,#255,#256,#257));
#164=AXIS2_PLACEMENT_3D('',#258,#259,#260);
#165=SURFACE_SIDE_STYLE('',(#261));
#166=EDGE_LOOP('',(#262,#263,#264,#265,#266,#267));
#167=AXIS2_PLACEMENT_3D('',#268,#269,#270);
#168=SURFACE_SIDE_STYLE('',(#271));
#169=EDGE_LOOP('',(#272,#273,#274,#275));
#170=AXIS2_PLACEMENT_3D('',#276,#277,#278);
#171=SURFACE_SIDE_STYLE('',(#279));
#172=EDGE_LOOP('',(#280,#281,#282,#283,#284,#285));
#173=AXIS2_PLACEMENT_3D('',#286,#287,#288);
#174=SURFACE_SIDE_STYLE('',(#289));
#175=EDGE_LOOP('',(#290,#291,#292,#293,#294));
#176=AXIS2_PLACEMENT_3D('',#295,#296,#297);
#178=SURFACE_STYLE_FILL_AREA(#298);
#179=ORIENTED_EDGE('',*,*,#299,.T.);
#180=ORIENTED_EDGE('',*,*,#300,.T.);
#181=ORIENTED_EDGE('',*,*,#301,.T.);
#182=ORIENTED_EDGE('',*,*,#302,.T.);
#183=CARTESIAN_POINT('',(25.0,0.0,0.0));
#184=DIRECTION('',(1.0,0.0,0.0));
#185=DIRECTION('',(0.0,0.0,-1.0));
#186=SURFACE_STYLE_FILL_AREA(#303);
#187=ORIENTED_EDGE('',*,*,#304,.F.);
#188=ORIENTED_EDGE('',*,*,#302,.F.);
#189=ORIENTED_EDGE('',*,*,#305,.F.);
#190=ORIENTED_EDGE('',*,*,#306,.F.);
#191=ORIENTED_EDGE('',*,*,#307,.F.);
#192=CARTESIAN_POINT('',(24.65,0.0,-8.57224447675664E-017));
#193=DIRECTION('',(-1.0,0.0,-2.44921270764475E-016));
#194=DIRECTION('',(0.0,1.0,0.0));
#195=SURFACE_STYLE_FILL_AREA(#308);
#196=ORIENTED_EDGE('',*,*,#309,.F.);
#197=ORIENTED_EDGE('',*,*,#310,.F.);
#198=ORIENTED_EDGE('',*,*,#311,.F.);
#199=ORIENTED_EDGE('',*,*,#312,.F.);
#200=ORIENTED_EDGE('',*,*,#313,.F.);
#201=CARTESIAN_POINT('',(0.35,0.0,4.28612223837832E-017));
#202=DIRECTION('',(1.0,-0.0,1.22460635382238E-016));
#203=DIRECTION('',(0.0,1.0,0.0));
#204=SURFACE_STYLE_FILL_AREA(#314);
#205=ORIENTED_EDGE('',*,*,#304,.T.);
#206=ORIENTED_EDGE('',*,*,#315,.F.);
#207=ORIENTED_EDGE('',*,*,#316,.F.);
#208=ORIENTED_EDGE('',*,*,#305,.T.);
#209=ORIENTED_EDGE('',*,*,#301,.F.);
#210=CARTESIAN_POINT('',(24.65,0.0,-8.57224447675664E-017));
#211=DIRECTION('',(-1.0,0.0,-2.44921270764475E-016));
#212=DIRECTION('',(0.0,1.0,0.0));
#213=SURFACE_STYLE_FILL_AREA(#317);
#214=ORIENTED_EDGE('',*,*,#318,.F.);
#215=ORIENTED_EDGE('',*,*,#319,.T.);
#216=ORIENTED_EDGE('',*,*,#320,.F.);
#217=ORIENTED_EDGE('',*,*,#321,.F.);
#218=CARTESIAN_POINT('',(0.25,0.0,0.0));
#219=DIRECTION('',(-1.0,-0.0,-0.0));
#220=DIRECTION('',(0.0,1.0,0.0));
#221=SURFACE_STYLE_FILL_AREA(#322);
#222=ORIENTED_EDGE('',*,*,#323,.T.);
#223=ORIENTED_EDGE('',*,*,#324,.F.);
#224=ORIENTED_EDGE('',*,*,#325,.T.);
#225=ORIENTED_EDGE('',*,*,#326,.T.);
#226=CARTESIAN_POINT('',(12.5,0.0,0.0));
#227=DIRECTION('',(1.0,0.0,0.0));
#228=DIRECTION('',(0.0,1.0,0.0));
#229=SURFACE_STYLE_FILL_AREA(#327);
#230=ORIENTED_EDGE('',*,*,#318,.T.);
#231=ORIENTED_EDGE('',*,*,#328,.F.);
#232=ORIENTED_EDGE('',*,*,#320,.T.);
#233=ORIENTED_EDGE('',*,*,#324,.T.);
#234=CARTESIAN_POINT('',(0.25,0.0,0.0));
#235=DIRECTION('',(-1.0,-0.0,-0.0));
#236=DIRECTION('',(0.0,1.0,0.0));
#237=SURFACE_STYLE_FILL_AREA(#329);
#238=ORIENTED_EDGE('',*,*,#330,.F.);
#239=ORIENTED_EDGE('',*,*,#300,.F.);
#240=ORIENTED_EDGE('',*,*,#331,.F.);
#241=ORIENTED_EDGE('',*,*,#332,.F.);
#242=CARTESIAN_POINT('',(24.75,0.0,0.0));
#243=DIRECTION('',(1.0,-0.0,-0.0));
#244=DIRECTION('',(0.0,1.0,0.0));
#245=SURFACE_STYLE_FILL_AREA(#333);
#246=ORIENTED_EDGE('',*,*,#321,.T.);
#247=ORIENTED_EDGE('',*,*,#328,.T.);
#248=ORIENTED_EDGE('',*,*,#334,.T.);
#249=ORIENTED_EDGE('',*,*,#310,.T.);
#250=CARTESIAN_POINT('',(0.0,0.0,0.0));
#251=DIRECTION('',(-1.0,0.0,0.0));
#252=DIRECTION('',(0.0,0.0,1.0));
#253=SURFACE_STYLE_FILL_AREA(#335);
#254=ORIENTED_EDGE('',*,*,#330,.T.);
#255=ORIENTED_EDGE('',*,*,#326,.F.);
#256=ORIENTED_EDGE('',*,*,#331,.T.);
#257=ORIENTED_EDGE('',*,*,#299,.F.);
#258=CARTESIAN_POINT('',(24.75,0.0,0.0));
#259=DIRECTION('',(1.0,-0.0,-0.0));
#260=DIRECTION('',(0.0,1.0,0.0));
#261=SURFACE_STYLE_FILL_AREA(#336);
#262=ORIENTED_EDGE('',*,*,#337,.F.);
#263=ORIENTED_EDGE('',*,*,#338,.T.);
#264=ORIENTED_EDGE('',*,*,#313,.T.);
#265=ORIENTED_EDGE('',*,*,#339,.F.);
#266=ORIENTED_EDGE('',*,*,#315,.T.);
#267=ORIENTED_EDGE('',*,*,#307,.T.);
#268=CARTESIAN_POINT('',(12.5,0.0,0.0));
#269=DIRECTION('',(1.0,0.0,0.0));
#270=DIRECTION('',(0.0,0.0,-1.0));
#271=SURFACE_STYLE_FILL_AREA(#340);
#272=ORIENTED_EDGE('',*,*,#323,.F.);
#273=ORIENTED_EDGE('',*,*,#332,.T.);
#274=ORIENTED_EDGE('',*,*,#325,.F.);
#275=ORIENTED_EDGE('',*,*,#319,.F.);
#276=CARTESIAN_POINT('',(12.5,0.0,0.0));
#277=DIRECTION('',(1.0,0.0,0.0));
#278=DIRECTION('',(0.0,1.0,0.0));
#279=SURFACE_STYLE_FILL_AREA(#341);
#280=ORIENTED_EDGE('',*,*,#337,.T.);
#281=ORIENTED_EDGE('',*,*,#306,.T.);
#282=ORIENTED_EDGE('',*,*,#316,.T.);
#283=ORIENTED_EDGE('',*,*,#339,.T.);
#284=ORIENTED_EDGE('',*,*,#312,.T.);
#285=ORIENTED_EDGE('',*,*,#342,.T.);
#286=CARTESIAN_POINT('',(12.5,0.0,0.0));
#287=DIRECTION('',(1.0,0.0,0.0));
#288=DIRECTION('',(0.0,0.0,-1.0));
#289=SURFACE_STYLE_FILL_AREA(#343);
#290=ORIENTED_EDGE('',*,*,#309,.T.);
#291=ORIENTED_EDGE('',*,*,#338,.F.);
#292=ORIENTED_EDGE('',*,*,#342,.F.);
#293=ORIENTED_EDGE('',*,*,#311,.T.);
#294=ORIENTED_EDGE('',*,*,#334,.F.);
#295=CARTESIAN_POINT('',(0.35,0.0,4.28612223837832E-017));
#296=DIRECTION('',(1.0,-0.0,1.22460635382238E-016));
#297=DIRECTION('',(0.0,1.0,0.0));
#298=FILL_AREA_STYLE('',(#344));
#299=EDGE_CURVE('',#345,#346,#347,.T.);
#300=EDGE_CURVE('',#346,#345,#348,.T.);
#301=EDGE_CURVE('',#349,#350,#351,.T.);
#302=EDGE_CURVE('',#350,#349,#352,.T.);
#303=FILL_AREA_STYLE('',(#353));
#304=EDGE_CURVE('',#349,#354,#355,.T.);
#305=EDGE_CURVE('',#356,#350,#357,.T.);
#306=EDGE_CURVE('',#358,#356,#359,.T.);
#307=EDGE_CURVE('',#354,#358,#360,.T.);
#308=FILL_AREA_STYLE('',(#361));
#309=EDGE_CURVE('',#362,#363,#364,.T.);
#310=EDGE_CURVE('',#365,#362,#366,.T.);
#311=EDGE_CURVE('',#367,#365,#368,.T.);
#312=EDGE_CURVE('',#369,#367,#370,.T.);
#313=EDGE_CURVE('',#363,#369,#371,.T.);
#314=FILL_AREA_STYLE('',(#372));
#315=EDGE_CURVE('',#373,#354,#374,.T.);
#316=EDGE_CURVE('',#356,#373,#375,.T.);
#317=FILL_AREA_STYLE('',(#376));
#318=EDGE_CURVE('',#377,#378,#379,.T.);
#319=EDGE_CURVE('',#377,#380,#381,.T.);
#320=EDGE_CURVE('',#382,#380,#383,.T.);
#321=EDGE_CURVE('',#378,#382,#384,.T.);
#322=FILL_AREA_STYLE('',(#385));
#323=EDGE_CURVE('',#386,#377,#387,.T.);
#324=EDGE_CURVE('',#380,#377,#388,.T.);
#325=EDGE_CURVE('',#380,#389,#390,.T.);
#326=EDGE_CURVE('',#389,#386,#391,.T.);
#327=FILL_AREA_STYLE('',(#392));
#328=EDGE_CURVE('',#382,#378,#393,.T.);
#329=FILL_AREA_STYLE('',(#394));
#330=EDGE_CURVE('',#345,#386,#395,.T.);
#331=EDGE_CURVE('',#389,#346,#396,.T.);
#332=EDGE_CURVE('',#386,#389,#397,.T.);
#333=FILL_AREA_STYLE('',(#398));
#334=EDGE_CURVE('',#362,#365,#399,.T.);
#335=FILL_AREA_STYLE('',(#400));
#336=FILL_AREA_STYLE('',(#401));
#337=EDGE_CURVE('',#402,#358,#403,.T.);
#338=EDGE_CURVE('',#402,#363,#404,.T.);
#339=EDGE_CURVE('',#373,#369,#405,.T.);
#340=FILL_AREA_STYLE('',(#406));
#341=FILL_AREA_STYLE('',(#407));
#342=EDGE_CURVE('',#367,#402,#408,.T.);
#343=FILL_AREA_STYLE('',(#409));
#344=FILL_AREA_STYLE_COLOUR('',#410);
#345=VERTEX_POINT('',#411);
#346=VERTEX_POINT('',#412);
#347=CIRCLE('',#413,13.0);
#348=CIRCLE('',#414,13.0);
#349=VERTEX_POINT('',#415);
#350=VERTEX_POINT('',#416);
#351=CIRCLE('',#417,16.8);
#352=CIRCLE('',#418,16.8);
#353=FILL_AREA_STYLE_COLOUR('',#419);
#354=VERTEX_POINT('',#420);
#355=LINE('',#421,#422);
#356=VERTEX_POINT('',#423);
#357=LINE('',#424,#425);
#358=VERTEX_POINT('',#426);
#359=CIRCLE('',#427,17.5);
#360=CIRCLE('',#428,17.5);
#361=FILL_AREA_STYLE_COLOUR('',#429);
#362=VERTEX_POINT('',#430);
#363=VERTEX_POINT('',#431);
#364=LINE('',#432,#433);
#365=VERTEX_POINT('',#434);
#366=CIRCLE('',#435,16.8);
#367=VERTEX_POINT('',#436);
#368=LINE('',#437,#438);
#369=VERTEX_POINT('',#439);
#370=CIRCLE('',#440,17.5);
#371=CIRCLE('',#441,17.5);
#372=FILL_AREA_STYLE_COLOUR('',#442);
#373=VERTEX_POINT('',#443);
#374=CIRCLE('',#444,17.5);
#375=CIRCLE('',#445,17.5);
#376=FILL_AREA_STYLE_COLOUR('',#446);
#377=VERTEX_POINT('',#447);
#378=VERTEX_POINT('',#448);
#379=LINE('',#449,#450);
#380=VERTEX_POINT('',#451);
#381=CIRCLE('',#452,12.5);
#382=VERTEX_POINT('',#453);
#383=LINE('',#454,#455);
#384=CIRCLE('',#456,13.0);
#385=FILL_AREA_STYLE_COLOUR('',#457);
#386=VERTEX_POINT('',#458);
#387=LINE('',#459,#460);
#388=CIRCLE('',#461,12.5);
#389=VERTEX_POINT('',#462);
#390=LINE('',#463,#464);
#391=CIRCLE('',#465,12.5);
#392=FILL_AREA_STYLE_COLOUR('',#466);
#393=CIRCLE('',#467,13.0);
#394=FILL_AREA_STYLE_COLOUR('',#468);
#395=LINE('',#469,#470);
#396=LINE('',#471,#472);
#397=CIRCLE('',#473,12.5);
#398=FILL_AREA_STYLE_COLOUR('',#474);
#399=CIRCLE('',#475,16.8);
#400=FILL_AREA_STYLE_COLOUR('',#476);
#401=FILL_AREA_STYLE_COLOUR('',#477);
#402=VERTEX_POINT('',#478);
#403=LINE('',#479,#480);
#404=CIRCLE('',#481,17.5);
#405=LINE('',#482,#483);
#406=FILL_AREA_STYLE_COLOUR('',#484);
#407=FILL_AREA_STYLE_COLOUR('',#485);
#408=CIRCLE('',#486,17.5);
#409=FILL_AREA_STYLE_COLOUR('',#487);
#410=COLOUR_RGB('',0.752941191196442,0.752941191196442,0.752941191196442);
#411=CARTESIAN_POINT('',(25.0,13.0,0.0));
#412=CARTESIAN_POINT('',(25.0,-13.0,1.59198825996909E-015));
#413=AXIS2_PLACEMENT_3D('',#488,#489,#490);
#414=AXIS2_PLACEMENT_3D('',#491,#492,#493);
#415=CARTESIAN_POINT('',(25.0,16.8,0.0));
#416=CARTESIAN_POINT('',(25.0,-16.8,2.05733867442159E-015));
#417=AXIS2_PLACEMENT_3D('',#494,#495,#496);
#418=AXIS2_PLACEMENT_3D('',#497,#498,#499);
#419=COLOUR_RGB('',0.752941191196442,0.752941191196442,0.752941191196442);
#420=CARTESIAN_POINT('',(24.3,17.5,-1.71444889535133E-016));
#421=CARTESIAN_POINT('',(24.65,17.15,-2.18592234157294E-015));
#422=VECTOR('',#500,1.0);
#423=CARTESIAN_POINT('',(24.3,-17.5,1.97161622965403E-015));
#424=CARTESIAN_POINT('',(24.65,-17.15,2.01447745203781E-015));
#425=VECTOR('',#501,1.0);
#426=CARTESIAN_POINT('',(24.3,-2.14306111918916E-015,-17.5));
#427=AXIS2_PLACEMENT_3D('',#502,#503,#504);
#428=AXIS2_PLACEMENT_3D('',#505,#506,#507);
#429=COLOUR_RGB('',0.752941191196442,0.752941191196442,0.752941191196442);
#430=CARTESIAN_POINT('',(0.0,16.8,0.0));
#431=CARTESIAN_POINT('',(0.699999999999999,17.5,8.57224447675664E-017));
#432=CARTESIAN_POINT('',(0.35,17.15,2.14306111918916E-015));
#433=VECTOR('',#508,1.0);
#434=CARTESIAN_POINT('',(0.0,-16.8,-2.05733867442159E-015));
#435=AXIS2_PLACEMENT_3D('',#509,#510,#511);
#436=CARTESIAN_POINT('',(0.699999999999999,-17.5,-2.05733867442159E-015));
#437=CARTESIAN_POINT('',(0.35,-17.15,-2.05733867442159E-015));
#438=VECTOR('',#512,1.0);
#439=CARTESIAN_POINT('',(0.699999999999997,2.14306111918916E-015,17.5));
#440=AXIS2_PLACEMENT_3D('',#513,#514,#515);
#441=AXIS2_PLACEMENT_3D('',#516,#517,#518);
#442=COLOUR_RGB('',0.752941191196442,0.752941191196442,0.752941191196442);
#443=CARTESIAN_POINT('',(24.3,2.14306111918916E-015,17.5));
#444=AXIS2_PLACEMENT_3D('',#519,#520,#521);
#445=AXIS2_PLACEMENT_3D('',#522,#523,#524);
#446=COLOUR_RGB('',0.752941191196442,0.752941191196442,0.752941191196442);
#447=CARTESIAN_POINT('',(0.5,12.5,0.0));
#448=CARTESIAN_POINT('',(0.0,13.0,0.0));
#449=CARTESIAN_POINT('',(0.25,12.75,-1.56137310112353E-015));
#450=VECTOR('',#525,1.0);
#451=CARTESIAN_POINT('',(0.5,-12.5,1.53075794227797E-015));
#452=AXIS2_PLACEMENT_3D('',#526,#527,#528);
#453=CARTESIAN_POINT('',(0.0,-13.0,1.59198825996909E-015));
#454=CARTESIAN_POINT('',(0.25,-12.75,1.56137310112353E-015));
#455=VECTOR('',#529,1.0);
#456=AXIS2_PLACEMENT_3D('',#530,#531,#532);
#457=COLOUR_RGB('',0.752941191196442,0.752941191196442,0.752941191196442);
#458=CARTESIAN_POINT('',(24.5,12.5,0.0));
#459=CARTESIAN_POINT('',(12.5,12.5,-1.53075794227797E-015));
#460=VECTOR('',#533,1.0);
#461=AXIS2_PLACEMENT_3D('',#534,#535,#536);
#462=CARTESIAN_POINT('',(24.5,-12.5,1.53075794227797E-015));
#463=CARTESIAN_POINT('',(12.5,-12.5,1.53075794227797E-015));
#464=VECTOR('',#537,1.0);
#465=AXIS2_PLACEMENT_3D('',#538,#539,#540);
#466=COLOUR_RGB('',0.752941191196442,0.752941191196442,0.752941191196442);
#467=AXIS2_PLACEMENT_3D('',#541,#542,#543);
#468=COLOUR_RGB('',0.752941191196442,0.752941191196442,0.752941191196442);
#469=CARTESIAN_POINT('',(24.75,12.75,-1.56137310112353E-015));
#470=VECTOR('',#544,1.0);
#471=CARTESIAN_POINT('',(24.75,-12.75,1.56137310112353E-015));
#472=VECTOR('',#545,1.0);
#473=AXIS2_PLACEMENT_3D('',#546,#547,#548);
#474=COLOUR_RGB('',0.752941191196442,0.752941191196442,0.752941191196442);
#475=AXIS2_PLACEMENT_3D('',#549,#550,#551);
#476=COLOUR_RGB('',0.752941191196442,0.752941191196442,0.752941191196442);
#477=COLOUR_RGB('',0.752941191196442,0.752941191196442,0.752941191196442);
#478=CARTESIAN_POINT('',(0.700000000000001,-2.14306111918916E-015,-17.5));
#479=CARTESIAN_POINT('',(12.5,-2.14306111918916E-015,-17.5));
#480=VECTOR('',#552,1.0);
#481=AXIS2_PLACEMENT_3D('',#553,#554,#555);
#482=CARTESIAN_POINT('',(12.5,2.14306111918916E-015,17.5));
#483=VECTOR('',#556,1.0);
#484=COLOUR_RGB('',0.752941191196442,0.752941191196442,0.752941191196442);
#485=COLOUR_RGB('',0.752941191196442,0.752941191196442,0.752941191196442);
#486=AXIS2_PLACEMENT_3D('',#557,#558,#559);
#487=COLOUR_RGB('',0.752941191196442,0.752941191196442,0.752941191196442);
#488=CARTESIAN_POINT('',(25.0,0.0,0.0));
#489=DIRECTION('',(-1.0,0.0,0.0));
#490=DIRECTION('',(0.0,1.0,0.0));
#491=CARTESIAN_POINT('',(25.0,0.0,0.0));
#492=DIRECTION('',(-1.0,0.0,0.0));
#493=DIRECTION('',(0.0,1.0,0.0));
#494=CARTESIAN_POINT('',(25.0,0.0,-3.45126646034193E-031));
#495=DIRECTION('',(1.0,0.0,0.0));
#496=DIRECTION('',(0.0,1.0,0.0));
#497=CARTESIAN_POINT('',(25.0,0.0,-3.45126646034193E-031));
#498=DIRECTION('',(1.0,0.0,0.0));
#499=DIRECTION('',(0.0,1.0,0.0));
#500=DIRECTION('',(-0.707106781186548,0.707106781186547,-2.59778237121581E-016));
#501=DIRECTION('',(0.707106781186548,0.707106781186547,8.65927457071936E-017));
#502=CARTESIAN_POINT('',(24.3,0.0,0.0));
#503=DIRECTION('',(-1.0,0.0,-2.44921270764475E-016));
#504=DIRECTION('',(2.44921270764475E-016,0.0,-1.0));
#505=CARTESIAN_POINT('',(24.3,0.0,0.0));
#506=DIRECTION('',(-1.0,0.0,-2.44921270764475E-016));
#507=DIRECTION('',(2.44921270764475E-016,0.0,-1.0));
#508=DIRECTION('',(0.707106781186548,0.707106781186547,1.73185491414387E-016));
#509=CARTESIAN_POINT('',(0.0,0.0,-4.31408307542741E-032));
#510=DIRECTION('',(-1.0,0.0,0.0));
#511=DIRECTION('',(0.0,1.0,0.0));
#512=DIRECTION('',(-0.707106781186548,0.707106781186547,0.0));
#513=CARTESIAN_POINT('',(0.699999999999999,0.0,0.0));
#514=DIRECTION('',(1.0,0.0,1.22460635382238E-016));
#515=DIRECTION('',(1.22460635382238E-016,0.0,-1.0));
#516=CARTESIAN_POINT('',(0.699999999999999,0.0,0.0));
#517=DIRECTION('',(1.0,0.0,1.22460635382238E-016));
#518=DIRECTION('',(1.22460635382238E-016,0.0,-1.0));
#519=CARTESIAN_POINT('',(24.3,0.0,0.0));
#520=DIRECTION('',(-1.0,0.0,-2.44921270764475E-016));
#521=DIRECTION('',(2.44921270764475E-016,0.0,-1.0));
#522=CARTESIAN_POINT('',(24.3,0.0,0.0));
#523=DIRECTION('',(-1.0,0.0,-2.44921270764475E-016));
#524=DIRECTION('',(2.44921270764475E-016,0.0,-1.0));
#525=DIRECTION('',(-0.707106781186548,0.707106781186548,-8.65927457071936E-017));
#526=CARTESIAN_POINT('',(0.5,0.0,0.0));
#527=DIRECTION('',(1.0,0.0,0.0));
#528=DIRECTION('',(0.0,1.0,0.0));
#529=DIRECTION('',(0.707106781186548,0.707106781186548,-8.65927457071935E-017));
#530=CARTESIAN_POINT('',(0.0,0.0,0.0));
#531=DIRECTION('',(1.0,0.0,0.0));
#532=DIRECTION('',(0.0,1.0,0.0));
#533=DIRECTION('',(-1.0,-0.0,0.0));
#534=CARTESIAN_POINT('',(0.5,0.0,0.0));
#535=DIRECTION('',(1.0,0.0,0.0));
#536=DIRECTION('',(0.0,1.0,0.0));
#537=DIRECTION('',(1.0,-0.0,0.0));
#538=CARTESIAN_POINT('',(24.5,0.0,0.0));
#539=DIRECTION('',(1.0,0.0,0.0));
#540=DIRECTION('',(0.0,1.0,0.0));
#541=CARTESIAN_POINT('',(0.0,0.0,0.0));
#542=DIRECTION('',(1.0,0.0,0.0));
#543=DIRECTION('',(0.0,1.0,0.0));
#544=DIRECTION('',(-0.707106781186548,-0.707106781186548,8.65927457071936E-017));
#545=DIRECTION('',(0.707106781186548,-0.707106781186548,8.65927457071935E-017));
#546=CARTESIAN_POINT('',(24.5,0.0,0.0));
#547=DIRECTION('',(1.0,0.0,0.0));
#548=DIRECTION('',(0.0,1.0,0.0));
#549=CARTESIAN_POINT('',(0.0,0.0,-4.31408307542741E-032));
#550=DIRECTION('',(-1.0,0.0,0.0));
#551=DIRECTION('',(0.0,1.0,0.0));
#552=DIRECTION('',(1.0,0.0,0.0));
#553=CARTESIAN_POINT('',(0.699999999999999,0.0,0.0));
#554=DIRECTION('',(1.0,0.0,1.22460635382238E-016));
#555=DIRECTION('',(1.22460635382238E-016,0.0,-1.0));
#556=DIRECTION('',(-1.0,-0.0,-0.0));
#557=CARTESIAN_POINT('',(0.699999999999999,0.0,0.0));
#558=DIRECTION('',(1.0,0.0,1.22460635382238E-016));
#559=DIRECTION('',(1.22460635382238E-016,0.0,-1.0));
ENDSEC;
END-ISO-10303-21;
