ISO-10303-21;
HEADER;
FILE_DESCRIPTION(('STEP AP214'),'1');
FILE_NAME('C:/Temp/output/halder/CAD/Temp/HALDERN_EH_23111_0808.stp','2015-05-04T09:25:16',('TraceParts'),('TraceParts S.A.'),'Spatial InterOp 3D',' ',' ');
FILE_SCHEMA(('automotive_design'));
ENDSEC;
DATA;
#1=MECHANICAL_DESIGN_GEOMETRIC_PRESENTATION_REPRESENTATION(' ',(#10,#11,#12,#13,#14,#15,#16,#17,#18,#19,#20,#21,#22,#23),#6);
#2=PRODUCT_DEFINITION_CONTEXT('',#24,'design');
#3=APPLICATION_PROTOCOL_DEFINITION('INTERNATIONAL STANDARD','automotive_design',1994,#24);
#4=PRODUCT_CATEGORY_RELATIONSHIP('NONE','NONE',#25,#26);
#5=SHAPE_DEFINITION_REPRESENTATION(#27,#28);
#6= (GEOMETRIC_REPRESENTATION_CONTEXT(3)GLOBAL_UNCERTAINTY_ASSIGNED_CONTEXT((#31))GLOBAL_UNIT_ASSIGNED_CONTEXT((#33,#34,#35))REPRESENTATION_CONTEXT('NONE','WORKSPACE'));
#10=STYLED_ITEM('',(#37),#38);
#11=STYLED_ITEM('',(#39),#40);
#12=STYLED_ITEM('',(#41),#42);
#13=STYLED_ITEM('',(#43),#44);
#14=STYLED_ITEM('',(#45),#46);
#15=STYLED_ITEM('',(#47),#48);
#16=STYLED_ITEM('',(#49),#50);
#17=STYLED_ITEM('',(#51),#52);
#18=STYLED_ITEM('',(#53),#54);
#19=STYLED_ITEM('',(#55),#56);
#20=STYLED_ITEM('',(#57),#58);
#21=STYLED_ITEM('',(#59),#60);
#22=STYLED_ITEM('',(#61),#62);
#23=STYLED_ITEM('',(#63),#64);
#24=APPLICATION_CONTEXT(' ');
#25=PRODUCT_CATEGORY('part','NONE');
#26=PRODUCT_RELATED_PRODUCT_CATEGORY('detail',' ',(#65));
#27=PRODUCT_DEFINITION_SHAPE('NONE','NONE',#66);
#28=ADVANCED_BREP_SHAPE_REPRESENTATION('1',(#67,#68),#6);
#31=UNCERTAINTY_MEASURE_WITH_UNIT(LENGTH_MEASURE(1.0E-006),#33,'','');
#33= (CONVERSION_BASED_UNIT('MILLIMETRE',#71)LENGTH_UNIT()NAMED_UNIT(#74));
#34= (NAMED_UNIT(#76)PLANE_ANGLE_UNIT()SI_UNIT($,.RADIAN.));
#35= (NAMED_UNIT(#76)SOLID_ANGLE_UNIT()SI_UNIT($,.STERADIAN.));
#37=PRESENTATION_STYLE_ASSIGNMENT((#82));
#38=ADVANCED_FACE('',(#83),#84,.F.);
#39=PRESENTATION_STYLE_ASSIGNMENT((#85));
#40=ADVANCED_FACE('',(#86),#87,.T.);
#41=PRESENTATION_STYLE_ASSIGNMENT((#88));
#42=ADVANCED_FACE('',(#89),#90,.F.);
#43=PRESENTATION_STYLE_ASSIGNMENT((#91));
#44=ADVANCED_FACE('',(#92),#93,.T.);
#45=PRESENTATION_STYLE_ASSIGNMENT((#94));
#46=ADVANCED_FACE('',(#95),#96,.F.);
#47=PRESENTATION_STYLE_ASSIGNMENT((#97));
#48=ADVANCED_FACE('',(#98),#99,.F.);
#49=PRESENTATION_STYLE_ASSIGNMENT((#100));
#50=ADVANCED_FACE('',(#101),#102,.F.);
#51=PRESENTATION_STYLE_ASSIGNMENT((#103));
#52=ADVANCED_FACE('',(#104),#105,.T.);
#53=PRESENTATION_STYLE_ASSIGNMENT((#106));
#54=ADVANCED_FACE('',(#107),#108,.T.);
#55=PRESENTATION_STYLE_ASSIGNMENT((#109));
#56=ADVANCED_FACE('',(#110,#111),#112,.T.);
#57=PRESENTATION_STYLE_ASSIGNMENT((#113));
#58=ADVANCED_FACE('',(#114,#115),#116,.T.);
#59=PRESENTATION_STYLE_ASSIGNMENT((#117));
#60=ADVANCED_FACE('',(#118),#119,.F.);
#61=PRESENTATION_STYLE_ASSIGNMENT((#120));
#62=ADVANCED_FACE('',(#121),#122,.T.);
#63=PRESENTATION_STYLE_ASSIGNMENT((#123));
#64=ADVANCED_FACE('',(#124),#125,.T.);
#65=PRODUCT('1','1','PART-1-DESC',(#126));
#66=PRODUCT_DEFINITION('NONE','NONE',#127,#2);
#67=MANIFOLD_SOLID_BREP('1',#128);
#68=AXIS2_PLACEMENT_3D('',#129,#130,#131);
#71=LENGTH_MEASURE_WITH_UNIT(LENGTH_MEASURE(1.0),#132);
#74=DIMENSIONAL_EXPONENTS(1.0,0.0,0.0,0.0,0.0,0.0,0.0);
#76=DIMENSIONAL_EXPONENTS(0.0,0.0,0.0,0.0,0.0,0.0,0.0);
#82=SURFACE_STYLE_USAGE(.BOTH.,#133);
#83=FACE_OUTER_BOUND('',#134,.T.);
#84=CYLINDRICAL_SURFACE('',#135,10.0);
#85=SURFACE_STYLE_USAGE(.BOTH.,#136);
#86=FACE_OUTER_BOUND('',#137,.T.);
#87=CONICAL_SURFACE('',#138,17.15,0.785398163397448);
#88=SURFACE_STYLE_USAGE(.BOTH.,#139);
#89=FACE_OUTER_BOUND('',#140,.T.);
#90=CONICAL_SURFACE('',#141,10.2,0.78539816339745);
#91=SURFACE_STYLE_USAGE(.BOTH.,#142);
#92=FACE_OUTER_BOUND('',#143,.T.);
#93=CYLINDRICAL_SURFACE('',#144,17.5);
#94=SURFACE_STYLE_USAGE(.BOTH.,#145);
#95=FACE_OUTER_BOUND('',#146,.T.);
#96=CONICAL_SURFACE('',#147,10.2,0.785398163397449);
#97=SURFACE_STYLE_USAGE(.BOTH.,#148);
#98=FACE_OUTER_BOUND('',#149,.T.);
#99=CONICAL_SURFACE('',#150,10.2,0.785398163397449);
#100=SURFACE_STYLE_USAGE(.BOTH.,#151);
#101=FACE_OUTER_BOUND('',#152,.T.);
#102=CONICAL_SURFACE('',#153,10.2,0.78539816339745);
#103=SURFACE_STYLE_USAGE(.BOTH.,#154);
#104=FACE_OUTER_BOUND('',#155,.T.);
#105=CONICAL_SURFACE('',#156,17.15,0.785398163397448);
#106=SURFACE_STYLE_USAGE(.BOTH.,#157);
#107=FACE_OUTER_BOUND('',#158,.T.);
#108=CONICAL_SURFACE('',#159,17.15,0.785398163397448);
#109=SURFACE_STYLE_USAGE(.BOTH.,#160);
#110=FACE_BOUND('',#161,.T.);
#111=FACE_OUTER_BOUND('',#162,.T.);
#112=PLANE('',#163);
#113=SURFACE_STYLE_USAGE(.BOTH.,#164);
#114=FACE_BOUND('',#165,.T.);
#115=FACE_OUTER_BOUND('',#166,.T.);
#116=PLANE('',#167);
#117=SURFACE_STYLE_USAGE(.BOTH.,#168);
#118=FACE_OUTER_BOUND('',#169,.T.);
#119=CYLINDRICAL_SURFACE('',#170,10.0);
#120=SURFACE_STYLE_USAGE(.BOTH.,#171);
#121=FACE_OUTER_BOUND('',#172,.T.);
#122=CONICAL_SURFACE('',#173,17.15,0.785398163397448);
#123=SURFACE_STYLE_USAGE(.BOTH.,#174);
#124=FACE_OUTER_BOUND('',#175,.T.);
#125=CYLINDRICAL_SURFACE('',#176,17.5);
#126=PRODUCT_CONTEXT('',#24,'mechanical');
#127=PRODUCT_DEFINITION_FORMATION_WITH_SPECIFIED_SOURCE(' ','NONE',#65,.NOT_KNOWN.);
#128=CLOSED_SHELL('',(#44,#54,#40,#42,#60,#46,#48,#38,#50,#52,#62,#64,#56,#58));
#129=CARTESIAN_POINT('',(0.0,0.0,0.0));
#130=DIRECTION('',(0.0,0.0,1.0));
#131=DIRECTION('',(1.0,0.0,0.0));
#132= (NAMED_UNIT(#74)LENGTH_UNIT()SI_UNIT(.MILLI.,.METRE.));
#133=SURFACE_SIDE_STYLE('',(#178));
#134=EDGE_LOOP('',(#179,#180,#181,#182));
#135=AXIS2_PLACEMENT_3D('',#183,#184,#185);
#136=SURFACE_SIDE_STYLE('',(#186));
#137=EDGE_LOOP('',(#187,#188,#189,#190,#191));
#138=AXIS2_PLACEMENT_3D('',#192,#193,#194);
#139=SURFACE_SIDE_STYLE('',(#195));
#140=EDGE_LOOP('',(#196,#197,#198,#199));
#141=AXIS2_PLACEMENT_3D('',#200,#201,#202);
#142=SURFACE_SIDE_STYLE('',(#203));
#143=EDGE_LOOP('',(#204,#205,#206,#207,#208,#209));
#144=AXIS2_PLACEMENT_3D('',#210,#211,#212);
#145=SURFACE_SIDE_STYLE('',(#213));
#146=EDGE_LOOP('',(#214,#215,#216,#217));
#147=AXIS2_PLACEMENT_3D('',#218,#219,#220);
#148=SURFACE_SIDE_STYLE('',(#221));
#149=EDGE_LOOP('',(#222,#223,#224,#225));
#150=AXIS2_PLACEMENT_3D('',#226,#227,#228);
#151=SURFACE_SIDE_STYLE('',(#229));
#152=EDGE_LOOP('',(#230,#231,#232,#233));
#153=AXIS2_PLACEMENT_3D('',#234,#235,#236);
#154=SURFACE_SIDE_STYLE('',(#237));
#155=EDGE_LOOP('',(#238,#239,#240,#241,#242));
#156=AXIS2_PLACEMENT_3D('',#243,#244,#245);
#157=SURFACE_SIDE_STYLE('',(#246));
#158=EDGE_LOOP('',(#247,#248,#249,#250,#251));
#159=AXIS2_PLACEMENT_3D('',#252,#253,#254);
#160=SURFACE_SIDE_STYLE('',(#255));
#161=EDGE_LOOP('',(#256,#257));
#162=EDGE_LOOP('',(#258,#259));
#163=AXIS2_PLACEMENT_3D('',#260,#261,#262);
#164=SURFACE_SIDE_STYLE('',(#263));
#165=EDGE_LOOP('',(#264,#265));
#166=EDGE_LOOP('',(#266,#267));
#167=AXIS2_PLACEMENT_3D('',#268,#269,#270);
#168=SURFACE_SIDE_STYLE('',(#271));
#169=EDGE_LOOP('',(#272,#273,#274,#275));
#170=AXIS2_PLACEMENT_3D('',#276,#277,#278);
#171=SURFACE_SIDE_STYLE('',(#279));
#172=EDGE_LOOP('',(#280,#281,#282,#283,#284));
#173=AXIS2_PLACEMENT_3D('',#285,#286,#287);
#174=SURFACE_SIDE_STYLE('',(#288));
#175=EDGE_LOOP('',(#289,#290,#291,#292,#293,#294));
#176=AXIS2_PLACEMENT_3D('',#295,#296,#297);
#178=SURFACE_STYLE_FILL_AREA(#298);
#179=ORIENTED_EDGE('',*,*,#299,.T.);
#180=ORIENTED_EDGE('',*,*,#300,.F.);
#181=ORIENTED_EDGE('',*,*,#301,.T.);
#182=ORIENTED_EDGE('',*,*,#302,.T.);
#183=CARTESIAN_POINT('',(12.5,0.0,0.0));
#184=DIRECTION('',(1.0,0.0,0.0));
#185=DIRECTION('',(0.0,1.0,0.0));
#186=SURFACE_STYLE_FILL_AREA(#303);
#187=ORIENTED_EDGE('',*,*,#304,.F.);
#188=ORIENTED_EDGE('',*,*,#305,.F.);
#189=ORIENTED_EDGE('',*,*,#306,.F.);
#190=ORIENTED_EDGE('',*,*,#307,.F.);
#191=ORIENTED_EDGE('',*,*,#308,.F.);
#192=CARTESIAN_POINT('',(24.65,0.0,-8.57224447675664E-017));
#193=DIRECTION('',(-1.0,0.0,-2.44921270764475E-016));
#194=DIRECTION('',(0.0,1.0,0.0));
#195=SURFACE_STYLE_FILL_AREA(#309);
#196=ORIENTED_EDGE('',*,*,#310,.F.);
#197=ORIENTED_EDGE('',*,*,#311,.F.);
#198=ORIENTED_EDGE('',*,*,#312,.F.);
#199=ORIENTED_EDGE('',*,*,#313,.F.);
#200=CARTESIAN_POINT('',(24.8,0.0,0.0));
#201=DIRECTION('',(1.0,-0.0,-0.0));
#202=DIRECTION('',(0.0,1.0,0.0));
#203=SURFACE_STYLE_FILL_AREA(#314);
#204=ORIENTED_EDGE('',*,*,#315,.F.);
#205=ORIENTED_EDGE('',*,*,#316,.T.);
#206=ORIENTED_EDGE('',*,*,#317,.T.);
#207=ORIENTED_EDGE('',*,*,#318,.F.);
#208=ORIENTED_EDGE('',*,*,#319,.T.);
#209=ORIENTED_EDGE('',*,*,#308,.T.);
#210=CARTESIAN_POINT('',(12.5,0.0,0.0));
#211=DIRECTION('',(1.0,0.0,0.0));
#212=DIRECTION('',(0.0,0.0,-1.0));
#213=SURFACE_STYLE_FILL_AREA(#320);
#214=ORIENTED_EDGE('',*,*,#321,.F.);
#215=ORIENTED_EDGE('',*,*,#322,.T.);
#216=ORIENTED_EDGE('',*,*,#323,.F.);
#217=ORIENTED_EDGE('',*,*,#324,.F.);
#218=CARTESIAN_POINT('',(0.199999999999999,0.0,0.0));
#219=DIRECTION('',(-1.0,-0.0,-0.0));
#220=DIRECTION('',(0.0,1.0,0.0));
#221=SURFACE_STYLE_FILL_AREA(#325);
#222=ORIENTED_EDGE('',*,*,#321,.T.);
#223=ORIENTED_EDGE('',*,*,#326,.F.);
#224=ORIENTED_EDGE('',*,*,#323,.T.);
#225=ORIENTED_EDGE('',*,*,#300,.T.);
#226=CARTESIAN_POINT('',(0.199999999999999,0.0,0.0));
#227=DIRECTION('',(-1.0,-0.0,-0.0));
#228=DIRECTION('',(0.0,1.0,0.0));
#229=SURFACE_STYLE_FILL_AREA(#327);
#230=ORIENTED_EDGE('',*,*,#310,.T.);
#231=ORIENTED_EDGE('',*,*,#302,.F.);
#232=ORIENTED_EDGE('',*,*,#312,.T.);
#233=ORIENTED_EDGE('',*,*,#328,.F.);
#234=CARTESIAN_POINT('',(24.8,0.0,0.0));
#235=DIRECTION('',(1.0,-0.0,-0.0));
#236=DIRECTION('',(0.0,1.0,0.0));
#237=SURFACE_STYLE_FILL_AREA(#329);
#238=ORIENTED_EDGE('',*,*,#304,.T.);
#239=ORIENTED_EDGE('',*,*,#319,.F.);
#240=ORIENTED_EDGE('',*,*,#330,.F.);
#241=ORIENTED_EDGE('',*,*,#306,.T.);
#242=ORIENTED_EDGE('',*,*,#331,.F.);
#243=CARTESIAN_POINT('',(24.65,0.0,-8.57224447675664E-017));
#244=DIRECTION('',(-1.0,0.0,-2.44921270764475E-016));
#245=DIRECTION('',(0.0,1.0,0.0));
#246=SURFACE_STYLE_FILL_AREA(#332);
#247=ORIENTED_EDGE('',*,*,#333,.F.);
#248=ORIENTED_EDGE('',*,*,#334,.F.);
#249=ORIENTED_EDGE('',*,*,#335,.F.);
#250=ORIENTED_EDGE('',*,*,#336,.F.);
#251=ORIENTED_EDGE('',*,*,#317,.F.);
#252=CARTESIAN_POINT('',(0.35,0.0,4.28612223837832E-017));
#253=DIRECTION('',(1.0,-0.0,1.22460635382238E-016));
#254=DIRECTION('',(0.0,1.0,0.0));
#255=SURFACE_STYLE_FILL_AREA(#337);
#256=ORIENTED_EDGE('',*,*,#324,.T.);
#257=ORIENTED_EDGE('',*,*,#326,.T.);
#258=ORIENTED_EDGE('',*,*,#338,.T.);
#259=ORIENTED_EDGE('',*,*,#334,.T.);
#260=CARTESIAN_POINT('',(0.0,0.0,0.0));
#261=DIRECTION('',(-1.0,0.0,0.0));
#262=DIRECTION('',(0.0,0.0,1.0));
#263=SURFACE_STYLE_FILL_AREA(#339);
#264=ORIENTED_EDGE('',*,*,#328,.T.);
#265=ORIENTED_EDGE('',*,*,#311,.T.);
#266=ORIENTED_EDGE('',*,*,#331,.T.);
#267=ORIENTED_EDGE('',*,*,#305,.T.);
#268=CARTESIAN_POINT('',(25.0,0.0,0.0));
#269=DIRECTION('',(1.0,0.0,0.0));
#270=DIRECTION('',(0.0,0.0,-1.0));
#271=SURFACE_STYLE_FILL_AREA(#340);
#272=ORIENTED_EDGE('',*,*,#299,.F.);
#273=ORIENTED_EDGE('',*,*,#313,.T.);
#274=ORIENTED_EDGE('',*,*,#301,.F.);
#275=ORIENTED_EDGE('',*,*,#322,.F.);
#276=CARTESIAN_POINT('',(12.5,0.0,0.0));
#277=DIRECTION('',(1.0,0.0,0.0));
#278=DIRECTION('',(0.0,1.0,0.0));
#279=SURFACE_STYLE_FILL_AREA(#341);
#280=ORIENTED_EDGE('',*,*,#333,.T.);
#281=ORIENTED_EDGE('',*,*,#316,.F.);
#282=ORIENTED_EDGE('',*,*,#342,.F.);
#283=ORIENTED_EDGE('',*,*,#335,.T.);
#284=ORIENTED_EDGE('',*,*,#338,.F.);
#285=CARTESIAN_POINT('',(0.35,0.0,4.28612223837832E-017));
#286=DIRECTION('',(1.0,-0.0,1.22460635382238E-016));
#287=DIRECTION('',(0.0,1.0,0.0));
#288=SURFACE_STYLE_FILL_AREA(#343);
#289=ORIENTED_EDGE('',*,*,#315,.T.);
#290=ORIENTED_EDGE('',*,*,#307,.T.);
#291=ORIENTED_EDGE('',*,*,#330,.T.);
#292=ORIENTED_EDGE('',*,*,#318,.T.);
#293=ORIENTED_EDGE('',*,*,#336,.T.);
#294=ORIENTED_EDGE('',*,*,#342,.T.);
#295=CARTESIAN_POINT('',(12.5,0.0,0.0));
#296=DIRECTION('',(1.0,0.0,0.0));
#297=DIRECTION('',(0.0,0.0,-1.0));
#298=FILL_AREA_STYLE('',(#344));
#299=EDGE_CURVE('',#345,#346,#347,.T.);
#300=EDGE_CURVE('',#348,#346,#349,.T.);
#301=EDGE_CURVE('',#348,#350,#351,.T.);
#302=EDGE_CURVE('',#350,#345,#352,.T.);
#303=FILL_AREA_STYLE('',(#353));
#304=EDGE_CURVE('',#354,#355,#356,.T.);
#305=EDGE_CURVE('',#357,#354,#358,.T.);
#306=EDGE_CURVE('',#359,#357,#360,.T.);
#307=EDGE_CURVE('',#361,#359,#362,.T.);
#308=EDGE_CURVE('',#355,#361,#363,.T.);
#309=FILL_AREA_STYLE('',(#364));
#310=EDGE_CURVE('',#365,#345,#366,.T.);
#311=EDGE_CURVE('',#367,#365,#368,.T.);
#312=EDGE_CURVE('',#350,#367,#369,.T.);
#313=EDGE_CURVE('',#345,#350,#370,.T.);
#314=FILL_AREA_STYLE('',(#371));
#315=EDGE_CURVE('',#372,#361,#373,.T.);
#316=EDGE_CURVE('',#372,#374,#375,.T.);
#317=EDGE_CURVE('',#374,#376,#377,.T.);
#318=EDGE_CURVE('',#378,#376,#379,.T.);
#319=EDGE_CURVE('',#378,#355,#380,.T.);
#320=FILL_AREA_STYLE('',(#381));
#321=EDGE_CURVE('',#346,#382,#383,.T.);
#322=EDGE_CURVE('',#346,#348,#384,.T.);
#323=EDGE_CURVE('',#385,#348,#386,.T.);
#324=EDGE_CURVE('',#382,#385,#387,.T.);
#325=FILL_AREA_STYLE('',(#388));
#326=EDGE_CURVE('',#385,#382,#389,.T.);
#327=FILL_AREA_STYLE('',(#390));
#328=EDGE_CURVE('',#365,#367,#391,.T.);
#329=FILL_AREA_STYLE('',(#392));
#330=EDGE_CURVE('',#359,#378,#393,.T.);
#331=EDGE_CURVE('',#354,#357,#394,.T.);
#332=FILL_AREA_STYLE('',(#395));
#333=EDGE_CURVE('',#396,#374,#397,.T.);
#334=EDGE_CURVE('',#398,#396,#399,.T.);
#335=EDGE_CURVE('',#400,#398,#401,.T.);
#336=EDGE_CURVE('',#376,#400,#402,.T.);
#337=FILL_AREA_STYLE('',(#403));
#338=EDGE_CURVE('',#396,#398,#404,.T.);
#339=FILL_AREA_STYLE('',(#405));
#340=FILL_AREA_STYLE('',(#406));
#341=FILL_AREA_STYLE('',(#407));
#342=EDGE_CURVE('',#400,#372,#408,.T.);
#343=FILL_AREA_STYLE('',(#409));
#344=FILL_AREA_STYLE_COLOUR('',#410);
#345=VERTEX_POINT('',#411);
#346=VERTEX_POINT('',#412);
#347=LINE('',#413,#414);
#348=VERTEX_POINT('',#415);
#349=CIRCLE('',#416,10.0);
#350=VERTEX_POINT('',#417);
#351=LINE('',#418,#419);
#352=CIRCLE('',#420,10.0);
#353=FILL_AREA_STYLE_COLOUR('',#421);
#354=VERTEX_POINT('',#422);
#355=VERTEX_POINT('',#423);
#356=LINE('',#424,#425);
#357=VERTEX_POINT('',#426);
#358=CIRCLE('',#427,16.8);
#359=VERTEX_POINT('',#428);
#360=LINE('',#429,#430);
#361=VERTEX_POINT('',#431);
#362=CIRCLE('',#432,17.5);
#363=CIRCLE('',#433,17.5);
#364=FILL_AREA_STYLE_COLOUR('',#434);
#365=VERTEX_POINT('',#435);
#366=LINE('',#436,#437);
#367=VERTEX_POINT('',#438);
#368=CIRCLE('',#439,10.4);
#369=LINE('',#440,#441);
#370=CIRCLE('',#442,10.0);
#371=FILL_AREA_STYLE_COLOUR('',#443);
#372=VERTEX_POINT('',#444);
#373=LINE('',#445,#446);
#374=VERTEX_POINT('',#447);
#375=CIRCLE('',#448,17.5);
#376=VERTEX_POINT('',#449);
#377=CIRCLE('',#450,17.5);
#378=VERTEX_POINT('',#451);
#379=LINE('',#452,#453);
#380=CIRCLE('',#454,17.5);
#381=FILL_AREA_STYLE_COLOUR('',#455);
#382=VERTEX_POINT('',#456);
#383=LINE('',#457,#458);
#384=CIRCLE('',#459,10.0);
#385=VERTEX_POINT('',#460);
#386=LINE('',#461,#462);
#387=CIRCLE('',#463,10.4);
#388=FILL_AREA_STYLE_COLOUR('',#464);
#389=CIRCLE('',#465,10.4);
#390=FILL_AREA_STYLE_COLOUR('',#466);
#391=CIRCLE('',#467,10.4);
#392=FILL_AREA_STYLE_COLOUR('',#468);
#393=CIRCLE('',#469,17.5);
#394=CIRCLE('',#470,16.8);
#395=FILL_AREA_STYLE_COLOUR('',#471);
#396=VERTEX_POINT('',#472);
#397=LINE('',#473,#474);
#398=VERTEX_POINT('',#475);
#399=CIRCLE('',#476,16.8);
#400=VERTEX_POINT('',#477);
#401=LINE('',#478,#479);
#402=CIRCLE('',#480,17.5);
#403=FILL_AREA_STYLE_COLOUR('',#481);
#404=CIRCLE('',#482,16.8);
#405=FILL_AREA_STYLE_COLOUR('',#483);
#406=FILL_AREA_STYLE_COLOUR('',#484);
#407=FILL_AREA_STYLE_COLOUR('',#485);
#408=CIRCLE('',#486,17.5);
#409=FILL_AREA_STYLE_COLOUR('',#487);
#410=COLOUR_RGB('',0.752941191196442,0.752941191196442,0.752941191196442);
#411=CARTESIAN_POINT('',(24.6,10.0,0.0));
#412=CARTESIAN_POINT('',(0.399999999999999,10.0,0.0));
#413=CARTESIAN_POINT('',(12.5,10.0,-1.22460635382238E-015));
#414=VECTOR('',#488,1.0);
#415=CARTESIAN_POINT('',(0.399999999999999,-10.0,1.22460635382238E-015));
#416=AXIS2_PLACEMENT_3D('',#489,#490,#491);
#417=CARTESIAN_POINT('',(24.6,-10.0,1.22460635382238E-015));
#418=CARTESIAN_POINT('',(12.5,-10.0,1.22460635382238E-015));
#419=VECTOR('',#492,1.0);
#420=AXIS2_PLACEMENT_3D('',#493,#494,#495);
#421=COLOUR_RGB('',0.752941191196442,0.752941191196442,0.752941191196442);
#422=CARTESIAN_POINT('',(25.0,16.8,0.0));
#423=CARTESIAN_POINT('',(24.3,17.5,-1.71444889535133E-016));
#424=CARTESIAN_POINT('',(24.65,17.15,-2.18592234157294E-015));
#425=VECTOR('',#496,1.0);
#426=CARTESIAN_POINT('',(25.0,-16.8,2.05733867442159E-015));
#427=AXIS2_PLACEMENT_3D('',#497,#498,#499);
#428=CARTESIAN_POINT('',(24.3,-17.5,1.97161622965403E-015));
#429=CARTESIAN_POINT('',(24.65,-17.15,2.01447745203781E-015));
#430=VECTOR('',#500,1.0);
#431=CARTESIAN_POINT('',(24.3,-2.14306111918916E-015,-17.5));
#432=AXIS2_PLACEMENT_3D('',#501,#502,#503);
#433=AXIS2_PLACEMENT_3D('',#504,#505,#506);
#434=COLOUR_RGB('',0.752941191196442,0.752941191196442,0.752941191196442);
#435=CARTESIAN_POINT('',(25.0,10.4,0.0));
#436=CARTESIAN_POINT('',(24.8,10.2,-1.24909848089883E-015));
#437=VECTOR('',#507,1.0);
#438=CARTESIAN_POINT('',(25.0,-10.4,1.27359060797527E-015));
#439=AXIS2_PLACEMENT_3D('',#508,#509,#510);
#440=CARTESIAN_POINT('',(24.8,-10.2,1.24909848089883E-015));
#441=VECTOR('',#511,1.0);
#442=AXIS2_PLACEMENT_3D('',#512,#513,#514);
#443=COLOUR_RGB('',0.752941191196442,0.752941191196442,0.752941191196442);
#444=CARTESIAN_POINT('',(0.700000000000001,-2.14306111918916E-015,-17.5));
#445=CARTESIAN_POINT('',(12.5,-2.14306111918916E-015,-17.5));
#446=VECTOR('',#515,1.0);
#447=CARTESIAN_POINT('',(0.699999999999999,17.5,8.57224447675664E-017));
#448=AXIS2_PLACEMENT_3D('',#516,#517,#518);
#449=CARTESIAN_POINT('',(0.699999999999997,2.14306111918916E-015,17.5));
#450=AXIS2_PLACEMENT_3D('',#519,#520,#521);
#451=CARTESIAN_POINT('',(24.3,2.14306111918916E-015,17.5));
#452=CARTESIAN_POINT('',(12.5,2.14306111918916E-015,17.5));
#453=VECTOR('',#522,1.0);
#454=AXIS2_PLACEMENT_3D('',#523,#524,#525);
#455=COLOUR_RGB('',0.752941191196442,0.752941191196442,0.752941191196442);
#456=CARTESIAN_POINT('',(0.0,10.4,0.0));
#457=CARTESIAN_POINT('',(0.199999999999999,10.2,-1.24909848089882E-015));
#458=VECTOR('',#526,1.0);
#459=AXIS2_PLACEMENT_3D('',#527,#528,#529);
#460=CARTESIAN_POINT('',(0.0,-10.4,1.27359060797527E-015));
#461=CARTESIAN_POINT('',(0.199999999999999,-10.2,1.24909848089883E-015));
#462=VECTOR('',#530,1.0);
#463=AXIS2_PLACEMENT_3D('',#531,#532,#533);
#464=COLOUR_RGB('',0.752941191196442,0.752941191196442,0.752941191196442);
#465=AXIS2_PLACEMENT_3D('',#534,#535,#536);
#466=COLOUR_RGB('',0.752941191196442,0.752941191196442,0.752941191196442);
#467=AXIS2_PLACEMENT_3D('',#537,#538,#539);
#468=COLOUR_RGB('',0.752941191196442,0.752941191196442,0.752941191196442);
#469=AXIS2_PLACEMENT_3D('',#540,#541,#542);
#470=AXIS2_PLACEMENT_3D('',#543,#544,#545);
#471=COLOUR_RGB('',0.752941191196442,0.752941191196442,0.752941191196442);
#472=CARTESIAN_POINT('',(0.0,16.8,0.0));
#473=CARTESIAN_POINT('',(0.35,17.15,2.14306111918916E-015));
#474=VECTOR('',#546,1.0);
#475=CARTESIAN_POINT('',(0.0,-16.8,-2.05733867442159E-015));
#476=AXIS2_PLACEMENT_3D('',#547,#548,#549);
#477=CARTESIAN_POINT('',(0.699999999999999,-17.5,-2.05733867442159E-015));
#478=CARTESIAN_POINT('',(0.35,-17.15,-2.05733867442159E-015));
#479=VECTOR('',#550,1.0);
#480=AXIS2_PLACEMENT_3D('',#551,#552,#553);
#481=COLOUR_RGB('',0.752941191196442,0.752941191196442,0.752941191196442);
#482=AXIS2_PLACEMENT_3D('',#554,#555,#556);
#483=COLOUR_RGB('',0.752941191196442,0.752941191196442,0.752941191196442);
#484=COLOUR_RGB('',0.752941191196442,0.752941191196442,0.752941191196442);
#485=COLOUR_RGB('',0.752941191196442,0.752941191196442,0.752941191196442);
#486=AXIS2_PLACEMENT_3D('',#557,#558,#559);
#487=COLOUR_RGB('',0.752941191196442,0.752941191196442,0.752941191196442);
#488=DIRECTION('',(-1.0,-0.0,0.0));
#489=CARTESIAN_POINT('',(0.399999999999999,0.0,0.0));
#490=DIRECTION('',(1.0,0.0,0.0));
#491=DIRECTION('',(0.0,1.0,0.0));
#492=DIRECTION('',(1.0,-0.0,0.0));
#493=CARTESIAN_POINT('',(24.6,0.0,0.0));
#494=DIRECTION('',(1.0,0.0,0.0));
#495=DIRECTION('',(0.0,1.0,0.0));
#496=DIRECTION('',(-0.707106781186548,0.707106781186547,-2.59778237121581E-016));
#497=CARTESIAN_POINT('',(25.0,0.0,-3.45126646034193E-031));
#498=DIRECTION('',(1.0,0.0,0.0));
#499=DIRECTION('',(0.0,1.0,0.0));
#500=DIRECTION('',(0.707106781186548,0.707106781186547,8.65927457071936E-017));
#501=CARTESIAN_POINT('',(24.3,0.0,0.0));
#502=DIRECTION('',(-1.0,0.0,-2.44921270764475E-016));
#503=DIRECTION('',(2.44921270764475E-016,0.0,-1.0));
#504=CARTESIAN_POINT('',(24.3,0.0,0.0));
#505=DIRECTION('',(-1.0,0.0,-2.44921270764475E-016));
#506=DIRECTION('',(2.44921270764475E-016,0.0,-1.0));
#507=DIRECTION('',(-0.707106781186546,-0.707106781186549,8.65927457071938E-017));
#508=CARTESIAN_POINT('',(25.0,0.0,0.0));
#509=DIRECTION('',(-1.0,0.0,0.0));
#510=DIRECTION('',(0.0,1.0,0.0));
#511=DIRECTION('',(0.707106781186546,-0.707106781186549,8.65927457071938E-017));
#512=CARTESIAN_POINT('',(24.6,0.0,0.0));
#513=DIRECTION('',(1.0,0.0,0.0));
#514=DIRECTION('',(0.0,1.0,0.0));
#515=DIRECTION('',(1.0,0.0,0.0));
#516=CARTESIAN_POINT('',(0.699999999999999,0.0,0.0));
#517=DIRECTION('',(1.0,0.0,1.22460635382238E-016));
#518=DIRECTION('',(1.22460635382238E-016,0.0,-1.0));
#519=CARTESIAN_POINT('',(0.699999999999999,0.0,0.0));
#520=DIRECTION('',(1.0,0.0,1.22460635382238E-016));
#521=DIRECTION('',(1.22460635382238E-016,0.0,-1.0));
#522=DIRECTION('',(-1.0,-0.0,-0.0));
#523=CARTESIAN_POINT('',(24.3,0.0,0.0));
#524=DIRECTION('',(-1.0,0.0,-2.44921270764475E-016));
#525=DIRECTION('',(2.44921270764475E-016,0.0,-1.0));
#526=DIRECTION('',(-0.707106781186547,0.707106781186548,-8.65927457071936E-017));
#527=CARTESIAN_POINT('',(0.399999999999999,0.0,0.0));
#528=DIRECTION('',(1.0,0.0,0.0));
#529=DIRECTION('',(0.0,1.0,0.0));
#530=DIRECTION('',(0.707106781186547,0.707106781186548,-8.65927457071936E-017));
#531=CARTESIAN_POINT('',(0.0,0.0,0.0));
#532=DIRECTION('',(1.0,0.0,0.0));
#533=DIRECTION('',(0.0,1.0,0.0));
#534=CARTESIAN_POINT('',(0.0,0.0,0.0));
#535=DIRECTION('',(1.0,0.0,0.0));
#536=DIRECTION('',(0.0,1.0,0.0));
#537=CARTESIAN_POINT('',(25.0,0.0,0.0));
#538=DIRECTION('',(-1.0,0.0,0.0));
#539=DIRECTION('',(0.0,1.0,0.0));
#540=CARTESIAN_POINT('',(24.3,0.0,0.0));
#541=DIRECTION('',(-1.0,0.0,-2.44921270764475E-016));
#542=DIRECTION('',(2.44921270764475E-016,0.0,-1.0));
#543=CARTESIAN_POINT('',(25.0,0.0,-3.45126646034193E-031));
#544=DIRECTION('',(1.0,0.0,0.0));
#545=DIRECTION('',(0.0,1.0,0.0));
#546=DIRECTION('',(0.707106781186548,0.707106781186547,1.73185491414387E-016));
#547=CARTESIAN_POINT('',(0.0,0.0,-4.31408307542741E-032));
#548=DIRECTION('',(-1.0,0.0,0.0));
#549=DIRECTION('',(0.0,1.0,0.0));
#550=DIRECTION('',(-0.707106781186548,0.707106781186547,0.0));
#551=CARTESIAN_POINT('',(0.699999999999999,0.0,0.0));
#552=DIRECTION('',(1.0,0.0,1.22460635382238E-016));
#553=DIRECTION('',(1.22460635382238E-016,0.0,-1.0));
#554=CARTESIAN_POINT('',(0.0,0.0,-4.31408307542741E-032));
#555=DIRECTION('',(-1.0,0.0,0.0));
#556=DIRECTION('',(0.0,1.0,0.0));
#557=CARTESIAN_POINT('',(0.699999999999999,0.0,0.0));
#558=DIRECTION('',(1.0,0.0,1.22460635382238E-016));
#559=DIRECTION('',(1.22460635382238E-016,0.0,-1.0));
ENDSEC;
END-ISO-10303-21;
