ISO-10303-21;
HEADER;
FILE_DESCRIPTION(('STEP AP214'),'1');
FILE_NAME('C:/Temp/output/halder/CAD/Temp/HALDERN_EH_23111_0710.stp','2015-05-04T09:25:15',('TraceParts'),('TraceParts S.A.'),'Spatial InterOp 3D',' ',' ');
FILE_SCHEMA(('automotive_design'));
ENDSEC;
DATA;
#1=MECHANICAL_DESIGN_GEOMETRIC_PRESENTATION_REPRESENTATION(' ',(#10,#11,#12,#13,#14,#15,#16,#17,#18,#19,#20,#21,#22,#23),#6);
#2=PRODUCT_DEFINITION_CONTEXT('',#24,'design');
#3=APPLICATION_PROTOCOL_DEFINITION('INTERNATIONAL STANDARD','automotive_design',1994,#24);
#4=PRODUCT_CATEGORY_RELATIONSHIP('NONE','NONE',#25,#26);
#5=SHAPE_DEFINITION_REPRESENTATION(#27,#28);
#6= (GEOMETRIC_REPRESENTATION_CONTEXT(3)GLOBAL_UNCERTAINTY_ASSIGNED_CONTEXT((#31))GLOBAL_UNIT_ASSIGNED_CONTEXT((#33,#34,#35))REPRESENTATION_CONTEXT('NONE','WORKSPACE'));
#10=STYLED_ITEM('',(#37),#38);
#11=STYLED_ITEM('',(#39),#40);
#12=STYLED_ITEM('',(#41),#42);
#13=STYLED_ITEM('',(#43),#44);
#14=STYLED_ITEM('',(#45),#46);
#15=STYLED_ITEM('',(#47),#48);
#16=STYLED_ITEM('',(#49),#50);
#17=STYLED_ITEM('',(#51),#52);
#18=STYLED_ITEM('',(#53),#54);
#19=STYLED_ITEM('',(#55),#56);
#20=STYLED_ITEM('',(#57),#58);
#21=STYLED_ITEM('',(#59),#60);
#22=STYLED_ITEM('',(#61),#62);
#23=STYLED_ITEM('',(#63),#64);
#24=APPLICATION_CONTEXT(' ');
#25=PRODUCT_CATEGORY('part','NONE');
#26=PRODUCT_RELATED_PRODUCT_CATEGORY('detail',' ',(#65));
#27=PRODUCT_DEFINITION_SHAPE('NONE','NONE',#66);
#28=ADVANCED_BREP_SHAPE_REPRESENTATION('1',(#67,#68),#6);
#31=UNCERTAINTY_MEASURE_WITH_UNIT(LENGTH_MEASURE(1.0E-006),#33,'','');
#33= (CONVERSION_BASED_UNIT('MILLIMETRE',#71)LENGTH_UNIT()NAMED_UNIT(#74));
#34= (NAMED_UNIT(#76)PLANE_ANGLE_UNIT()SI_UNIT($,.RADIAN.));
#35= (NAMED_UNIT(#76)SOLID_ANGLE_UNIT()SI_UNIT($,.STERADIAN.));
#37=PRESENTATION_STYLE_ASSIGNMENT((#82));
#38=ADVANCED_FACE('',(#83,#84),#85,.T.);
#39=PRESENTATION_STYLE_ASSIGNMENT((#86));
#40=ADVANCED_FACE('',(#87),#88,.T.);
#41=PRESENTATION_STYLE_ASSIGNMENT((#89));
#42=ADVANCED_FACE('',(#90),#91,.T.);
#43=PRESENTATION_STYLE_ASSIGNMENT((#92));
#44=ADVANCED_FACE('',(#93),#94,.T.);
#45=PRESENTATION_STYLE_ASSIGNMENT((#95));
#46=ADVANCED_FACE('',(#96),#97,.F.);
#47=PRESENTATION_STYLE_ASSIGNMENT((#98));
#48=ADVANCED_FACE('',(#99),#100,.F.);
#49=PRESENTATION_STYLE_ASSIGNMENT((#101));
#50=ADVANCED_FACE('',(#102),#103,.F.);
#51=PRESENTATION_STYLE_ASSIGNMENT((#104));
#52=ADVANCED_FACE('',(#105),#106,.T.);
#53=PRESENTATION_STYLE_ASSIGNMENT((#107));
#54=ADVANCED_FACE('',(#108),#109,.F.);
#55=PRESENTATION_STYLE_ASSIGNMENT((#110));
#56=ADVANCED_FACE('',(#111,#112),#113,.T.);
#57=PRESENTATION_STYLE_ASSIGNMENT((#114));
#58=ADVANCED_FACE('',(#115),#116,.T.);
#59=PRESENTATION_STYLE_ASSIGNMENT((#117));
#60=ADVANCED_FACE('',(#118),#119,.F.);
#61=PRESENTATION_STYLE_ASSIGNMENT((#120));
#62=ADVANCED_FACE('',(#121),#122,.T.);
#63=PRESENTATION_STYLE_ASSIGNMENT((#123));
#64=ADVANCED_FACE('',(#124),#125,.F.);
#65=PRODUCT('1','1','PART-1-DESC',(#126));
#66=PRODUCT_DEFINITION('NONE','NONE',#127,#2);
#67=MANIFOLD_SOLID_BREP('1',#128);
#68=AXIS2_PLACEMENT_3D('',#129,#130,#131);
#71=LENGTH_MEASURE_WITH_UNIT(LENGTH_MEASURE(1.0),#132);
#74=DIMENSIONAL_EXPONENTS(1.0,0.0,0.0,0.0,0.0,0.0,0.0);
#76=DIMENSIONAL_EXPONENTS(0.0,0.0,0.0,0.0,0.0,0.0,0.0);
#82=SURFACE_STYLE_USAGE(.BOTH.,#133);
#83=FACE_BOUND('',#134,.T.);
#84=FACE_OUTER_BOUND('',#135,.T.);
#85=PLANE('',#136);
#86=SURFACE_STYLE_USAGE(.BOTH.,#137);
#87=FACE_OUTER_BOUND('',#138,.T.);
#88=CONICAL_SURFACE('',#139,17.15,0.785398163397448);
#89=SURFACE_STYLE_USAGE(.BOTH.,#140);
#90=FACE_OUTER_BOUND('',#141,.T.);
#91=CYLINDRICAL_SURFACE('',#142,17.5);
#92=SURFACE_STYLE_USAGE(.BOTH.,#143);
#93=FACE_OUTER_BOUND('',#144,.T.);
#94=CONICAL_SURFACE('',#145,17.15,0.785398163397448);
#95=SURFACE_STYLE_USAGE(.BOTH.,#146);
#96=FACE_OUTER_BOUND('',#147,.T.);
#97=CYLINDRICAL_SURFACE('',#148,12.5);
#98=SURFACE_STYLE_USAGE(.BOTH.,#149);
#99=FACE_OUTER_BOUND('',#150,.T.);
#100=CONICAL_SURFACE('',#151,12.75,0.785398163397448);
#101=SURFACE_STYLE_USAGE(.BOTH.,#152);
#102=FACE_OUTER_BOUND('',#153,.T.);
#103=CONICAL_SURFACE('',#154,12.75,0.785398163397448);
#104=SURFACE_STYLE_USAGE(.BOTH.,#155);
#105=FACE_OUTER_BOUND('',#156,.T.);
#106=CONICAL_SURFACE('',#157,17.15,0.785398163397448);
#107=SURFACE_STYLE_USAGE(.BOTH.,#158);
#108=FACE_OUTER_BOUND('',#159,.T.);
#109=CONICAL_SURFACE('',#160,12.75,0.785398163397448);
#110=SURFACE_STYLE_USAGE(.BOTH.,#161);
#111=FACE_BOUND('',#162,.T.);
#112=FACE_OUTER_BOUND('',#163,.T.);
#113=PLANE('',#164);
#114=SURFACE_STYLE_USAGE(.BOTH.,#165);
#115=FACE_OUTER_BOUND('',#166,.T.);
#116=CYLINDRICAL_SURFACE('',#167,17.5);
#117=SURFACE_STYLE_USAGE(.BOTH.,#168);
#118=FACE_OUTER_BOUND('',#169,.T.);
#119=CONICAL_SURFACE('',#170,12.75,0.785398163397448);
#120=SURFACE_STYLE_USAGE(.BOTH.,#171);
#121=FACE_OUTER_BOUND('',#172,.T.);
#122=CONICAL_SURFACE('',#173,17.15,0.785398163397448);
#123=SURFACE_STYLE_USAGE(.BOTH.,#174);
#124=FACE_OUTER_BOUND('',#175,.T.);
#125=CYLINDRICAL_SURFACE('',#176,12.5);
#126=PRODUCT_CONTEXT('',#24,'mechanical');
#127=PRODUCT_DEFINITION_FORMATION_WITH_SPECIFIED_SOURCE(' ','NONE',#65,.NOT_KNOWN.);
#128=CLOSED_SHELL('',(#42,#44,#52,#50,#46,#48,#54,#64,#60,#62,#40,#58,#56,#38));
#129=CARTESIAN_POINT('',(0.0,0.0,0.0));
#130=DIRECTION('',(0.0,0.0,1.0));
#131=DIRECTION('',(1.0,0.0,0.0));
#132= (NAMED_UNIT(#74)LENGTH_UNIT()SI_UNIT(.MILLI.,.METRE.));
#133=SURFACE_SIDE_STYLE('',(#178));
#134=EDGE_LOOP('',(#179,#180));
#135=EDGE_LOOP('',(#181,#182));
#136=AXIS2_PLACEMENT_3D('',#183,#184,#185);
#137=SURFACE_SIDE_STYLE('',(#186));
#138=EDGE_LOOP('',(#187,#188,#189,#190,#191));
#139=AXIS2_PLACEMENT_3D('',#192,#193,#194);
#140=SURFACE_SIDE_STYLE('',(#195));
#141=EDGE_LOOP('',(#196,#197,#198,#199,#200,#201));
#142=AXIS2_PLACEMENT_3D('',#202,#203,#204);
#143=SURFACE_SIDE_STYLE('',(#205));
#144=EDGE_LOOP('',(#206,#207,#208,#209,#210));
#145=AXIS2_PLACEMENT_3D('',#211,#212,#213);
#146=SURFACE_SIDE_STYLE('',(#214));
#147=EDGE_LOOP('',(#215,#216,#217,#218));
#148=AXIS2_PLACEMENT_3D('',#219,#220,#221);
#149=SURFACE_SIDE_STYLE('',(#222));
#150=EDGE_LOOP('',(#223,#224,#225,#226));
#151=AXIS2_PLACEMENT_3D('',#227,#228,#229);
#152=SURFACE_SIDE_STYLE('',(#230));
#153=EDGE_LOOP('',(#231,#232,#233,#234));
#154=AXIS2_PLACEMENT_3D('',#235,#236,#237);
#155=SURFACE_SIDE_STYLE('',(#238));
#156=EDGE_LOOP('',(#239,#240,#241,#242,#243));
#157=AXIS2_PLACEMENT_3D('',#244,#245,#246);
#158=SURFACE_SIDE_STYLE('',(#247));
#159=EDGE_LOOP('',(#248,#249,#250,#251));
#160=AXIS2_PLACEMENT_3D('',#252,#253,#254);
#161=SURFACE_SIDE_STYLE('',(#255));
#162=EDGE_LOOP('',(#256,#257));
#163=EDGE_LOOP('',(#258,#259));
#164=AXIS2_PLACEMENT_3D('',#260,#261,#262);
#165=SURFACE_SIDE_STYLE('',(#263));
#166=EDGE_LOOP('',(#264,#265,#266,#267,#268,#269));
#167=AXIS2_PLACEMENT_3D('',#270,#271,#272);
#168=SURFACE_SIDE_STYLE('',(#273));
#169=EDGE_LOOP('',(#274,#275,#276,#277));
#170=AXIS2_PLACEMENT_3D('',#278,#279,#280);
#171=SURFACE_SIDE_STYLE('',(#281));
#172=EDGE_LOOP('',(#282,#283,#284,#285,#286));
#173=AXIS2_PLACEMENT_3D('',#287,#288,#289);
#174=SURFACE_SIDE_STYLE('',(#290));
#175=EDGE_LOOP('',(#291,#292,#293,#294));
#176=AXIS2_PLACEMENT_3D('',#295,#296,#297);
#178=SURFACE_STYLE_FILL_AREA(#298);
#179=ORIENTED_EDGE('',*,*,#299,.T.);
#180=ORIENTED_EDGE('',*,*,#300,.T.);
#181=ORIENTED_EDGE('',*,*,#301,.T.);
#182=ORIENTED_EDGE('',*,*,#302,.T.);
#183=CARTESIAN_POINT('',(20.0,0.0,0.0));
#184=DIRECTION('',(1.0,0.0,0.0));
#185=DIRECTION('',(0.0,0.0,-1.0));
#186=SURFACE_STYLE_FILL_AREA(#303);
#187=ORIENTED_EDGE('',*,*,#304,.T.);
#188=ORIENTED_EDGE('',*,*,#305,.F.);
#189=ORIENTED_EDGE('',*,*,#306,.F.);
#190=ORIENTED_EDGE('',*,*,#307,.T.);
#191=ORIENTED_EDGE('',*,*,#308,.F.);
#192=CARTESIAN_POINT('',(0.35,0.0,4.28612223837832E-017));
#193=DIRECTION('',(1.0,-0.0,1.22460635382238E-016));
#194=DIRECTION('',(0.0,1.0,0.0));
#195=SURFACE_STYLE_FILL_AREA(#309);
#196=ORIENTED_EDGE('',*,*,#310,.F.);
#197=ORIENTED_EDGE('',*,*,#305,.T.);
#198=ORIENTED_EDGE('',*,*,#311,.T.);
#199=ORIENTED_EDGE('',*,*,#312,.F.);
#200=ORIENTED_EDGE('',*,*,#313,.T.);
#201=ORIENTED_EDGE('',*,*,#314,.T.);
#202=CARTESIAN_POINT('',(10.0,0.0,0.0));
#203=DIRECTION('',(1.0,0.0,0.0));
#204=DIRECTION('',(0.0,0.0,-1.0));
#205=SURFACE_STYLE_FILL_AREA(#315);
#206=ORIENTED_EDGE('',*,*,#304,.F.);
#207=ORIENTED_EDGE('',*,*,#316,.F.);
#208=ORIENTED_EDGE('',*,*,#307,.F.);
#209=ORIENTED_EDGE('',*,*,#317,.F.);
#210=ORIENTED_EDGE('',*,*,#311,.F.);
#211=CARTESIAN_POINT('',(0.35,0.0,4.28612223837832E-017));
#212=DIRECTION('',(1.0,-0.0,1.22460635382238E-016));
#213=DIRECTION('',(0.0,1.0,0.0));
#214=SURFACE_STYLE_FILL_AREA(#318);
#215=ORIENTED_EDGE('',*,*,#319,.F.);
#216=ORIENTED_EDGE('',*,*,#320,.T.);
#217=ORIENTED_EDGE('',*,*,#321,.F.);
#218=ORIENTED_EDGE('',*,*,#322,.F.);
#219=CARTESIAN_POINT('',(10.0,0.0,0.0));
#220=DIRECTION('',(1.0,0.0,0.0));
#221=DIRECTION('',(0.0,1.0,0.0));
#222=SURFACE_STYLE_FILL_AREA(#323);
#223=ORIENTED_EDGE('',*,*,#324,.F.);
#224=ORIENTED_EDGE('',*,*,#322,.T.);
#225=ORIENTED_EDGE('',*,*,#325,.F.);
#226=ORIENTED_EDGE('',*,*,#326,.F.);
#227=CARTESIAN_POINT('',(0.25,0.0,0.0));
#228=DIRECTION('',(-1.0,-0.0,-0.0));
#229=DIRECTION('',(0.0,1.0,0.0));
#230=SURFACE_STYLE_FILL_AREA(#327);
#231=ORIENTED_EDGE('',*,*,#328,.F.);
#232=ORIENTED_EDGE('',*,*,#300,.F.);
#233=ORIENTED_EDGE('',*,*,#329,.F.);
#234=ORIENTED_EDGE('',*,*,#320,.F.);
#235=CARTESIAN_POINT('',(19.75,0.0,0.0));
#236=DIRECTION('',(1.0,-0.0,-0.0));
#237=DIRECTION('',(0.0,1.0,0.0));
#238=SURFACE_STYLE_FILL_AREA(#330);
#239=ORIENTED_EDGE('',*,*,#331,.F.);
#240=ORIENTED_EDGE('',*,*,#302,.F.);
#241=ORIENTED_EDGE('',*,*,#332,.F.);
#242=ORIENTED_EDGE('',*,*,#333,.F.);
#243=ORIENTED_EDGE('',*,*,#314,.F.);
#244=CARTESIAN_POINT('',(19.65,0.0,-8.57224447675664E-017));
#245=DIRECTION('',(-1.0,0.0,-2.44921270764475E-016));
#246=DIRECTION('',(0.0,1.0,0.0));
#247=SURFACE_STYLE_FILL_AREA(#334);
#248=ORIENTED_EDGE('',*,*,#324,.T.);
#249=ORIENTED_EDGE('',*,*,#335,.F.);
#250=ORIENTED_EDGE('',*,*,#325,.T.);
#251=ORIENTED_EDGE('',*,*,#336,.T.);
#252=CARTESIAN_POINT('',(0.25,0.0,0.0));
#253=DIRECTION('',(-1.0,-0.0,-0.0));
#254=DIRECTION('',(0.0,1.0,0.0));
#255=SURFACE_STYLE_FILL_AREA(#337);
#256=ORIENTED_EDGE('',*,*,#326,.T.);
#257=ORIENTED_EDGE('',*,*,#335,.T.);
#258=ORIENTED_EDGE('',*,*,#308,.T.);
#259=ORIENTED_EDGE('',*,*,#316,.T.);
#260=CARTESIAN_POINT('',(0.0,0.0,0.0));
#261=DIRECTION('',(-1.0,0.0,0.0));
#262=DIRECTION('',(0.0,0.0,1.0));
#263=SURFACE_STYLE_FILL_AREA(#338);
#264=ORIENTED_EDGE('',*,*,#310,.T.);
#265=ORIENTED_EDGE('',*,*,#333,.T.);
#266=ORIENTED_EDGE('',*,*,#339,.T.);
#267=ORIENTED_EDGE('',*,*,#312,.T.);
#268=ORIENTED_EDGE('',*,*,#317,.T.);
#269=ORIENTED_EDGE('',*,*,#306,.T.);
#270=CARTESIAN_POINT('',(10.0,0.0,0.0));
#271=DIRECTION('',(1.0,0.0,0.0));
#272=DIRECTION('',(0.0,0.0,-1.0));
#273=SURFACE_STYLE_FILL_AREA(#340);
#274=ORIENTED_EDGE('',*,*,#328,.T.);
#275=ORIENTED_EDGE('',*,*,#341,.F.);
#276=ORIENTED_EDGE('',*,*,#329,.T.);
#277=ORIENTED_EDGE('',*,*,#299,.F.);
#278=CARTESIAN_POINT('',(19.75,0.0,0.0));
#279=DIRECTION('',(1.0,-0.0,-0.0));
#280=DIRECTION('',(0.0,1.0,0.0));
#281=SURFACE_STYLE_FILL_AREA(#342);
#282=ORIENTED_EDGE('',*,*,#331,.T.);
#283=ORIENTED_EDGE('',*,*,#313,.F.);
#284=ORIENTED_EDGE('',*,*,#339,.F.);
#285=ORIENTED_EDGE('',*,*,#332,.T.);
#286=ORIENTED_EDGE('',*,*,#301,.F.);
#287=CARTESIAN_POINT('',(19.65,0.0,-8.57224447675664E-017));
#288=DIRECTION('',(-1.0,0.0,-2.44921270764475E-016));
#289=DIRECTION('',(0.0,1.0,0.0));
#290=SURFACE_STYLE_FILL_AREA(#343);
#291=ORIENTED_EDGE('',*,*,#319,.T.);
#292=ORIENTED_EDGE('',*,*,#336,.F.);
#293=ORIENTED_EDGE('',*,*,#321,.T.);
#294=ORIENTED_EDGE('',*,*,#341,.T.);
#295=CARTESIAN_POINT('',(10.0,0.0,0.0));
#296=DIRECTION('',(1.0,0.0,0.0));
#297=DIRECTION('',(0.0,1.0,0.0));
#298=FILL_AREA_STYLE('',(#344));
#299=EDGE_CURVE('',#345,#346,#347,.T.);
#300=EDGE_CURVE('',#346,#345,#348,.T.);
#301=EDGE_CURVE('',#349,#350,#351,.T.);
#302=EDGE_CURVE('',#350,#349,#352,.T.);
#303=FILL_AREA_STYLE('',(#353));
#304=EDGE_CURVE('',#354,#355,#356,.T.);
#305=EDGE_CURVE('',#357,#355,#358,.T.);
#306=EDGE_CURVE('',#359,#357,#360,.T.);
#307=EDGE_CURVE('',#359,#361,#362,.T.);
#308=EDGE_CURVE('',#354,#361,#363,.T.);
#309=FILL_AREA_STYLE('',(#364));
#310=EDGE_CURVE('',#357,#365,#366,.T.);
#311=EDGE_CURVE('',#355,#367,#368,.T.);
#312=EDGE_CURVE('',#369,#367,#370,.T.);
#313=EDGE_CURVE('',#369,#371,#372,.T.);
#314=EDGE_CURVE('',#371,#365,#373,.T.);
#315=FILL_AREA_STYLE('',(#374));
#316=EDGE_CURVE('',#361,#354,#375,.T.);
#317=EDGE_CURVE('',#367,#359,#376,.T.);
#318=FILL_AREA_STYLE('',(#377));
#319=EDGE_CURVE('',#378,#379,#380,.T.);
#320=EDGE_CURVE('',#378,#381,#382,.T.);
#321=EDGE_CURVE('',#383,#381,#384,.T.);
#322=EDGE_CURVE('',#379,#383,#385,.T.);
#323=FILL_AREA_STYLE('',(#386));
#324=EDGE_CURVE('',#379,#387,#388,.T.);
#325=EDGE_CURVE('',#389,#383,#390,.T.);
#326=EDGE_CURVE('',#387,#389,#391,.T.);
#327=FILL_AREA_STYLE('',(#392));
#328=EDGE_CURVE('',#345,#378,#393,.T.);
#329=EDGE_CURVE('',#381,#346,#394,.T.);
#330=FILL_AREA_STYLE('',(#395));
#331=EDGE_CURVE('',#349,#371,#396,.T.);
#332=EDGE_CURVE('',#397,#350,#398,.T.);
#333=EDGE_CURVE('',#365,#397,#399,.T.);
#334=FILL_AREA_STYLE('',(#400));
#335=EDGE_CURVE('',#389,#387,#401,.T.);
#336=EDGE_CURVE('',#383,#379,#402,.T.);
#337=FILL_AREA_STYLE('',(#403));
#338=FILL_AREA_STYLE('',(#404));
#339=EDGE_CURVE('',#397,#369,#405,.T.);
#340=FILL_AREA_STYLE('',(#406));
#341=EDGE_CURVE('',#381,#378,#407,.T.);
#342=FILL_AREA_STYLE('',(#408));
#343=FILL_AREA_STYLE('',(#409));
#344=FILL_AREA_STYLE_COLOUR('',#410);
#345=VERTEX_POINT('',#411);
#346=VERTEX_POINT('',#412);
#347=CIRCLE('',#413,13.0);
#348=CIRCLE('',#414,13.0);
#349=VERTEX_POINT('',#415);
#350=VERTEX_POINT('',#416);
#351=CIRCLE('',#417,16.8);
#352=CIRCLE('',#418,16.8);
#353=FILL_AREA_STYLE_COLOUR('',#419);
#354=VERTEX_POINT('',#420);
#355=VERTEX_POINT('',#421);
#356=LINE('',#422,#423);
#357=VERTEX_POINT('',#424);
#358=CIRCLE('',#425,17.5);
#359=VERTEX_POINT('',#426);
#360=CIRCLE('',#427,17.5);
#361=VERTEX_POINT('',#428);
#362=LINE('',#429,#430);
#363=CIRCLE('',#431,16.8);
#364=FILL_AREA_STYLE_COLOUR('',#432);
#365=VERTEX_POINT('',#433);
#366=LINE('',#434,#435);
#367=VERTEX_POINT('',#436);
#368=CIRCLE('',#437,17.5);
#369=VERTEX_POINT('',#438);
#370=LINE('',#439,#440);
#371=VERTEX_POINT('',#441);
#372=CIRCLE('',#442,17.5);
#373=CIRCLE('',#443,17.5);
#374=FILL_AREA_STYLE_COLOUR('',#444);
#375=CIRCLE('',#445,16.8);
#376=CIRCLE('',#446,17.5);
#377=FILL_AREA_STYLE_COLOUR('',#447);
#378=VERTEX_POINT('',#448);
#379=VERTEX_POINT('',#449);
#380=LINE('',#450,#451);
#381=VERTEX_POINT('',#452);
#382=CIRCLE('',#453,12.5);
#383=VERTEX_POINT('',#454);
#384=LINE('',#455,#456);
#385=CIRCLE('',#457,12.5);
#386=FILL_AREA_STYLE_COLOUR('',#458);
#387=VERTEX_POINT('',#459);
#388=LINE('',#460,#461);
#389=VERTEX_POINT('',#462);
#390=LINE('',#463,#464);
#391=CIRCLE('',#465,13.0);
#392=FILL_AREA_STYLE_COLOUR('',#466);
#393=LINE('',#467,#468);
#394=LINE('',#469,#470);
#395=FILL_AREA_STYLE_COLOUR('',#471);
#396=LINE('',#472,#473);
#397=VERTEX_POINT('',#474);
#398=LINE('',#475,#476);
#399=CIRCLE('',#477,17.5);
#400=FILL_AREA_STYLE_COLOUR('',#478);
#401=CIRCLE('',#479,13.0);
#402=CIRCLE('',#480,12.5);
#403=FILL_AREA_STYLE_COLOUR('',#481);
#404=FILL_AREA_STYLE_COLOUR('',#482);
#405=CIRCLE('',#483,17.5);
#406=FILL_AREA_STYLE_COLOUR('',#484);
#407=CIRCLE('',#485,12.5);
#408=FILL_AREA_STYLE_COLOUR('',#486);
#409=FILL_AREA_STYLE_COLOUR('',#487);
#410=COLOUR_RGB('',0.752941191196442,0.752941191196442,0.752941191196442);
#411=CARTESIAN_POINT('',(20.0,13.0,0.0));
#412=CARTESIAN_POINT('',(20.0,-13.0,1.59198825996909E-015));
#413=AXIS2_PLACEMENT_3D('',#488,#489,#490);
#414=AXIS2_PLACEMENT_3D('',#491,#492,#493);
#415=CARTESIAN_POINT('',(20.0,16.8,0.0));
#416=CARTESIAN_POINT('',(20.0,-16.8,2.05733867442159E-015));
#417=AXIS2_PLACEMENT_3D('',#494,#495,#496);
#418=AXIS2_PLACEMENT_3D('',#497,#498,#499);
#419=COLOUR_RGB('',0.752941191196442,0.752941191196442,0.752941191196442);
#420=CARTESIAN_POINT('',(0.0,16.8,0.0));
#421=CARTESIAN_POINT('',(0.699999999999999,17.5,8.57224447675664E-017));
#422=CARTESIAN_POINT('',(0.35,17.15,2.14306111918916E-015));
#423=VECTOR('',#500,1.0);
#424=CARTESIAN_POINT('',(0.700000000000001,-2.14306111918916E-015,-17.5));
#425=AXIS2_PLACEMENT_3D('',#501,#502,#503);
#426=CARTESIAN_POINT('',(0.699999999999999,-17.5,-2.05733867442159E-015));
#427=AXIS2_PLACEMENT_3D('',#504,#505,#506);
#428=CARTESIAN_POINT('',(0.0,-16.8,-2.05733867442159E-015));
#429=CARTESIAN_POINT('',(0.35,-17.15,-2.05733867442159E-015));
#430=VECTOR('',#507,1.0);
#431=AXIS2_PLACEMENT_3D('',#508,#509,#510);
#432=COLOUR_RGB('',0.752941191196442,0.752941191196442,0.752941191196442);
#433=CARTESIAN_POINT('',(19.3,-2.14306111918916E-015,-17.5));
#434=CARTESIAN_POINT('',(10.0,-2.14306111918916E-015,-17.5));
#435=VECTOR('',#511,1.0);
#436=CARTESIAN_POINT('',(0.699999999999997,2.14306111918916E-015,17.5));
#437=AXIS2_PLACEMENT_3D('',#512,#513,#514);
#438=CARTESIAN_POINT('',(19.3,2.14306111918916E-015,17.5));
#439=CARTESIAN_POINT('',(10.0,2.14306111918916E-015,17.5));
#440=VECTOR('',#515,1.0);
#441=CARTESIAN_POINT('',(19.3,17.5,-1.71444889535133E-016));
#442=AXIS2_PLACEMENT_3D('',#516,#517,#518);
#443=AXIS2_PLACEMENT_3D('',#519,#520,#521);
#444=COLOUR_RGB('',0.752941191196442,0.752941191196442,0.752941191196442);
#445=AXIS2_PLACEMENT_3D('',#522,#523,#524);
#446=AXIS2_PLACEMENT_3D('',#525,#526,#527);
#447=COLOUR_RGB('',0.752941191196442,0.752941191196442,0.752941191196442);
#448=CARTESIAN_POINT('',(19.5,12.5,0.0));
#449=CARTESIAN_POINT('',(0.5,12.5,0.0));
#450=CARTESIAN_POINT('',(10.0,12.5,-1.53075794227797E-015));
#451=VECTOR('',#528,1.0);
#452=CARTESIAN_POINT('',(19.5,-12.5,1.53075794227797E-015));
#453=AXIS2_PLACEMENT_3D('',#529,#530,#531);
#454=CARTESIAN_POINT('',(0.5,-12.5,1.53075794227797E-015));
#455=CARTESIAN_POINT('',(10.0,-12.5,1.53075794227797E-015));
#456=VECTOR('',#532,1.0);
#457=AXIS2_PLACEMENT_3D('',#533,#534,#535);
#458=COLOUR_RGB('',0.752941191196442,0.752941191196442,0.752941191196442);
#459=CARTESIAN_POINT('',(0.0,13.0,0.0));
#460=CARTESIAN_POINT('',(0.25,12.75,-1.56137310112353E-015));
#461=VECTOR('',#536,1.0);
#462=CARTESIAN_POINT('',(0.0,-13.0,1.59198825996909E-015));
#463=CARTESIAN_POINT('',(0.25,-12.75,1.56137310112353E-015));
#464=VECTOR('',#537,1.0);
#465=AXIS2_PLACEMENT_3D('',#538,#539,#540);
#466=COLOUR_RGB('',0.752941191196442,0.752941191196442,0.752941191196442);
#467=CARTESIAN_POINT('',(19.75,12.75,-1.56137310112353E-015));
#468=VECTOR('',#541,1.0);
#469=CARTESIAN_POINT('',(19.75,-12.75,1.56137310112353E-015));
#470=VECTOR('',#542,1.0);
#471=COLOUR_RGB('',0.752941191196442,0.752941191196442,0.752941191196442);
#472=CARTESIAN_POINT('',(19.65,17.15,-2.18592234157294E-015));
#473=VECTOR('',#543,1.0);
#474=CARTESIAN_POINT('',(19.3,-17.5,1.97161622965403E-015));
#475=CARTESIAN_POINT('',(19.65,-17.15,2.01447745203781E-015));
#476=VECTOR('',#544,1.0);
#477=AXIS2_PLACEMENT_3D('',#545,#546,#547);
#478=COLOUR_RGB('',0.752941191196442,0.752941191196442,0.752941191196442);
#479=AXIS2_PLACEMENT_3D('',#548,#549,#550);
#480=AXIS2_PLACEMENT_3D('',#551,#552,#553);
#481=COLOUR_RGB('',0.752941191196442,0.752941191196442,0.752941191196442);
#482=COLOUR_RGB('',0.752941191196442,0.752941191196442,0.752941191196442);
#483=AXIS2_PLACEMENT_3D('',#554,#555,#556);
#484=COLOUR_RGB('',0.752941191196442,0.752941191196442,0.752941191196442);
#485=AXIS2_PLACEMENT_3D('',#557,#558,#559);
#486=COLOUR_RGB('',0.752941191196442,0.752941191196442,0.752941191196442);
#487=COLOUR_RGB('',0.752941191196442,0.752941191196442,0.752941191196442);
#488=CARTESIAN_POINT('',(20.0,0.0,0.0));
#489=DIRECTION('',(-1.0,0.0,0.0));
#490=DIRECTION('',(0.0,1.0,0.0));
#491=CARTESIAN_POINT('',(20.0,0.0,0.0));
#492=DIRECTION('',(-1.0,0.0,0.0));
#493=DIRECTION('',(0.0,1.0,0.0));
#494=CARTESIAN_POINT('',(20.0,0.0,-3.45126646034193E-031));
#495=DIRECTION('',(1.0,0.0,0.0));
#496=DIRECTION('',(0.0,1.0,0.0));
#497=CARTESIAN_POINT('',(20.0,0.0,-3.45126646034193E-031));
#498=DIRECTION('',(1.0,0.0,0.0));
#499=DIRECTION('',(0.0,1.0,0.0));
#500=DIRECTION('',(0.707106781186548,0.707106781186547,1.73185491414387E-016));
#501=CARTESIAN_POINT('',(0.699999999999999,0.0,0.0));
#502=DIRECTION('',(1.0,0.0,1.22460635382238E-016));
#503=DIRECTION('',(1.22460635382238E-016,0.0,-1.0));
#504=CARTESIAN_POINT('',(0.699999999999999,0.0,0.0));
#505=DIRECTION('',(1.0,0.0,1.22460635382238E-016));
#506=DIRECTION('',(1.22460635382238E-016,0.0,-1.0));
#507=DIRECTION('',(-0.707106781186548,0.707106781186547,0.0));
#508=CARTESIAN_POINT('',(0.0,0.0,-4.31408307542741E-032));
#509=DIRECTION('',(-1.0,0.0,0.0));
#510=DIRECTION('',(0.0,1.0,0.0));
#511=DIRECTION('',(1.0,0.0,0.0));
#512=CARTESIAN_POINT('',(0.699999999999999,0.0,0.0));
#513=DIRECTION('',(1.0,0.0,1.22460635382238E-016));
#514=DIRECTION('',(1.22460635382238E-016,0.0,-1.0));
#515=DIRECTION('',(-1.0,-0.0,-0.0));
#516=CARTESIAN_POINT('',(19.3,0.0,0.0));
#517=DIRECTION('',(-1.0,0.0,-2.44921270764475E-016));
#518=DIRECTION('',(2.44921270764475E-016,0.0,-1.0));
#519=CARTESIAN_POINT('',(19.3,0.0,0.0));
#520=DIRECTION('',(-1.0,0.0,-2.44921270764475E-016));
#521=DIRECTION('',(2.44921270764475E-016,0.0,-1.0));
#522=CARTESIAN_POINT('',(0.0,0.0,-4.31408307542741E-032));
#523=DIRECTION('',(-1.0,0.0,0.0));
#524=DIRECTION('',(0.0,1.0,0.0));
#525=CARTESIAN_POINT('',(0.699999999999999,0.0,0.0));
#526=DIRECTION('',(1.0,0.0,1.22460635382238E-016));
#527=DIRECTION('',(1.22460635382238E-016,0.0,-1.0));
#528=DIRECTION('',(-1.0,-0.0,0.0));
#529=CARTESIAN_POINT('',(19.5,0.0,0.0));
#530=DIRECTION('',(1.0,0.0,0.0));
#531=DIRECTION('',(0.0,1.0,0.0));
#532=DIRECTION('',(1.0,-0.0,0.0));
#533=CARTESIAN_POINT('',(0.5,0.0,0.0));
#534=DIRECTION('',(1.0,0.0,0.0));
#535=DIRECTION('',(0.0,1.0,0.0));
#536=DIRECTION('',(-0.707106781186548,0.707106781186548,-8.65927457071936E-017));
#537=DIRECTION('',(0.707106781186548,0.707106781186548,-8.65927457071935E-017));
#538=CARTESIAN_POINT('',(0.0,0.0,0.0));
#539=DIRECTION('',(1.0,0.0,0.0));
#540=DIRECTION('',(0.0,1.0,0.0));
#541=DIRECTION('',(-0.707106781186548,-0.707106781186548,8.65927457071936E-017));
#542=DIRECTION('',(0.707106781186548,-0.707106781186548,8.65927457071935E-017));
#543=DIRECTION('',(-0.707106781186548,0.707106781186547,-2.59778237121581E-016));
#544=DIRECTION('',(0.707106781186548,0.707106781186547,8.65927457071936E-017));
#545=CARTESIAN_POINT('',(19.3,0.0,0.0));
#546=DIRECTION('',(-1.0,0.0,-2.44921270764475E-016));
#547=DIRECTION('',(2.44921270764475E-016,0.0,-1.0));
#548=CARTESIAN_POINT('',(0.0,0.0,0.0));
#549=DIRECTION('',(1.0,0.0,0.0));
#550=DIRECTION('',(0.0,1.0,0.0));
#551=CARTESIAN_POINT('',(0.5,0.0,0.0));
#552=DIRECTION('',(1.0,0.0,0.0));
#553=DIRECTION('',(0.0,1.0,0.0));
#554=CARTESIAN_POINT('',(19.3,0.0,0.0));
#555=DIRECTION('',(-1.0,0.0,-2.44921270764475E-016));
#556=DIRECTION('',(2.44921270764475E-016,0.0,-1.0));
#557=CARTESIAN_POINT('',(19.5,0.0,0.0));
#558=DIRECTION('',(1.0,0.0,0.0));
#559=DIRECTION('',(0.0,1.0,0.0));
ENDSEC;
END-ISO-10303-21;
