ISO-10303-21;
HEADER;
FILE_DESCRIPTION(('STEP AP214'),'1');
FILE_NAME('C:/Temp/output/halder/CAD/Temp/HALDERN_EH_23111_0706.stp','2015-05-04T09:25:15',('TraceParts'),('TraceParts S.A.'),'Spatial InterOp 3D',' ',' ');
FILE_SCHEMA(('automotive_design'));
ENDSEC;
DATA;
#1=MECHANICAL_DESIGN_GEOMETRIC_PRESENTATION_REPRESENTATION(' ',(#10,#11,#12,#13,#14,#15,#16,#17,#18,#19,#20,#21,#22,#23),#6);
#2=PRODUCT_DEFINITION_CONTEXT('',#24,'design');
#3=APPLICATION_PROTOCOL_DEFINITION('INTERNATIONAL STANDARD','automotive_design',1994,#24);
#4=PRODUCT_CATEGORY_RELATIONSHIP('NONE','NONE',#25,#26);
#5=SHAPE_DEFINITION_REPRESENTATION(#27,#28);
#6= (GEOMETRIC_REPRESENTATION_CONTEXT(3)GLOBAL_UNCERTAINTY_ASSIGNED_CONTEXT((#31))GLOBAL_UNIT_ASSIGNED_CONTEXT((#33,#34,#35))REPRESENTATION_CONTEXT('NONE','WORKSPACE'));
#10=STYLED_ITEM('',(#37),#38);
#11=STYLED_ITEM('',(#39),#40);
#12=STYLED_ITEM('',(#41),#42);
#13=STYLED_ITEM('',(#43),#44);
#14=STYLED_ITEM('',(#45),#46);
#15=STYLED_ITEM('',(#47),#48);
#16=STYLED_ITEM('',(#49),#50);
#17=STYLED_ITEM('',(#51),#52);
#18=STYLED_ITEM('',(#53),#54);
#19=STYLED_ITEM('',(#55),#56);
#20=STYLED_ITEM('',(#57),#58);
#21=STYLED_ITEM('',(#59),#60);
#22=STYLED_ITEM('',(#61),#62);
#23=STYLED_ITEM('',(#63),#64);
#24=APPLICATION_CONTEXT(' ');
#25=PRODUCT_CATEGORY('part','NONE');
#26=PRODUCT_RELATED_PRODUCT_CATEGORY('detail',' ',(#65));
#27=PRODUCT_DEFINITION_SHAPE('NONE','NONE',#66);
#28=ADVANCED_BREP_SHAPE_REPRESENTATION('1',(#67,#68),#6);
#31=UNCERTAINTY_MEASURE_WITH_UNIT(LENGTH_MEASURE(1.0E-006),#33,'','');
#33= (CONVERSION_BASED_UNIT('MILLIMETRE',#71)LENGTH_UNIT()NAMED_UNIT(#74));
#34= (NAMED_UNIT(#76)PLANE_ANGLE_UNIT()SI_UNIT($,.RADIAN.));
#35= (NAMED_UNIT(#76)SOLID_ANGLE_UNIT()SI_UNIT($,.STERADIAN.));
#37=PRESENTATION_STYLE_ASSIGNMENT((#82));
#38=ADVANCED_FACE('',(#83),#84,.F.);
#39=PRESENTATION_STYLE_ASSIGNMENT((#85));
#40=ADVANCED_FACE('',(#86),#87,.F.);
#41=PRESENTATION_STYLE_ASSIGNMENT((#88));
#42=ADVANCED_FACE('',(#89),#90,.T.);
#43=PRESENTATION_STYLE_ASSIGNMENT((#91));
#44=ADVANCED_FACE('',(#92),#93,.F.);
#45=PRESENTATION_STYLE_ASSIGNMENT((#94));
#46=ADVANCED_FACE('',(#95),#96,.F.);
#47=PRESENTATION_STYLE_ASSIGNMENT((#97));
#48=ADVANCED_FACE('',(#98),#99,.T.);
#49=PRESENTATION_STYLE_ASSIGNMENT((#100));
#50=ADVANCED_FACE('',(#101,#102),#103,.T.);
#51=PRESENTATION_STYLE_ASSIGNMENT((#104));
#52=ADVANCED_FACE('',(#105),#106,.T.);
#53=PRESENTATION_STYLE_ASSIGNMENT((#107));
#54=ADVANCED_FACE('',(#108),#109,.T.);
#55=PRESENTATION_STYLE_ASSIGNMENT((#110));
#56=ADVANCED_FACE('',(#111),#112,.T.);
#57=PRESENTATION_STYLE_ASSIGNMENT((#113));
#58=ADVANCED_FACE('',(#114),#115,.T.);
#59=PRESENTATION_STYLE_ASSIGNMENT((#116));
#60=ADVANCED_FACE('',(#117,#118),#119,.T.);
#61=PRESENTATION_STYLE_ASSIGNMENT((#120));
#62=ADVANCED_FACE('',(#121),#122,.F.);
#63=PRESENTATION_STYLE_ASSIGNMENT((#123));
#64=ADVANCED_FACE('',(#124),#125,.F.);
#65=PRODUCT('1','1','PART-1-DESC',(#126));
#66=PRODUCT_DEFINITION('NONE','NONE',#127,#2);
#67=MANIFOLD_SOLID_BREP('1',#128);
#68=AXIS2_PLACEMENT_3D('',#129,#130,#131);
#71=LENGTH_MEASURE_WITH_UNIT(LENGTH_MEASURE(1.0),#132);
#74=DIMENSIONAL_EXPONENTS(1.0,0.0,0.0,0.0,0.0,0.0,0.0);
#76=DIMENSIONAL_EXPONENTS(0.0,0.0,0.0,0.0,0.0,0.0,0.0);
#82=SURFACE_STYLE_USAGE(.BOTH.,#133);
#83=FACE_OUTER_BOUND('',#134,.T.);
#84=CONICAL_SURFACE('',#135,10.2,0.78539816339745);
#85=SURFACE_STYLE_USAGE(.BOTH.,#136);
#86=FACE_OUTER_BOUND('',#137,.T.);
#87=CONICAL_SURFACE('',#138,10.2,0.785398163397449);
#88=SURFACE_STYLE_USAGE(.BOTH.,#139);
#89=FACE_OUTER_BOUND('',#140,.T.);
#90=CONICAL_SURFACE('',#141,17.15,0.785398163397448);
#91=SURFACE_STYLE_USAGE(.BOTH.,#142);
#92=FACE_OUTER_BOUND('',#143,.T.);
#93=CONICAL_SURFACE('',#144,10.2,0.785398163397449);
#94=SURFACE_STYLE_USAGE(.BOTH.,#145);
#95=FACE_OUTER_BOUND('',#146,.T.);
#96=CYLINDRICAL_SURFACE('',#147,10.0);
#97=SURFACE_STYLE_USAGE(.BOTH.,#148);
#98=FACE_OUTER_BOUND('',#149,.T.);
#99=CONICAL_SURFACE('',#150,17.15,0.785398163397448);
#100=SURFACE_STYLE_USAGE(.BOTH.,#151);
#101=FACE_BOUND('',#152,.T.);
#102=FACE_OUTER_BOUND('',#153,.T.);
#103=PLANE('',#154);
#104=SURFACE_STYLE_USAGE(.BOTH.,#155);
#105=FACE_OUTER_BOUND('',#156,.T.);
#106=CYLINDRICAL_SURFACE('',#157,17.5);
#107=SURFACE_STYLE_USAGE(.BOTH.,#158);
#108=FACE_OUTER_BOUND('',#159,.T.);
#109=CONICAL_SURFACE('',#160,17.15,0.785398163397448);
#110=SURFACE_STYLE_USAGE(.BOTH.,#161);
#111=FACE_OUTER_BOUND('',#162,.T.);
#112=CONICAL_SURFACE('',#163,17.15,0.785398163397448);
#113=SURFACE_STYLE_USAGE(.BOTH.,#164);
#114=FACE_OUTER_BOUND('',#165,.T.);
#115=CYLINDRICAL_SURFACE('',#166,17.5);
#116=SURFACE_STYLE_USAGE(.BOTH.,#167);
#117=FACE_BOUND('',#168,.T.);
#118=FACE_OUTER_BOUND('',#169,.T.);
#119=PLANE('',#170);
#120=SURFACE_STYLE_USAGE(.BOTH.,#171);
#121=FACE_OUTER_BOUND('',#172,.T.);
#122=CONICAL_SURFACE('',#173,10.2,0.78539816339745);
#123=SURFACE_STYLE_USAGE(.BOTH.,#174);
#124=FACE_OUTER_BOUND('',#175,.T.);
#125=CYLINDRICAL_SURFACE('',#176,10.0);
#126=PRODUCT_CONTEXT('',#24,'mechanical');
#127=PRODUCT_DEFINITION_FORMATION_WITH_SPECIFIED_SOURCE(' ','NONE',#65,.NOT_KNOWN.);
#128=CLOSED_SHELL('',(#58,#42,#48,#38,#46,#44,#40,#64,#62,#56,#54,#52,#50,#60));
#129=CARTESIAN_POINT('',(0.0,0.0,0.0));
#130=DIRECTION('',(0.0,0.0,1.0));
#131=DIRECTION('',(1.0,0.0,0.0));
#132= (NAMED_UNIT(#74)LENGTH_UNIT()SI_UNIT(.MILLI.,.METRE.));
#133=SURFACE_SIDE_STYLE('',(#178));
#134=EDGE_LOOP('',(#179,#180,#181,#182));
#135=AXIS2_PLACEMENT_3D('',#183,#184,#185);
#136=SURFACE_SIDE_STYLE('',(#186));
#137=EDGE_LOOP('',(#187,#188,#189,#190));
#138=AXIS2_PLACEMENT_3D('',#191,#192,#193);
#139=SURFACE_SIDE_STYLE('',(#194));
#140=EDGE_LOOP('',(#195,#196,#197,#198,#199));
#141=AXIS2_PLACEMENT_3D('',#200,#201,#202);
#142=SURFACE_SIDE_STYLE('',(#203));
#143=EDGE_LOOP('',(#204,#205,#206,#207));
#144=AXIS2_PLACEMENT_3D('',#208,#209,#210);
#145=SURFACE_SIDE_STYLE('',(#211));
#146=EDGE_LOOP('',(#212,#213,#214,#215));
#147=AXIS2_PLACEMENT_3D('',#216,#217,#218);
#148=SURFACE_SIDE_STYLE('',(#219));
#149=EDGE_LOOP('',(#220,#221,#222,#223,#224));
#150=AXIS2_PLACEMENT_3D('',#225,#226,#227);
#151=SURFACE_SIDE_STYLE('',(#228));
#152=EDGE_LOOP('',(#229,#230));
#153=EDGE_LOOP('',(#231,#232));
#154=AXIS2_PLACEMENT_3D('',#233,#234,#235);
#155=SURFACE_SIDE_STYLE('',(#236));
#156=EDGE_LOOP('',(#237,#238,#239,#240,#241,#242));
#157=AXIS2_PLACEMENT_3D('',#243,#244,#245);
#158=SURFACE_SIDE_STYLE('',(#246));
#159=EDGE_LOOP('',(#247,#248,#249,#250,#251));
#160=AXIS2_PLACEMENT_3D('',#252,#253,#254);
#161=SURFACE_SIDE_STYLE('',(#255));
#162=EDGE_LOOP('',(#256,#257,#258,#259,#260));
#163=AXIS2_PLACEMENT_3D('',#261,#262,#263);
#164=SURFACE_SIDE_STYLE('',(#264));
#165=EDGE_LOOP('',(#265,#266,#267,#268,#269,#270));
#166=AXIS2_PLACEMENT_3D('',#271,#272,#273);
#167=SURFACE_SIDE_STYLE('',(#274));
#168=EDGE_LOOP('',(#275,#276));
#169=EDGE_LOOP('',(#277,#278));
#170=AXIS2_PLACEMENT_3D('',#279,#280,#281);
#171=SURFACE_SIDE_STYLE('',(#282));
#172=EDGE_LOOP('',(#283,#284,#285,#286));
#173=AXIS2_PLACEMENT_3D('',#287,#288,#289);
#174=SURFACE_SIDE_STYLE('',(#290));
#175=EDGE_LOOP('',(#291,#292,#293,#294));
#176=AXIS2_PLACEMENT_3D('',#295,#296,#297);
#178=SURFACE_STYLE_FILL_AREA(#298);
#179=ORIENTED_EDGE('',*,*,#299,.F.);
#180=ORIENTED_EDGE('',*,*,#300,.F.);
#181=ORIENTED_EDGE('',*,*,#301,.F.);
#182=ORIENTED_EDGE('',*,*,#302,.F.);
#183=CARTESIAN_POINT('',(19.8,0.0,0.0));
#184=DIRECTION('',(1.0,-0.0,-0.0));
#185=DIRECTION('',(0.0,1.0,0.0));
#186=SURFACE_STYLE_FILL_AREA(#303);
#187=ORIENTED_EDGE('',*,*,#304,.T.);
#188=ORIENTED_EDGE('',*,*,#305,.F.);
#189=ORIENTED_EDGE('',*,*,#306,.T.);
#190=ORIENTED_EDGE('',*,*,#307,.T.);
#191=CARTESIAN_POINT('',(0.199999999999999,0.0,0.0));
#192=DIRECTION('',(-1.0,-0.0,-0.0));
#193=DIRECTION('',(0.0,1.0,0.0));
#194=SURFACE_STYLE_FILL_AREA(#308);
#195=ORIENTED_EDGE('',*,*,#309,.F.);
#196=ORIENTED_EDGE('',*,*,#310,.F.);
#197=ORIENTED_EDGE('',*,*,#311,.F.);
#198=ORIENTED_EDGE('',*,*,#312,.F.);
#199=ORIENTED_EDGE('',*,*,#313,.F.);
#200=CARTESIAN_POINT('',(0.35,0.0,4.28612223837832E-017));
#201=DIRECTION('',(1.0,-0.0,1.22460635382238E-016));
#202=DIRECTION('',(0.0,1.0,0.0));
#203=SURFACE_STYLE_FILL_AREA(#314);
#204=ORIENTED_EDGE('',*,*,#304,.F.);
#205=ORIENTED_EDGE('',*,*,#315,.T.);
#206=ORIENTED_EDGE('',*,*,#306,.F.);
#207=ORIENTED_EDGE('',*,*,#316,.F.);
#208=CARTESIAN_POINT('',(0.199999999999999,0.0,0.0));
#209=DIRECTION('',(-1.0,-0.0,-0.0));
#210=DIRECTION('',(0.0,1.0,0.0));
#211=SURFACE_STYLE_FILL_AREA(#317);
#212=ORIENTED_EDGE('',*,*,#318,.F.);
#213=ORIENTED_EDGE('',*,*,#302,.T.);
#214=ORIENTED_EDGE('',*,*,#319,.F.);
#215=ORIENTED_EDGE('',*,*,#315,.F.);
#216=CARTESIAN_POINT('',(10.0,0.0,0.0));
#217=DIRECTION('',(1.0,0.0,0.0));
#218=DIRECTION('',(0.0,1.0,0.0));
#219=SURFACE_STYLE_FILL_AREA(#320);
#220=ORIENTED_EDGE('',*,*,#321,.F.);
#221=ORIENTED_EDGE('',*,*,#322,.F.);
#222=ORIENTED_EDGE('',*,*,#323,.F.);
#223=ORIENTED_EDGE('',*,*,#324,.F.);
#224=ORIENTED_EDGE('',*,*,#325,.F.);
#225=CARTESIAN_POINT('',(19.65,0.0,-8.57224447675664E-017));
#226=DIRECTION('',(-1.0,0.0,-2.44921270764475E-016));
#227=DIRECTION('',(0.0,1.0,0.0));
#228=SURFACE_STYLE_FILL_AREA(#326);
#229=ORIENTED_EDGE('',*,*,#316,.T.);
#230=ORIENTED_EDGE('',*,*,#305,.T.);
#231=ORIENTED_EDGE('',*,*,#327,.T.);
#232=ORIENTED_EDGE('',*,*,#310,.T.);
#233=CARTESIAN_POINT('',(0.0,0.0,0.0));
#234=DIRECTION('',(-1.0,0.0,0.0));
#235=DIRECTION('',(0.0,0.0,1.0));
#236=SURFACE_STYLE_FILL_AREA(#328);
#237=ORIENTED_EDGE('',*,*,#329,.T.);
#238=ORIENTED_EDGE('',*,*,#324,.T.);
#239=ORIENTED_EDGE('',*,*,#330,.T.);
#240=ORIENTED_EDGE('',*,*,#331,.T.);
#241=ORIENTED_EDGE('',*,*,#312,.T.);
#242=ORIENTED_EDGE('',*,*,#332,.T.);
#243=CARTESIAN_POINT('',(10.0,0.0,0.0));
#244=DIRECTION('',(1.0,0.0,0.0));
#245=DIRECTION('',(0.0,0.0,-1.0));
#246=SURFACE_STYLE_FILL_AREA(#333);
#247=ORIENTED_EDGE('',*,*,#309,.T.);
#248=ORIENTED_EDGE('',*,*,#334,.F.);
#249=ORIENTED_EDGE('',*,*,#332,.F.);
#250=ORIENTED_EDGE('',*,*,#311,.T.);
#251=ORIENTED_EDGE('',*,*,#327,.F.);
#252=CARTESIAN_POINT('',(0.35,0.0,4.28612223837832E-017));
#253=DIRECTION('',(1.0,-0.0,1.22460635382238E-016));
#254=DIRECTION('',(0.0,1.0,0.0));
#255=SURFACE_STYLE_FILL_AREA(#335);
#256=ORIENTED_EDGE('',*,*,#321,.T.);
#257=ORIENTED_EDGE('',*,*,#336,.F.);
#258=ORIENTED_EDGE('',*,*,#330,.F.);
#259=ORIENTED_EDGE('',*,*,#323,.T.);
#260=ORIENTED_EDGE('',*,*,#337,.F.);
#261=CARTESIAN_POINT('',(19.65,0.0,-8.57224447675664E-017));
#262=DIRECTION('',(-1.0,0.0,-2.44921270764475E-016));
#263=DIRECTION('',(0.0,1.0,0.0));
#264=SURFACE_STYLE_FILL_AREA(#338);
#265=ORIENTED_EDGE('',*,*,#329,.F.);
#266=ORIENTED_EDGE('',*,*,#334,.T.);
#267=ORIENTED_EDGE('',*,*,#313,.T.);
#268=ORIENTED_EDGE('',*,*,#331,.F.);
#269=ORIENTED_EDGE('',*,*,#336,.T.);
#270=ORIENTED_EDGE('',*,*,#325,.T.);
#271=CARTESIAN_POINT('',(10.0,0.0,0.0));
#272=DIRECTION('',(1.0,0.0,0.0));
#273=DIRECTION('',(0.0,0.0,-1.0));
#274=SURFACE_STYLE_FILL_AREA(#339);
#275=ORIENTED_EDGE('',*,*,#340,.T.);
#276=ORIENTED_EDGE('',*,*,#300,.T.);
#277=ORIENTED_EDGE('',*,*,#337,.T.);
#278=ORIENTED_EDGE('',*,*,#322,.T.);
#279=CARTESIAN_POINT('',(20.0,0.0,0.0));
#280=DIRECTION('',(1.0,0.0,0.0));
#281=DIRECTION('',(0.0,0.0,-1.0));
#282=SURFACE_STYLE_FILL_AREA(#341);
#283=ORIENTED_EDGE('',*,*,#299,.T.);
#284=ORIENTED_EDGE('',*,*,#342,.F.);
#285=ORIENTED_EDGE('',*,*,#301,.T.);
#286=ORIENTED_EDGE('',*,*,#340,.F.);
#287=CARTESIAN_POINT('',(19.8,0.0,0.0));
#288=DIRECTION('',(1.0,-0.0,-0.0));
#289=DIRECTION('',(0.0,1.0,0.0));
#290=SURFACE_STYLE_FILL_AREA(#343);
#291=ORIENTED_EDGE('',*,*,#318,.T.);
#292=ORIENTED_EDGE('',*,*,#307,.F.);
#293=ORIENTED_EDGE('',*,*,#319,.T.);
#294=ORIENTED_EDGE('',*,*,#342,.T.);
#295=CARTESIAN_POINT('',(10.0,0.0,0.0));
#296=DIRECTION('',(1.0,0.0,0.0));
#297=DIRECTION('',(0.0,1.0,0.0));
#298=FILL_AREA_STYLE('',(#344));
#299=EDGE_CURVE('',#345,#346,#347,.T.);
#300=EDGE_CURVE('',#348,#345,#349,.T.);
#301=EDGE_CURVE('',#350,#348,#351,.T.);
#302=EDGE_CURVE('',#346,#350,#352,.T.);
#303=FILL_AREA_STYLE('',(#353));
#304=EDGE_CURVE('',#354,#355,#356,.T.);
#305=EDGE_CURVE('',#357,#355,#358,.T.);
#306=EDGE_CURVE('',#357,#359,#360,.T.);
#307=EDGE_CURVE('',#359,#354,#361,.T.);
#308=FILL_AREA_STYLE('',(#362));
#309=EDGE_CURVE('',#363,#364,#365,.T.);
#310=EDGE_CURVE('',#366,#363,#367,.T.);
#311=EDGE_CURVE('',#368,#366,#369,.T.);
#312=EDGE_CURVE('',#370,#368,#371,.T.);
#313=EDGE_CURVE('',#364,#370,#372,.T.);
#314=FILL_AREA_STYLE('',(#373));
#315=EDGE_CURVE('',#354,#359,#374,.T.);
#316=EDGE_CURVE('',#355,#357,#375,.T.);
#317=FILL_AREA_STYLE('',(#376));
#318=EDGE_CURVE('',#346,#354,#377,.T.);
#319=EDGE_CURVE('',#359,#350,#378,.T.);
#320=FILL_AREA_STYLE('',(#379));
#321=EDGE_CURVE('',#380,#381,#382,.T.);
#322=EDGE_CURVE('',#383,#380,#384,.T.);
#323=EDGE_CURVE('',#385,#383,#386,.T.);
#324=EDGE_CURVE('',#387,#385,#388,.T.);
#325=EDGE_CURVE('',#381,#387,#389,.T.);
#326=FILL_AREA_STYLE('',(#390));
#327=EDGE_CURVE('',#363,#366,#391,.T.);
#328=FILL_AREA_STYLE('',(#392));
#329=EDGE_CURVE('',#393,#387,#394,.T.);
#330=EDGE_CURVE('',#385,#395,#396,.T.);
#331=EDGE_CURVE('',#395,#370,#397,.T.);
#332=EDGE_CURVE('',#368,#393,#398,.T.);
#333=FILL_AREA_STYLE('',(#399));
#334=EDGE_CURVE('',#393,#364,#400,.T.);
#335=FILL_AREA_STYLE('',(#401));
#336=EDGE_CURVE('',#395,#381,#402,.T.);
#337=EDGE_CURVE('',#380,#383,#403,.T.);
#338=FILL_AREA_STYLE('',(#404));
#339=FILL_AREA_STYLE('',(#405));
#340=EDGE_CURVE('',#345,#348,#406,.T.);
#341=FILL_AREA_STYLE('',(#407));
#342=EDGE_CURVE('',#350,#346,#408,.T.);
#343=FILL_AREA_STYLE('',(#409));
#344=FILL_AREA_STYLE_COLOUR('',#410);
#345=VERTEX_POINT('',#411);
#346=VERTEX_POINT('',#412);
#347=LINE('',#413,#414);
#348=VERTEX_POINT('',#415);
#349=CIRCLE('',#416,10.4);
#350=VERTEX_POINT('',#417);
#351=LINE('',#418,#419);
#352=CIRCLE('',#420,10.0);
#353=FILL_AREA_STYLE_COLOUR('',#421);
#354=VERTEX_POINT('',#422);
#355=VERTEX_POINT('',#423);
#356=LINE('',#424,#425);
#357=VERTEX_POINT('',#426);
#358=CIRCLE('',#427,10.4);
#359=VERTEX_POINT('',#428);
#360=LINE('',#429,#430);
#361=CIRCLE('',#431,10.0);
#362=FILL_AREA_STYLE_COLOUR('',#432);
#363=VERTEX_POINT('',#433);
#364=VERTEX_POINT('',#434);
#365=LINE('',#435,#436);
#366=VERTEX_POINT('',#437);
#367=CIRCLE('',#438,16.8);
#368=VERTEX_POINT('',#439);
#369=LINE('',#440,#441);
#370=VERTEX_POINT('',#442);
#371=CIRCLE('',#443,17.5);
#372=CIRCLE('',#444,17.5);
#373=FILL_AREA_STYLE_COLOUR('',#445);
#374=CIRCLE('',#446,10.0);
#375=CIRCLE('',#447,10.4);
#376=FILL_AREA_STYLE_COLOUR('',#448);
#377=LINE('',#449,#450);
#378=LINE('',#451,#452);
#379=FILL_AREA_STYLE_COLOUR('',#453);
#380=VERTEX_POINT('',#454);
#381=VERTEX_POINT('',#455);
#382=LINE('',#456,#457);
#383=VERTEX_POINT('',#458);
#384=CIRCLE('',#459,16.8);
#385=VERTEX_POINT('',#460);
#386=LINE('',#461,#462);
#387=VERTEX_POINT('',#463);
#388=CIRCLE('',#464,17.5);
#389=CIRCLE('',#465,17.5);
#390=FILL_AREA_STYLE_COLOUR('',#466);
#391=CIRCLE('',#467,16.8);
#392=FILL_AREA_STYLE_COLOUR('',#468);
#393=VERTEX_POINT('',#469);
#394=LINE('',#470,#471);
#395=VERTEX_POINT('',#472);
#396=CIRCLE('',#473,17.5);
#397=LINE('',#474,#475);
#398=CIRCLE('',#476,17.5);
#399=FILL_AREA_STYLE_COLOUR('',#477);
#400=CIRCLE('',#478,17.5);
#401=FILL_AREA_STYLE_COLOUR('',#479);
#402=CIRCLE('',#480,17.5);
#403=CIRCLE('',#481,16.8);
#404=FILL_AREA_STYLE_COLOUR('',#482);
#405=FILL_AREA_STYLE_COLOUR('',#483);
#406=CIRCLE('',#484,10.4);
#407=FILL_AREA_STYLE_COLOUR('',#485);
#408=CIRCLE('',#486,10.0);
#409=FILL_AREA_STYLE_COLOUR('',#487);
#410=COLOUR_RGB('',0.752941191196442,0.752941191196442,0.752941191196442);
#411=CARTESIAN_POINT('',(20.0,10.4,0.0));
#412=CARTESIAN_POINT('',(19.6,10.0,0.0));
#413=CARTESIAN_POINT('',(19.8,10.2,-1.24909848089883E-015));
#414=VECTOR('',#488,1.0);
#415=CARTESIAN_POINT('',(20.0,-10.4,1.27359060797527E-015));
#416=AXIS2_PLACEMENT_3D('',#489,#490,#491);
#417=CARTESIAN_POINT('',(19.6,-10.0,1.22460635382238E-015));
#418=CARTESIAN_POINT('',(19.8,-10.2,1.24909848089883E-015));
#419=VECTOR('',#492,1.0);
#420=AXIS2_PLACEMENT_3D('',#493,#494,#495);
#421=COLOUR_RGB('',0.752941191196442,0.752941191196442,0.752941191196442);
#422=CARTESIAN_POINT('',(0.399999999999999,10.0,0.0));
#423=CARTESIAN_POINT('',(0.0,10.4,0.0));
#424=CARTESIAN_POINT('',(0.199999999999999,10.2,-1.24909848089882E-015));
#425=VECTOR('',#496,1.0);
#426=CARTESIAN_POINT('',(0.0,-10.4,1.27359060797527E-015));
#427=AXIS2_PLACEMENT_3D('',#497,#498,#499);
#428=CARTESIAN_POINT('',(0.399999999999999,-10.0,1.22460635382238E-015));
#429=CARTESIAN_POINT('',(0.199999999999999,-10.2,1.24909848089883E-015));
#430=VECTOR('',#500,1.0);
#431=AXIS2_PLACEMENT_3D('',#501,#502,#503);
#432=COLOUR_RGB('',0.752941191196442,0.752941191196442,0.752941191196442);
#433=CARTESIAN_POINT('',(0.0,16.8,0.0));
#434=CARTESIAN_POINT('',(0.699999999999999,17.5,8.57224447675664E-017));
#435=CARTESIAN_POINT('',(0.35,17.15,2.14306111918916E-015));
#436=VECTOR('',#504,1.0);
#437=CARTESIAN_POINT('',(0.0,-16.8,-2.05733867442159E-015));
#438=AXIS2_PLACEMENT_3D('',#505,#506,#507);
#439=CARTESIAN_POINT('',(0.699999999999999,-17.5,-2.05733867442159E-015));
#440=CARTESIAN_POINT('',(0.35,-17.15,-2.05733867442159E-015));
#441=VECTOR('',#508,1.0);
#442=CARTESIAN_POINT('',(0.699999999999997,2.14306111918916E-015,17.5));
#443=AXIS2_PLACEMENT_3D('',#509,#510,#511);
#444=AXIS2_PLACEMENT_3D('',#512,#513,#514);
#445=COLOUR_RGB('',0.752941191196442,0.752941191196442,0.752941191196442);
#446=AXIS2_PLACEMENT_3D('',#515,#516,#517);
#447=AXIS2_PLACEMENT_3D('',#518,#519,#520);
#448=COLOUR_RGB('',0.752941191196442,0.752941191196442,0.752941191196442);
#449=CARTESIAN_POINT('',(10.0,10.0,-1.22460635382238E-015));
#450=VECTOR('',#521,1.0);
#451=CARTESIAN_POINT('',(10.0,-10.0,1.22460635382238E-015));
#452=VECTOR('',#522,1.0);
#453=COLOUR_RGB('',0.752941191196442,0.752941191196442,0.752941191196442);
#454=CARTESIAN_POINT('',(20.0,16.8,0.0));
#455=CARTESIAN_POINT('',(19.3,17.5,-1.71444889535133E-016));
#456=CARTESIAN_POINT('',(19.65,17.15,-2.18592234157294E-015));
#457=VECTOR('',#523,1.0);
#458=CARTESIAN_POINT('',(20.0,-16.8,2.05733867442159E-015));
#459=AXIS2_PLACEMENT_3D('',#524,#525,#526);
#460=CARTESIAN_POINT('',(19.3,-17.5,1.97161622965403E-015));
#461=CARTESIAN_POINT('',(19.65,-17.15,2.01447745203781E-015));
#462=VECTOR('',#527,1.0);
#463=CARTESIAN_POINT('',(19.3,-2.14306111918916E-015,-17.5));
#464=AXIS2_PLACEMENT_3D('',#528,#529,#530);
#465=AXIS2_PLACEMENT_3D('',#531,#532,#533);
#466=COLOUR_RGB('',0.752941191196442,0.752941191196442,0.752941191196442);
#467=AXIS2_PLACEMENT_3D('',#534,#535,#536);
#468=COLOUR_RGB('',0.752941191196442,0.752941191196442,0.752941191196442);
#469=CARTESIAN_POINT('',(0.700000000000001,-2.14306111918916E-015,-17.5));
#470=CARTESIAN_POINT('',(10.0,-2.14306111918916E-015,-17.5));
#471=VECTOR('',#537,1.0);
#472=CARTESIAN_POINT('',(19.3,2.14306111918916E-015,17.5));
#473=AXIS2_PLACEMENT_3D('',#538,#539,#540);
#474=CARTESIAN_POINT('',(10.0,2.14306111918916E-015,17.5));
#475=VECTOR('',#541,1.0);
#476=AXIS2_PLACEMENT_3D('',#542,#543,#544);
#477=COLOUR_RGB('',0.752941191196442,0.752941191196442,0.752941191196442);
#478=AXIS2_PLACEMENT_3D('',#545,#546,#547);
#479=COLOUR_RGB('',0.752941191196442,0.752941191196442,0.752941191196442);
#480=AXIS2_PLACEMENT_3D('',#548,#549,#550);
#481=AXIS2_PLACEMENT_3D('',#551,#552,#553);
#482=COLOUR_RGB('',0.752941191196442,0.752941191196442,0.752941191196442);
#483=COLOUR_RGB('',0.752941191196442,0.752941191196442,0.752941191196442);
#484=AXIS2_PLACEMENT_3D('',#554,#555,#556);
#485=COLOUR_RGB('',0.752941191196442,0.752941191196442,0.752941191196442);
#486=AXIS2_PLACEMENT_3D('',#557,#558,#559);
#487=COLOUR_RGB('',0.752941191196442,0.752941191196442,0.752941191196442);
#488=DIRECTION('',(-0.707106781186546,-0.707106781186549,8.65927457071938E-017));
#489=CARTESIAN_POINT('',(20.0,0.0,0.0));
#490=DIRECTION('',(-1.0,0.0,0.0));
#491=DIRECTION('',(0.0,1.0,0.0));
#492=DIRECTION('',(0.707106781186546,-0.707106781186549,8.65927457071938E-017));
#493=CARTESIAN_POINT('',(19.6,0.0,0.0));
#494=DIRECTION('',(1.0,0.0,0.0));
#495=DIRECTION('',(0.0,1.0,0.0));
#496=DIRECTION('',(-0.707106781186547,0.707106781186548,-8.65927457071936E-017));
#497=CARTESIAN_POINT('',(0.0,0.0,0.0));
#498=DIRECTION('',(1.0,0.0,0.0));
#499=DIRECTION('',(0.0,1.0,0.0));
#500=DIRECTION('',(0.707106781186547,0.707106781186548,-8.65927457071936E-017));
#501=CARTESIAN_POINT('',(0.399999999999999,0.0,0.0));
#502=DIRECTION('',(1.0,0.0,0.0));
#503=DIRECTION('',(0.0,1.0,0.0));
#504=DIRECTION('',(0.707106781186548,0.707106781186547,1.73185491414387E-016));
#505=CARTESIAN_POINT('',(0.0,0.0,-4.31408307542741E-032));
#506=DIRECTION('',(-1.0,0.0,0.0));
#507=DIRECTION('',(0.0,1.0,0.0));
#508=DIRECTION('',(-0.707106781186548,0.707106781186547,0.0));
#509=CARTESIAN_POINT('',(0.699999999999999,0.0,0.0));
#510=DIRECTION('',(1.0,0.0,1.22460635382238E-016));
#511=DIRECTION('',(1.22460635382238E-016,0.0,-1.0));
#512=CARTESIAN_POINT('',(0.699999999999999,0.0,0.0));
#513=DIRECTION('',(1.0,0.0,1.22460635382238E-016));
#514=DIRECTION('',(1.22460635382238E-016,0.0,-1.0));
#515=CARTESIAN_POINT('',(0.399999999999999,0.0,0.0));
#516=DIRECTION('',(1.0,0.0,0.0));
#517=DIRECTION('',(0.0,1.0,0.0));
#518=CARTESIAN_POINT('',(0.0,0.0,0.0));
#519=DIRECTION('',(1.0,0.0,0.0));
#520=DIRECTION('',(0.0,1.0,0.0));
#521=DIRECTION('',(-1.0,-0.0,0.0));
#522=DIRECTION('',(1.0,-0.0,0.0));
#523=DIRECTION('',(-0.707106781186548,0.707106781186547,-2.59778237121581E-016));
#524=CARTESIAN_POINT('',(20.0,0.0,-3.45126646034193E-031));
#525=DIRECTION('',(1.0,0.0,0.0));
#526=DIRECTION('',(0.0,1.0,0.0));
#527=DIRECTION('',(0.707106781186548,0.707106781186547,8.65927457071936E-017));
#528=CARTESIAN_POINT('',(19.3,0.0,0.0));
#529=DIRECTION('',(-1.0,0.0,-2.44921270764475E-016));
#530=DIRECTION('',(2.44921270764475E-016,0.0,-1.0));
#531=CARTESIAN_POINT('',(19.3,0.0,0.0));
#532=DIRECTION('',(-1.0,0.0,-2.44921270764475E-016));
#533=DIRECTION('',(2.44921270764475E-016,0.0,-1.0));
#534=CARTESIAN_POINT('',(0.0,0.0,-4.31408307542741E-032));
#535=DIRECTION('',(-1.0,0.0,0.0));
#536=DIRECTION('',(0.0,1.0,0.0));
#537=DIRECTION('',(1.0,0.0,0.0));
#538=CARTESIAN_POINT('',(19.3,0.0,0.0));
#539=DIRECTION('',(-1.0,0.0,-2.44921270764475E-016));
#540=DIRECTION('',(2.44921270764475E-016,0.0,-1.0));
#541=DIRECTION('',(-1.0,-0.0,-0.0));
#542=CARTESIAN_POINT('',(0.699999999999999,0.0,0.0));
#543=DIRECTION('',(1.0,0.0,1.22460635382238E-016));
#544=DIRECTION('',(1.22460635382238E-016,0.0,-1.0));
#545=CARTESIAN_POINT('',(0.699999999999999,0.0,0.0));
#546=DIRECTION('',(1.0,0.0,1.22460635382238E-016));
#547=DIRECTION('',(1.22460635382238E-016,0.0,-1.0));
#548=CARTESIAN_POINT('',(19.3,0.0,0.0));
#549=DIRECTION('',(-1.0,0.0,-2.44921270764475E-016));
#550=DIRECTION('',(2.44921270764475E-016,0.0,-1.0));
#551=CARTESIAN_POINT('',(20.0,0.0,-3.45126646034193E-031));
#552=DIRECTION('',(1.0,0.0,0.0));
#553=DIRECTION('',(0.0,1.0,0.0));
#554=CARTESIAN_POINT('',(20.0,0.0,0.0));
#555=DIRECTION('',(-1.0,0.0,0.0));
#556=DIRECTION('',(0.0,1.0,0.0));
#557=CARTESIAN_POINT('',(19.6,0.0,0.0));
#558=DIRECTION('',(1.0,0.0,0.0));
#559=DIRECTION('',(0.0,1.0,0.0));
ENDSEC;
END-ISO-10303-21;
