ISO-10303-21;
HEADER;
FILE_DESCRIPTION(('STEP AP214'),'1');
FILE_NAME(' ','  ',('TraceParts'),('TraceParts S.A.'),'XStep 1.0',' ',' ');
FILE_SCHEMA(('automotive_design'));
ENDSEC;
DATA;
#1=MECHANICAL_DESIGN_GEOMETRIC_PRESENTATION_REPRESENTATION(' ',(#10,#11,#12,#13,#14,#15,#16,#17,#18,#19,#20,#21,#22,#23,#24,#25,#26,#27,#28,#29,#30,#31,#32,#33,#34,#35,#36),#6);
#2=PRODUCT_DEFINITION_CONTEXT('',#37,'design');
#3=APPLICATION_PROTOCOL_DEFINITION('INTERNATIONAL STANDARD','automotive_design',1994,#37);
#4=PRODUCT_CATEGORY_RELATIONSHIP('NONE','NONE',#38,#39);
#5=SHAPE_DEFINITION_REPRESENTATION(#40,#41);
#6= (GEOMETRIC_REPRESENTATION_CONTEXT(3)GLOBAL_UNCERTAINTY_ASSIGNED_CONTEXT((#44))GLOBAL_UNIT_ASSIGNED_CONTEXT((#46,#47,#48))REPRESENTATION_CONTEXT('NONE','WORKSPACE'));
#10=STYLED_ITEM('',(#50),#51);
#11=STYLED_ITEM('',(#52),#53);
#12=STYLED_ITEM('',(#54),#55);
#13=STYLED_ITEM('',(#56),#57);
#14=STYLED_ITEM('',(#58),#59);
#15=STYLED_ITEM('',(#60),#61);
#16=STYLED_ITEM('',(#62),#63);
#17=STYLED_ITEM('',(#64),#65);
#18=STYLED_ITEM('',(#66),#67);
#19=STYLED_ITEM('',(#68),#69);
#20=STYLED_ITEM('',(#70),#71);
#21=STYLED_ITEM('',(#72),#73);
#22=STYLED_ITEM('',(#74),#75);
#23=STYLED_ITEM('',(#76),#77);
#24=STYLED_ITEM('',(#78),#79);
#25=STYLED_ITEM('',(#80),#81);
#26=STYLED_ITEM('',(#82),#83);
#27=STYLED_ITEM('',(#84),#85);
#28=STYLED_ITEM('',(#86),#87);
#29=STYLED_ITEM('',(#88),#89);
#30=STYLED_ITEM('',(#90),#91);
#31=STYLED_ITEM('',(#92),#93);
#32=STYLED_ITEM('',(#94),#95);
#33=STYLED_ITEM('',(#96),#97);
#34=STYLED_ITEM('',(#98),#99);
#35=STYLED_ITEM('',(#100),#101);
#36=STYLED_ITEM('',(#102),#103);
#37=APPLICATION_CONTEXT(' ');
#38=PRODUCT_CATEGORY('part','NONE');
#39=PRODUCT_RELATED_PRODUCT_CATEGORY('detail',' ',(#104));
#40=PRODUCT_DEFINITION_SHAPE('NONE','NONE',#105);
#41=ADVANCED_BREP_SHAPE_REPRESENTATION('1',(#53,#106),#6);
#44=UNCERTAINTY_MEASURE_WITH_UNIT(LENGTH_MEASURE(1.0E-006),#46,'','');
#46= (CONVERSION_BASED_UNIT('MILLIMETRE',#109)LENGTH_UNIT()NAMED_UNIT(#112));
#47= (NAMED_UNIT(#114)PLANE_ANGLE_UNIT()SI_UNIT($,.RADIAN.));
#48= (NAMED_UNIT(#114)SOLID_ANGLE_UNIT()SI_UNIT($,.STERADIAN.));
#50=PRESENTATION_STYLE_ASSIGNMENT((#120));
#51=VERTEX_POINT('',#121);
#52=PRESENTATION_STYLE_ASSIGNMENT((#122));
#53=MANIFOLD_SOLID_BREP('1',#123);
#54=PRESENTATION_STYLE_ASSIGNMENT((#124));
#55=VERTEX_POINT('',#125);
#56=PRESENTATION_STYLE_ASSIGNMENT((#126));
#57=EDGE_CURVE('',#59,#73,#127,.T.);
#58=PRESENTATION_STYLE_ASSIGNMENT((#128));
#59=VERTEX_POINT('',#129);
#60=PRESENTATION_STYLE_ASSIGNMENT((#130));
#61=VERTEX_POINT('',#131);
#62=PRESENTATION_STYLE_ASSIGNMENT((#132));
#63=EDGE_CURVE('',#67,#55,#133,.T.);
#64=PRESENTATION_STYLE_ASSIGNMENT((#134));
#65=ADVANCED_FACE('',(#135),#136,.F.);
#66=PRESENTATION_STYLE_ASSIGNMENT((#137));
#67=VERTEX_POINT('',#138);
#68=PRESENTATION_STYLE_ASSIGNMENT((#139));
#69=EDGE_CURVE('',#51,#103,#140,.T.);
#70=PRESENTATION_STYLE_ASSIGNMENT((#141));
#71=EDGE_CURVE('',#61,#83,#142,.T.);
#72=PRESENTATION_STYLE_ASSIGNMENT((#143));
#73=VERTEX_POINT('',#144);
#74=PRESENTATION_STYLE_ASSIGNMENT((#145));
#75=EDGE_CURVE('',#83,#61,#146,.T.);
#76=PRESENTATION_STYLE_ASSIGNMENT((#147));
#77=EDGE_CURVE('',#55,#67,#148,.T.);
#78=PRESENTATION_STYLE_ASSIGNMENT((#149));
#79=ADVANCED_FACE('',(#150),#151,.T.);
#80=PRESENTATION_STYLE_ASSIGNMENT((#152));
#81=EDGE_CURVE('',#61,#59,#153,.T.);
#82=PRESENTATION_STYLE_ASSIGNMENT((#154));
#83=VERTEX_POINT('',#155);
#84=PRESENTATION_STYLE_ASSIGNMENT((#156));
#85=EDGE_CURVE('',#67,#103,#157,.T.);
#86=PRESENTATION_STYLE_ASSIGNMENT((#158));
#87=ADVANCED_FACE('',(#159),#160,.F.);
#88=PRESENTATION_STYLE_ASSIGNMENT((#161));
#89=EDGE_CURVE('',#103,#51,#162,.T.);
#90=PRESENTATION_STYLE_ASSIGNMENT((#163));
#91=ADVANCED_FACE('',(#164,#165),#166,.T.);
#92=PRESENTATION_STYLE_ASSIGNMENT((#167));
#93=EDGE_CURVE('',#73,#59,#168,.T.);
#94=PRESENTATION_STYLE_ASSIGNMENT((#169));
#95=EDGE_CURVE('',#51,#55,#170,.T.);
#96=PRESENTATION_STYLE_ASSIGNMENT((#171));
#97=ADVANCED_FACE('',(#172,#173),#174,.T.);
#98=PRESENTATION_STYLE_ASSIGNMENT((#175));
#99=ADVANCED_FACE('',(#176),#177,.T.);
#100=PRESENTATION_STYLE_ASSIGNMENT((#178));
#101=EDGE_CURVE('',#73,#83,#179,.T.);
#102=PRESENTATION_STYLE_ASSIGNMENT((#180));
#103=VERTEX_POINT('',#181);
#104=PRODUCT('1','1','PART-1-DESC',(#182));
#105=PRODUCT_DEFINITION('NONE','NONE',#183,#2);
#106=AXIS2_PLACEMENT_3D('',#184,#185,#186);
#109=LENGTH_MEASURE_WITH_UNIT(LENGTH_MEASURE(1.0),#187);
#112=DIMENSIONAL_EXPONENTS(1.0,0.0,0.0,0.0,0.0,0.0,0.0);
#114=DIMENSIONAL_EXPONENTS(0.0,0.0,0.0,0.0,0.0,0.0,0.0);
#120=POINT_STYLE(' ',#188,POSITIVE_LENGTH_MEASURE(1.0E-006),#189);
#121=CARTESIAN_POINT('',(-30.0,1.09493109022791E-014,-2.8421709430404E-014));
#122=SURFACE_STYLE_USAGE(.BOTH.,#190);
#123=CLOSED_SHELL('',(#87,#79,#97,#99,#91,#65));
#124=POINT_STYLE(' ',#191,POSITIVE_LENGTH_MEASURE(1.0E-006),#192);
#125=CARTESIAN_POINT('',(-30.0,1.09493109022791E-014,7.99999999999997));
#126=CURVE_STYLE('',#193,POSITIVE_LENGTH_MEASURE(1.0E-006),#194);
#127=CIRCLE('',#195,12.5);
#128=POINT_STYLE(' ',#196,POSITIVE_LENGTH_MEASURE(1.0E-006),#197);
#129=CARTESIAN_POINT('',(12.5,1.6287148589762E-014,-2.8421709430404E-014));
#130=POINT_STYLE(' ',#198,POSITIVE_LENGTH_MEASURE(1.0E-006),#199);
#131=CARTESIAN_POINT('',(12.5,1.57973060482331E-014,7.99999999999997));
#132=CURVE_STYLE('',#200,POSITIVE_LENGTH_MEASURE(1.0E-006),#201);
#133=CIRCLE('',#202,30.0);
#134=SURFACE_STYLE_USAGE(.BOTH.,#203);
#135=FACE_OUTER_BOUND('',#204,.T.);
#136=CYLINDRICAL_SURFACE('',#205,12.5);
#137=POINT_STYLE(' ',#206,POSITIVE_LENGTH_MEASURE(1.0E-006),#207);
#138=CARTESIAN_POINT('',(30.0,1.57973060482331E-014,7.99999999999997));
#139=CURVE_STYLE('',#208,POSITIVE_LENGTH_MEASURE(1.0E-006),#209);
#140=CIRCLE('',#210,30.0);
#141=CURVE_STYLE('',#211,POSITIVE_LENGTH_MEASURE(1.0E-006),#212);
#142=CIRCLE('',#213,12.5);
#143=POINT_STYLE(' ',#214,POSITIVE_LENGTH_MEASURE(1.0E-006),#215);
#144=CARTESIAN_POINT('',(-12.5,1.37773080707522E-014,-2.8421709430404E-014));
#145=CURVE_STYLE('',#216,POSITIVE_LENGTH_MEASURE(1.0E-006),#217);
#146=CIRCLE('',#218,12.5);
#147=CURVE_STYLE('',#219,POSITIVE_LENGTH_MEASURE(1.0E-006),#220);
#148=CIRCLE('',#221,30.0);
#149=SURFACE_STYLE_USAGE(.BOTH.,#222);
#150=FACE_OUTER_BOUND('',#223,.T.);
#151=CYLINDRICAL_SURFACE('',#224,30.0);
#152=CURVE_STYLE('',#225,POSITIVE_LENGTH_MEASURE(1.0E-006),#226);
#153=LINE('',#227,#228);
#154=POINT_STYLE(' ',#229,POSITIVE_LENGTH_MEASURE(1.0E-006),#230);
#155=CARTESIAN_POINT('',(-12.5,1.37773080707522E-014,7.99999999999997));
#156=CURVE_STYLE('',#231,POSITIVE_LENGTH_MEASURE(1.0E-006),#232);
#157=LINE('',#233,#234);
#158=SURFACE_STYLE_USAGE(.BOTH.,#235);
#159=FACE_OUTER_BOUND('',#236,.T.);
#160=CYLINDRICAL_SURFACE('',#237,12.5);
#161=CURVE_STYLE('',#238,POSITIVE_LENGTH_MEASURE(1.0E-006),#239);
#162=CIRCLE('',#240,30.0);
#163=SURFACE_STYLE_USAGE(.BOTH.,#241);
#164=FACE_BOUND('',#242,.T.);
#165=FACE_OUTER_BOUND('',#243,.T.);
#166=PLANE('',#244);
#167=CURVE_STYLE('',#245,POSITIVE_LENGTH_MEASURE(1.0E-006),#246);
#168=CIRCLE('',#247,12.5);
#169=CURVE_STYLE('',#248,POSITIVE_LENGTH_MEASURE(1.0E-006),#249);
#170=LINE('',#250,#251);
#171=SURFACE_STYLE_USAGE(.BOTH.,#252);
#172=FACE_OUTER_BOUND('',#253,.T.);
#173=FACE_BOUND('',#254,.T.);
#174=PLANE('',#255);
#175=SURFACE_STYLE_USAGE(.BOTH.,#256);
#176=FACE_OUTER_BOUND('',#257,.T.);
#177=CYLINDRICAL_SURFACE('',#258,30.0);
#178=CURVE_STYLE('',#259,POSITIVE_LENGTH_MEASURE(1.0E-006),#260);
#179=LINE('',#261,#262);
#180=POINT_STYLE(' ',#263,POSITIVE_LENGTH_MEASURE(1.0E-006),#264);
#181=CARTESIAN_POINT('',(30.0,1.6287148589762E-014,-2.8421709430404E-014));
#182=PRODUCT_CONTEXT('',#37,'mechanical');
#183=PRODUCT_DEFINITION_FORMATION_WITH_SPECIFIED_SOURCE(' ','NONE',#104,.NOT_KNOWN.);
#184=CARTESIAN_POINT('',(0.0,0.0,0.0));
#185=DIRECTION('',(0.0,0.0,1.0));
#186=DIRECTION('',(1.0,0.0,0.0));
#187= (NAMED_UNIT(#112)LENGTH_UNIT()SI_UNIT(.MILLI.,.METRE.));
#188=PRE_DEFINED_MARKER('');
#189=COLOUR_RGB('',0.509803950786591,0.509803950786591,0.588235318660736);
#190=SURFACE_SIDE_STYLE('',(#266));
#191=PRE_DEFINED_MARKER('');
#192=COLOUR_RGB('',0.509803950786591,0.509803950786591,0.588235318660736);
#193=DRAUGHTING_PRE_DEFINED_CURVE_FONT('continuous');
#194=COLOUR_RGB('',0.509803950786591,0.509803950786591,0.588235318660736);
#195=AXIS2_PLACEMENT_3D('',#267,#268,#269);
#196=PRE_DEFINED_MARKER('');
#197=COLOUR_RGB('',0.509803950786591,0.509803950786591,0.588235318660736);
#198=PRE_DEFINED_MARKER('');
#199=COLOUR_RGB('',0.509803950786591,0.509803950786591,0.588235318660736);
#200=DRAUGHTING_PRE_DEFINED_CURVE_FONT('continuous');
#201=COLOUR_RGB('',0.509803950786591,0.509803950786591,0.588235318660736);
#202=AXIS2_PLACEMENT_3D('',#270,#271,#272);
#203=SURFACE_SIDE_STYLE('',(#273));
#204=EDGE_LOOP('',(#274,#275,#276,#277));
#205=AXIS2_PLACEMENT_3D('',#278,#279,#280);
#206=PRE_DEFINED_MARKER('');
#207=COLOUR_RGB('',0.509803950786591,0.509803950786591,0.588235318660736);
#208=DRAUGHTING_PRE_DEFINED_CURVE_FONT('continuous');
#209=COLOUR_RGB('',0.509803950786591,0.509803950786591,0.588235318660736);
#210=AXIS2_PLACEMENT_3D('',#281,#282,#283);
#211=DRAUGHTING_PRE_DEFINED_CURVE_FONT('continuous');
#212=COLOUR_RGB('',0.509803950786591,0.509803950786591,0.588235318660736);
#213=AXIS2_PLACEMENT_3D('',#284,#285,#286);
#214=PRE_DEFINED_MARKER('');
#215=COLOUR_RGB('',0.509803950786591,0.509803950786591,0.588235318660736);
#216=DRAUGHTING_PRE_DEFINED_CURVE_FONT('continuous');
#217=COLOUR_RGB('',0.509803950786591,0.509803950786591,0.588235318660736);
#218=AXIS2_PLACEMENT_3D('',#287,#288,#289);
#219=DRAUGHTING_PRE_DEFINED_CURVE_FONT('continuous');
#220=COLOUR_RGB('',0.509803950786591,0.509803950786591,0.588235318660736);
#221=AXIS2_PLACEMENT_3D('',#290,#291,#292);
#222=SURFACE_SIDE_STYLE('',(#293));
#223=EDGE_LOOP('',(#294,#295,#296,#297));
#224=AXIS2_PLACEMENT_3D('',#298,#299,#300);
#225=DRAUGHTING_PRE_DEFINED_CURVE_FONT('continuous');
#226=COLOUR_RGB('',0.509803950786591,0.509803950786591,0.588235318660736);
#227=CARTESIAN_POINT('',(12.5,1.78173040257139E-014,3.99999999999997));
#228=VECTOR('',#301,1.0);
#229=PRE_DEFINED_MARKER('');
#230=COLOUR_RGB('',0.509803950786591,0.509803950786591,0.588235318660736);
#231=DRAUGHTING_PRE_DEFINED_CURVE_FONT('continuous');
#232=COLOUR_RGB('',0.509803950786591,0.509803950786591,0.588235318660736);
#233=CARTESIAN_POINT('',(30.0,2.06453011941871E-014,3.99999999999997));
#234=VECTOR('',#302,1.0);
#235=SURFACE_SIDE_STYLE('',(#303));
#236=EDGE_LOOP('',(#304,#305,#306,#307));
#237=AXIS2_PLACEMENT_3D('',#308,#309,#310);
#238=DRAUGHTING_PRE_DEFINED_CURVE_FONT('continuous');
#239=COLOUR_RGB('',0.509803950786591,0.509803950786591,0.588235318660736);
#240=AXIS2_PLACEMENT_3D('',#311,#312,#313);
#241=SURFACE_SIDE_STYLE('',(#314));
#242=EDGE_LOOP('',(#315,#316));
#243=EDGE_LOOP('',(#317,#318));
#244=AXIS2_PLACEMENT_3D('',#319,#320,#321);
#245=DRAUGHTING_PRE_DEFINED_CURVE_FONT('continuous');
#246=COLOUR_RGB('',0.509803950786591,0.509803950786591,0.588235318660736);
#247=AXIS2_PLACEMENT_3D('',#322,#323,#324);
#248=DRAUGHTING_PRE_DEFINED_CURVE_FONT('continuous');
#249=COLOUR_RGB('',0.509803950786591,0.509803950786591,0.588235318660736);
#250=CARTESIAN_POINT('',(-30.0,1.09493109022791E-014,3.99999999999997));
#251=VECTOR('',#325,1.0);
#252=SURFACE_SIDE_STYLE('',(#326));
#253=EDGE_LOOP('',(#327,#328));
#254=EDGE_LOOP('',(#329,#330));
#255=AXIS2_PLACEMENT_3D('',#331,#332,#333);
#256=SURFACE_SIDE_STYLE('',(#334));
#257=EDGE_LOOP('',(#335,#336,#337,#338));
#258=AXIS2_PLACEMENT_3D('',#339,#340,#341);
#259=DRAUGHTING_PRE_DEFINED_CURVE_FONT('continuous');
#260=COLOUR_RGB('',0.509803950786591,0.509803950786591,0.588235318660736);
#261=CARTESIAN_POINT('',(-12.5,1.37773080707522E-014,3.99999999999997));
#262=VECTOR('',#342,1.0);
#263=PRE_DEFINED_MARKER('');
#264=COLOUR_RGB('',0.509803950786591,0.509803950786591,0.588235318660736);
#266=SURFACE_STYLE_FILL_AREA(#343);
#267=CARTESIAN_POINT('',(-2.8421709430404E-014,1.57973060482331E-014,-2.8421709430404E-014));
#268=DIRECTION('',(0.0,0.0,-1.0));
#269=DIRECTION('',(1.0,3.91392028162296E-017,0.0));
#270=CARTESIAN_POINT('',(-2.8421709430404E-014,1.57973060482331E-014,7.99999999999997));
#271=DIRECTION('',(0.0,0.0,-1.0));
#272=DIRECTION('',(1.0,3.91392028162296E-017,0.0));
#273=SURFACE_STYLE_FILL_AREA(#344);
#274=ORIENTED_EDGE('',*,*,#81,.T.);
#275=ORIENTED_EDGE('',*,*,#57,.T.);
#276=ORIENTED_EDGE('',*,*,#101,.T.);
#277=ORIENTED_EDGE('',*,*,#71,.F.);
#278=CARTESIAN_POINT('',(-2.8421709430404E-014,1.57973060482331E-014,3.99999999999997));
#279=DIRECTION('',(-0.0,-0.0,1.0));
#280=DIRECTION('',(1.0,3.91392028162296E-017,0.0));
#281=CARTESIAN_POINT('',(-2.8421709430404E-014,1.57973060482331E-014,-2.8421709430404E-014));
#282=DIRECTION('',(0.0,0.0,-1.0));
#283=DIRECTION('',(1.0,3.91392028162296E-017,0.0));
#284=CARTESIAN_POINT('',(-2.8421709430404E-014,1.57973060482331E-014,7.99999999999997));
#285=DIRECTION('',(0.0,0.0,-1.0));
#286=DIRECTION('',(1.0,3.91392028162296E-017,0.0));
#287=CARTESIAN_POINT('',(-2.8421709430404E-014,1.57973060482331E-014,7.99999999999997));
#288=DIRECTION('',(0.0,0.0,-1.0));
#289=DIRECTION('',(1.0,3.91392028162296E-017,0.0));
#290=CARTESIAN_POINT('',(-2.8421709430404E-014,1.57973060482331E-014,7.99999999999997));
#291=DIRECTION('',(0.0,0.0,-1.0));
#292=DIRECTION('',(1.0,3.91392028162296E-017,0.0));
#293=SURFACE_STYLE_FILL_AREA(#345);
#294=ORIENTED_EDGE('',*,*,#85,.F.);
#295=ORIENTED_EDGE('',*,*,#63,.T.);
#296=ORIENTED_EDGE('',*,*,#95,.F.);
#297=ORIENTED_EDGE('',*,*,#89,.F.);
#298=CARTESIAN_POINT('',(-2.8421709430404E-014,1.57973060482331E-014,3.99999999999997));
#299=DIRECTION('',(-0.0,-0.0,1.0));
#300=DIRECTION('',(1.0,3.91392028162296E-017,0.0));
#301=DIRECTION('',(-0.0,-0.0,-1.0));
#302=DIRECTION('',(0.0,0.0,-1.0));
#303=SURFACE_STYLE_FILL_AREA(#346);
#304=ORIENTED_EDGE('',*,*,#81,.F.);
#305=ORIENTED_EDGE('',*,*,#75,.F.);
#306=ORIENTED_EDGE('',*,*,#101,.F.);
#307=ORIENTED_EDGE('',*,*,#93,.T.);
#308=CARTESIAN_POINT('',(-2.8421709430404E-014,1.57973060482331E-014,3.99999999999997));
#309=DIRECTION('',(-0.0,-0.0,1.0));
#310=DIRECTION('',(1.0,3.91392028162296E-017,0.0));
#311=CARTESIAN_POINT('',(-2.8421709430404E-014,1.57973060482331E-014,-2.8421709430404E-014));
#312=DIRECTION('',(0.0,0.0,-1.0));
#313=DIRECTION('',(1.0,3.91392028162296E-017,0.0));
#314=SURFACE_STYLE_FILL_AREA(#347);
#315=ORIENTED_EDGE('',*,*,#57,.F.);
#316=ORIENTED_EDGE('',*,*,#93,.F.);
#317=ORIENTED_EDGE('',*,*,#89,.T.);
#318=ORIENTED_EDGE('',*,*,#69,.T.);
#319=CARTESIAN_POINT('',(21.25,1.6287148589762E-014,-2.8421709430404E-014));
#320=DIRECTION('',(0.0,0.0,-1.0));
#321=DIRECTION('',(-1.0,0.0,0.0));
#322=CARTESIAN_POINT('',(-2.8421709430404E-014,1.57973060482331E-014,-2.8421709430404E-014));
#323=DIRECTION('',(0.0,0.0,-1.0));
#324=DIRECTION('',(1.0,3.91392028162296E-017,0.0));
#325=DIRECTION('',(-0.0,-0.0,1.0));
#326=SURFACE_STYLE_FILL_AREA(#348);
#327=ORIENTED_EDGE('',*,*,#63,.F.);
#328=ORIENTED_EDGE('',*,*,#77,.F.);
#329=ORIENTED_EDGE('',*,*,#71,.T.);
#330=ORIENTED_EDGE('',*,*,#75,.T.);
#331=CARTESIAN_POINT('',(21.25,1.57973060482331E-014,7.99999999999997));
#332=DIRECTION('',(0.0,0.0,1.0));
#333=DIRECTION('',(1.0,0.0,0.0));
#334=SURFACE_STYLE_FILL_AREA(#349);
#335=ORIENTED_EDGE('',*,*,#85,.T.);
#336=ORIENTED_EDGE('',*,*,#69,.F.);
#337=ORIENTED_EDGE('',*,*,#95,.T.);
#338=ORIENTED_EDGE('',*,*,#77,.T.);
#339=CARTESIAN_POINT('',(-2.8421709430404E-014,1.57973060482331E-014,3.99999999999997));
#340=DIRECTION('',(-0.0,-0.0,1.0));
#341=DIRECTION('',(1.0,3.91392028162296E-017,0.0));
#342=DIRECTION('',(-0.0,-0.0,1.0));
#343=FILL_AREA_STYLE('',(#350));
#344=FILL_AREA_STYLE('',(#351));
#345=FILL_AREA_STYLE('',(#352));
#346=FILL_AREA_STYLE('',(#353));
#347=FILL_AREA_STYLE('',(#354));
#348=FILL_AREA_STYLE('',(#355));
#349=FILL_AREA_STYLE('',(#356));
#350=FILL_AREA_STYLE_COLOUR('',#357);
#351=FILL_AREA_STYLE_COLOUR('',#358);
#352=FILL_AREA_STYLE_COLOUR('',#359);
#353=FILL_AREA_STYLE_COLOUR('',#360);
#354=FILL_AREA_STYLE_COLOUR('',#361);
#355=FILL_AREA_STYLE_COLOUR('',#362);
#356=FILL_AREA_STYLE_COLOUR('',#363);
#357=COLOUR_RGB('',0.509803950786591,0.509803950786591,0.588235318660736);
#358=COLOUR_RGB('',0.509803950786591,0.509803950786591,0.588235318660736);
#359=COLOUR_RGB('',0.509803950786591,0.509803950786591,0.588235318660736);
#360=COLOUR_RGB('',0.509803950786591,0.509803950786591,0.588235318660736);
#361=COLOUR_RGB('',0.509803950786591,0.509803950786591,0.588235318660736);
#362=COLOUR_RGB('',0.509803950786591,0.509803950786591,0.588235318660736);
#363=COLOUR_RGB('',0.509803950786591,0.509803950786591,0.588235318660736);
ENDSEC;
END-ISO-10303-21;
