ISO-10303-21;
HEADER;
FILE_DESCRIPTION(('STEP AP214'),'1');
FILE_NAME(' ','  ',('TraceParts'),('TraceParts S.A.'),'XStep 1.0',' ',' ');
FILE_SCHEMA(('automotive_design'));
ENDSEC;
DATA;
#1=MECHANICAL_DESIGN_GEOMETRIC_PRESENTATION_REPRESENTATION(' ',(#10,#11,#12,#13,#14,#15,#16,#17,#18,#19,#20,#21,#22,#23,#24,#25,#26,#27,#28,#29,#30,#31,#32,#33,#34,#35,#36),#6);
#2=PRODUCT_DEFINITION_CONTEXT('',#37,'design');
#3=APPLICATION_PROTOCOL_DEFINITION('INTERNATIONAL STANDARD','automotive_design',1994,#37);
#4=PRODUCT_CATEGORY_RELATIONSHIP('NONE','NONE',#38,#39);
#5=SHAPE_DEFINITION_REPRESENTATION(#40,#41);
#6= (GEOMETRIC_REPRESENTATION_CONTEXT(3)GLOBAL_UNCERTAINTY_ASSIGNED_CONTEXT((#44))GLOBAL_UNIT_ASSIGNED_CONTEXT((#46,#47,#48))REPRESENTATION_CONTEXT('NONE','WORKSPACE'));
#10=STYLED_ITEM('',(#50),#51);
#11=STYLED_ITEM('',(#52),#53);
#12=STYLED_ITEM('',(#54),#55);
#13=STYLED_ITEM('',(#56),#57);
#14=STYLED_ITEM('',(#58),#59);
#15=STYLED_ITEM('',(#60),#61);
#16=STYLED_ITEM('',(#62),#63);
#17=STYLED_ITEM('',(#64),#65);
#18=STYLED_ITEM('',(#66),#67);
#19=STYLED_ITEM('',(#68),#69);
#20=STYLED_ITEM('',(#70),#71);
#21=STYLED_ITEM('',(#72),#73);
#22=STYLED_ITEM('',(#74),#75);
#23=STYLED_ITEM('',(#76),#77);
#24=STYLED_ITEM('',(#78),#79);
#25=STYLED_ITEM('',(#80),#81);
#26=STYLED_ITEM('',(#82),#83);
#27=STYLED_ITEM('',(#84),#85);
#28=STYLED_ITEM('',(#86),#87);
#29=STYLED_ITEM('',(#88),#89);
#30=STYLED_ITEM('',(#90),#91);
#31=STYLED_ITEM('',(#92),#93);
#32=STYLED_ITEM('',(#94),#95);
#33=STYLED_ITEM('',(#96),#97);
#34=STYLED_ITEM('',(#98),#99);
#35=STYLED_ITEM('',(#100),#101);
#36=STYLED_ITEM('',(#102),#103);
#37=APPLICATION_CONTEXT(' ');
#38=PRODUCT_CATEGORY('part','NONE');
#39=PRODUCT_RELATED_PRODUCT_CATEGORY('detail',' ',(#104));
#40=PRODUCT_DEFINITION_SHAPE('NONE','NONE',#105);
#41=ADVANCED_BREP_SHAPE_REPRESENTATION('1',(#53,#106),#6);
#44=UNCERTAINTY_MEASURE_WITH_UNIT(LENGTH_MEASURE(1.0E-006),#46,'','');
#46= (CONVERSION_BASED_UNIT('MILLIMETRE',#109)LENGTH_UNIT()NAMED_UNIT(#112));
#47= (NAMED_UNIT(#114)PLANE_ANGLE_UNIT()SI_UNIT($,.RADIAN.));
#48= (NAMED_UNIT(#114)SOLID_ANGLE_UNIT()SI_UNIT($,.STERADIAN.));
#50=PRESENTATION_STYLE_ASSIGNMENT((#120));
#51=ADVANCED_FACE('',(#121,#122),#123,.T.);
#52=PRESENTATION_STYLE_ASSIGNMENT((#124));
#53=MANIFOLD_SOLID_BREP('1',#125);
#54=PRESENTATION_STYLE_ASSIGNMENT((#126));
#55=EDGE_CURVE('',#69,#79,#127,.T.);
#56=PRESENTATION_STYLE_ASSIGNMENT((#128));
#57=EDGE_CURVE('',#65,#69,#129,.T.);
#58=PRESENTATION_STYLE_ASSIGNMENT((#130));
#59=EDGE_CURVE('',#79,#69,#131,.T.);
#60=PRESENTATION_STYLE_ASSIGNMENT((#132));
#61=VERTEX_POINT('',#133);
#62=PRESENTATION_STYLE_ASSIGNMENT((#134));
#63=ADVANCED_FACE('',(#135),#136,.F.);
#64=PRESENTATION_STYLE_ASSIGNMENT((#137));
#65=VERTEX_POINT('',#138);
#66=PRESENTATION_STYLE_ASSIGNMENT((#139));
#67=EDGE_CURVE('',#93,#65,#140,.T.);
#68=PRESENTATION_STYLE_ASSIGNMENT((#141));
#69=VERTEX_POINT('',#142);
#70=PRESENTATION_STYLE_ASSIGNMENT((#143));
#71=ADVANCED_FACE('',(#144),#145,.T.);
#72=PRESENTATION_STYLE_ASSIGNMENT((#146));
#73=EDGE_CURVE('',#101,#87,#147,.T.);
#74=PRESENTATION_STYLE_ASSIGNMENT((#148));
#75=ADVANCED_FACE('',(#149,#150),#151,.T.);
#76=PRESENTATION_STYLE_ASSIGNMENT((#152));
#77=EDGE_CURVE('',#65,#93,#153,.T.);
#78=PRESENTATION_STYLE_ASSIGNMENT((#154));
#79=VERTEX_POINT('',#155);
#80=PRESENTATION_STYLE_ASSIGNMENT((#156));
#81=ADVANCED_FACE('',(#157),#158,.F.);
#82=PRESENTATION_STYLE_ASSIGNMENT((#159));
#83=ADVANCED_FACE('',(#160),#161,.T.);
#84=PRESENTATION_STYLE_ASSIGNMENT((#162));
#85=EDGE_CURVE('',#61,#103,#163,.T.);
#86=PRESENTATION_STYLE_ASSIGNMENT((#164));
#87=VERTEX_POINT('',#165);
#88=PRESENTATION_STYLE_ASSIGNMENT((#166));
#89=EDGE_CURVE('',#87,#101,#167,.T.);
#90=PRESENTATION_STYLE_ASSIGNMENT((#168));
#91=EDGE_CURVE('',#103,#87,#169,.T.);
#92=PRESENTATION_STYLE_ASSIGNMENT((#170));
#93=VERTEX_POINT('',#171);
#94=PRESENTATION_STYLE_ASSIGNMENT((#172));
#95=EDGE_CURVE('',#101,#61,#173,.T.);
#96=PRESENTATION_STYLE_ASSIGNMENT((#174));
#97=EDGE_CURVE('',#103,#61,#175,.T.);
#98=PRESENTATION_STYLE_ASSIGNMENT((#176));
#99=EDGE_CURVE('',#79,#93,#177,.T.);
#100=PRESENTATION_STYLE_ASSIGNMENT((#178));
#101=VERTEX_POINT('',#179);
#102=PRESENTATION_STYLE_ASSIGNMENT((#180));
#103=VERTEX_POINT('',#181);
#104=PRODUCT('1','1','PART-1-DESC',(#182));
#105=PRODUCT_DEFINITION('NONE','NONE',#183,#2);
#106=AXIS2_PLACEMENT_3D('',#184,#185,#186);
#109=LENGTH_MEASURE_WITH_UNIT(LENGTH_MEASURE(1.0),#187);
#112=DIMENSIONAL_EXPONENTS(1.0,0.0,0.0,0.0,0.0,0.0,0.0);
#114=DIMENSIONAL_EXPONENTS(0.0,0.0,0.0,0.0,0.0,0.0,0.0);
#120=SURFACE_STYLE_USAGE(.BOTH.,#188);
#121=FACE_BOUND('',#189,.T.);
#122=FACE_OUTER_BOUND('',#190,.T.);
#123=PLANE('',#191);
#124=SURFACE_STYLE_USAGE(.BOTH.,#192);
#125=CLOSED_SHELL('',(#63,#71,#75,#83,#51,#81));
#126=CURVE_STYLE('',#193,POSITIVE_LENGTH_MEASURE(1.0E-006),#194);
#127=CIRCLE('',#195,11.5);
#128=CURVE_STYLE('',#196,POSITIVE_LENGTH_MEASURE(1.0E-006),#197);
#129=LINE('',#198,#199);
#130=CURVE_STYLE('',#200,POSITIVE_LENGTH_MEASURE(1.0E-006),#201);
#131=CIRCLE('',#202,11.5);
#132=POINT_STYLE(' ',#203,POSITIVE_LENGTH_MEASURE(1.0E-006),#204);
#133=CARTESIAN_POINT('',(-25.0,1.16722248697579E-014,7.99999999999997));
#134=SURFACE_STYLE_USAGE(.BOTH.,#205);
#135=FACE_OUTER_BOUND('',#206,.T.);
#136=CYLINDRICAL_SURFACE('',#207,11.5);
#137=POINT_STYLE(' ',#208,POSITIVE_LENGTH_MEASURE(1.0E-006),#209);
#138=CARTESIAN_POINT('',(11.5,1.57973060482331E-014,7.99999999999997));
#139=CURVE_STYLE('',#210,POSITIVE_LENGTH_MEASURE(1.0E-006),#211);
#140=CIRCLE('',#212,11.5);
#141=POINT_STYLE(' ',#213,POSITIVE_LENGTH_MEASURE(1.0E-006),#214);
#142=CARTESIAN_POINT('',(11.5,1.6287148589762E-014,-2.8421709430404E-014));
#143=SURFACE_STYLE_USAGE(.BOTH.,#215);
#144=FACE_OUTER_BOUND('',#216,.T.);
#145=CYLINDRICAL_SURFACE('',#217,25.0);
#146=CURVE_STYLE('',#218,POSITIVE_LENGTH_MEASURE(1.0E-006),#219);
#147=CIRCLE('',#220,25.0);
#148=SURFACE_STYLE_USAGE(.BOTH.,#221);
#149=FACE_OUTER_BOUND('',#222,.T.);
#150=FACE_BOUND('',#223,.T.);
#151=PLANE('',#224);
#152=CURVE_STYLE('',#225,POSITIVE_LENGTH_MEASURE(1.0E-006),#226);
#153=CIRCLE('',#227,11.5);
#154=POINT_STYLE(' ',#228,POSITIVE_LENGTH_MEASURE(1.0E-006),#229);
#155=CARTESIAN_POINT('',(-11.5,1.38997687061345E-014,-2.8421709430404E-014));
#156=SURFACE_STYLE_USAGE(.BOTH.,#230);
#157=FACE_OUTER_BOUND('',#231,.T.);
#158=CYLINDRICAL_SURFACE('',#232,11.5);
#159=SURFACE_STYLE_USAGE(.BOTH.,#233);
#160=FACE_OUTER_BOUND('',#234,.T.);
#161=CYLINDRICAL_SURFACE('',#235,25.0);
#162=CURVE_STYLE('',#236,POSITIVE_LENGTH_MEASURE(1.0E-006),#237);
#163=CIRCLE('',#238,25.0);
#164=POINT_STYLE(' ',#239,POSITIVE_LENGTH_MEASURE(1.0E-006),#240);
#165=CARTESIAN_POINT('',(25.0,1.6287148589762E-014,-2.8421709430404E-014));
#166=CURVE_STYLE('',#241,POSITIVE_LENGTH_MEASURE(1.0E-006),#242);
#167=CIRCLE('',#243,25.0);
#168=CURVE_STYLE('',#244,POSITIVE_LENGTH_MEASURE(1.0E-006),#245);
#169=LINE('',#246,#247);
#170=POINT_STYLE(' ',#248,POSITIVE_LENGTH_MEASURE(1.0E-006),#249);
#171=CARTESIAN_POINT('',(-11.5,1.38997687061345E-014,7.99999999999997));
#172=CURVE_STYLE('',#250,POSITIVE_LENGTH_MEASURE(1.0E-006),#251);
#173=LINE('',#252,#253);
#174=CURVE_STYLE('',#254,POSITIVE_LENGTH_MEASURE(1.0E-006),#255);
#175=CIRCLE('',#256,25.0);
#176=CURVE_STYLE('',#257,POSITIVE_LENGTH_MEASURE(1.0E-006),#258);
#177=LINE('',#259,#260);
#178=POINT_STYLE(' ',#261,POSITIVE_LENGTH_MEASURE(1.0E-006),#262);
#179=CARTESIAN_POINT('',(-25.0,1.16722248697579E-014,-2.8421709430404E-014));
#180=POINT_STYLE(' ',#263,POSITIVE_LENGTH_MEASURE(1.0E-006),#264);
#181=CARTESIAN_POINT('',(25.0,1.57973060482331E-014,7.99999999999997));
#182=PRODUCT_CONTEXT('',#37,'mechanical');
#183=PRODUCT_DEFINITION_FORMATION_WITH_SPECIFIED_SOURCE(' ','NONE',#104,.NOT_KNOWN.);
#184=CARTESIAN_POINT('',(0.0,0.0,0.0));
#185=DIRECTION('',(0.0,0.0,1.0));
#186=DIRECTION('',(1.0,0.0,0.0));
#187= (NAMED_UNIT(#112)LENGTH_UNIT()SI_UNIT(.MILLI.,.METRE.));
#188=SURFACE_SIDE_STYLE('',(#266));
#189=EDGE_LOOP('',(#267,#268));
#190=EDGE_LOOP('',(#269,#270));
#191=AXIS2_PLACEMENT_3D('',#271,#272,#273);
#192=SURFACE_SIDE_STYLE('',(#274));
#193=DRAUGHTING_PRE_DEFINED_CURVE_FONT('continuous');
#194=COLOUR_RGB('',0.509803950786591,0.509803950786591,0.588235318660736);
#195=AXIS2_PLACEMENT_3D('',#275,#276,#277);
#196=DRAUGHTING_PRE_DEFINED_CURVE_FONT('continuous');
#197=COLOUR_RGB('',0.509803950786591,0.509803950786591,0.588235318660736);
#198=CARTESIAN_POINT('',(11.5,1.76948433903317E-014,3.99999999999997));
#199=VECTOR('',#278,1.0);
#200=DRAUGHTING_PRE_DEFINED_CURVE_FONT('continuous');
#201=COLOUR_RGB('',0.509803950786591,0.509803950786591,0.588235318660736);
#202=AXIS2_PLACEMENT_3D('',#279,#280,#281);
#203=PRE_DEFINED_MARKER('');
#204=COLOUR_RGB('',0.509803950786591,0.509803950786591,0.588235318660736);
#205=SURFACE_SIDE_STYLE('',(#282));
#206=EDGE_LOOP('',(#283,#284,#285,#286));
#207=AXIS2_PLACEMENT_3D('',#287,#288,#289);
#208=PRE_DEFINED_MARKER('');
#209=COLOUR_RGB('',0.509803950786591,0.509803950786591,0.588235318660736);
#210=DRAUGHTING_PRE_DEFINED_CURVE_FONT('continuous');
#211=COLOUR_RGB('',0.509803950786591,0.509803950786591,0.588235318660736);
#212=AXIS2_PLACEMENT_3D('',#290,#291,#292);
#213=PRE_DEFINED_MARKER('');
#214=COLOUR_RGB('',0.509803950786591,0.509803950786591,0.588235318660736);
#215=SURFACE_SIDE_STYLE('',(#293));
#216=EDGE_LOOP('',(#294,#295,#296,#297));
#217=AXIS2_PLACEMENT_3D('',#298,#299,#300);
#218=DRAUGHTING_PRE_DEFINED_CURVE_FONT('continuous');
#219=COLOUR_RGB('',0.509803950786591,0.509803950786591,0.588235318660736);
#220=AXIS2_PLACEMENT_3D('',#301,#302,#303);
#221=SURFACE_SIDE_STYLE('',(#304));
#222=EDGE_LOOP('',(#305,#306));
#223=EDGE_LOOP('',(#307,#308));
#224=AXIS2_PLACEMENT_3D('',#309,#310,#311);
#225=DRAUGHTING_PRE_DEFINED_CURVE_FONT('continuous');
#226=COLOUR_RGB('',0.509803950786591,0.509803950786591,0.588235318660736);
#227=AXIS2_PLACEMENT_3D('',#312,#313,#314);
#228=PRE_DEFINED_MARKER('');
#229=COLOUR_RGB('',0.509803950786591,0.509803950786591,0.588235318660736);
#230=SURFACE_SIDE_STYLE('',(#315));
#231=EDGE_LOOP('',(#316,#317,#318,#319));
#232=AXIS2_PLACEMENT_3D('',#320,#321,#322);
#233=SURFACE_SIDE_STYLE('',(#323));
#234=EDGE_LOOP('',(#324,#325,#326,#327));
#235=AXIS2_PLACEMENT_3D('',#328,#329,#330);
#236=DRAUGHTING_PRE_DEFINED_CURVE_FONT('continuous');
#237=COLOUR_RGB('',0.509803950786591,0.509803950786591,0.588235318660736);
#238=AXIS2_PLACEMENT_3D('',#331,#332,#333);
#239=PRE_DEFINED_MARKER('');
#240=COLOUR_RGB('',0.509803950786591,0.509803950786591,0.588235318660736);
#241=DRAUGHTING_PRE_DEFINED_CURVE_FONT('continuous');
#242=COLOUR_RGB('',0.509803950786591,0.509803950786591,0.588235318660736);
#243=AXIS2_PLACEMENT_3D('',#334,#335,#336);
#244=DRAUGHTING_PRE_DEFINED_CURVE_FONT('continuous');
#245=COLOUR_RGB('',0.509803950786591,0.509803950786591,0.588235318660736);
#246=CARTESIAN_POINT('',(25.0,1.99223872267083E-014,3.99999999999997));
#247=VECTOR('',#337,1.0);
#248=PRE_DEFINED_MARKER('');
#249=COLOUR_RGB('',0.509803950786591,0.509803950786591,0.588235318660736);
#250=DRAUGHTING_PRE_DEFINED_CURVE_FONT('continuous');
#251=COLOUR_RGB('',0.509803950786591,0.509803950786591,0.588235318660736);
#252=CARTESIAN_POINT('',(-25.0,1.16722248697579E-014,3.99999999999997));
#253=VECTOR('',#338,1.0);
#254=DRAUGHTING_PRE_DEFINED_CURVE_FONT('continuous');
#255=COLOUR_RGB('',0.509803950786591,0.509803950786591,0.588235318660736);
#256=AXIS2_PLACEMENT_3D('',#339,#340,#341);
#257=DRAUGHTING_PRE_DEFINED_CURVE_FONT('continuous');
#258=COLOUR_RGB('',0.509803950786591,0.509803950786591,0.588235318660736);
#259=CARTESIAN_POINT('',(-11.5,1.38997687061345E-014,3.99999999999997));
#260=VECTOR('',#342,1.0);
#261=PRE_DEFINED_MARKER('');
#262=COLOUR_RGB('',0.509803950786591,0.509803950786591,0.588235318660736);
#263=PRE_DEFINED_MARKER('');
#264=COLOUR_RGB('',0.509803950786591,0.509803950786591,0.588235318660736);
#266=SURFACE_STYLE_FILL_AREA(#343);
#267=ORIENTED_EDGE('',*,*,#55,.F.);
#268=ORIENTED_EDGE('',*,*,#59,.F.);
#269=ORIENTED_EDGE('',*,*,#89,.T.);
#270=ORIENTED_EDGE('',*,*,#73,.T.);
#271=CARTESIAN_POINT('',(18.25,1.6287148589762E-014,-2.8421709430404E-014));
#272=DIRECTION('',(0.0,0.0,-1.0));
#273=DIRECTION('',(-1.0,0.0,0.0));
#274=SURFACE_STYLE_FILL_AREA(#344);
#275=CARTESIAN_POINT('',(-2.8421709430404E-014,1.57973060482331E-014,-2.8421709430404E-014));
#276=DIRECTION('',(0.0,0.0,-1.0));
#277=DIRECTION('',(1.0,4.25426117567713E-017,0.0));
#278=DIRECTION('',(-0.0,-0.0,-1.0));
#279=CARTESIAN_POINT('',(-2.8421709430404E-014,1.57973060482331E-014,-2.8421709430404E-014));
#280=DIRECTION('',(0.0,0.0,-1.0));
#281=DIRECTION('',(1.0,4.25426117567713E-017,0.0));
#282=SURFACE_STYLE_FILL_AREA(#345);
#283=ORIENTED_EDGE('',*,*,#57,.F.);
#284=ORIENTED_EDGE('',*,*,#67,.F.);
#285=ORIENTED_EDGE('',*,*,#99,.F.);
#286=ORIENTED_EDGE('',*,*,#59,.T.);
#287=CARTESIAN_POINT('',(-2.8421709430404E-014,1.57973060482331E-014,3.99999999999997));
#288=DIRECTION('',(-0.0,-0.0,1.0));
#289=DIRECTION('',(1.0,4.25426117567713E-017,0.0));
#290=CARTESIAN_POINT('',(-2.8421709430404E-014,1.57973060482331E-014,7.99999999999997));
#291=DIRECTION('',(0.0,0.0,-1.0));
#292=DIRECTION('',(1.0,4.25426117567713E-017,0.0));
#293=SURFACE_STYLE_FILL_AREA(#346);
#294=ORIENTED_EDGE('',*,*,#91,.F.);
#295=ORIENTED_EDGE('',*,*,#97,.T.);
#296=ORIENTED_EDGE('',*,*,#95,.F.);
#297=ORIENTED_EDGE('',*,*,#89,.F.);
#298=CARTESIAN_POINT('',(-2.8421709430404E-014,1.57973060482331E-014,3.99999999999997));
#299=DIRECTION('',(-0.0,-0.0,1.0));
#300=DIRECTION('',(1.0,4.25426117567713E-017,0.0));
#301=CARTESIAN_POINT('',(-2.8421709430404E-014,1.57973060482331E-014,-2.8421709430404E-014));
#302=DIRECTION('',(0.0,0.0,-1.0));
#303=DIRECTION('',(1.0,4.25426117567713E-017,0.0));
#304=SURFACE_STYLE_FILL_AREA(#347);
#305=ORIENTED_EDGE('',*,*,#97,.F.);
#306=ORIENTED_EDGE('',*,*,#85,.F.);
#307=ORIENTED_EDGE('',*,*,#77,.T.);
#308=ORIENTED_EDGE('',*,*,#67,.T.);
#309=CARTESIAN_POINT('',(18.25,1.57973060482331E-014,7.99999999999997));
#310=DIRECTION('',(0.0,0.0,1.0));
#311=DIRECTION('',(1.0,0.0,0.0));
#312=CARTESIAN_POINT('',(-2.8421709430404E-014,1.57973060482331E-014,7.99999999999997));
#313=DIRECTION('',(0.0,0.0,-1.0));
#314=DIRECTION('',(1.0,4.25426117567713E-017,0.0));
#315=SURFACE_STYLE_FILL_AREA(#348);
#316=ORIENTED_EDGE('',*,*,#57,.T.);
#317=ORIENTED_EDGE('',*,*,#55,.T.);
#318=ORIENTED_EDGE('',*,*,#99,.T.);
#319=ORIENTED_EDGE('',*,*,#77,.F.);
#320=CARTESIAN_POINT('',(-2.8421709430404E-014,1.57973060482331E-014,3.99999999999997));
#321=DIRECTION('',(-0.0,-0.0,1.0));
#322=DIRECTION('',(1.0,4.25426117567713E-017,0.0));
#323=SURFACE_STYLE_FILL_AREA(#349);
#324=ORIENTED_EDGE('',*,*,#91,.T.);
#325=ORIENTED_EDGE('',*,*,#73,.F.);
#326=ORIENTED_EDGE('',*,*,#95,.T.);
#327=ORIENTED_EDGE('',*,*,#85,.T.);
#328=CARTESIAN_POINT('',(-2.8421709430404E-014,1.57973060482331E-014,3.99999999999997));
#329=DIRECTION('',(-0.0,-0.0,1.0));
#330=DIRECTION('',(1.0,4.25426117567713E-017,0.0));
#331=CARTESIAN_POINT('',(-2.8421709430404E-014,1.57973060482331E-014,7.99999999999997));
#332=DIRECTION('',(0.0,0.0,-1.0));
#333=DIRECTION('',(1.0,4.25426117567713E-017,0.0));
#334=CARTESIAN_POINT('',(-2.8421709430404E-014,1.57973060482331E-014,-2.8421709430404E-014));
#335=DIRECTION('',(0.0,0.0,-1.0));
#336=DIRECTION('',(1.0,4.25426117567713E-017,0.0));
#337=DIRECTION('',(0.0,0.0,-1.0));
#338=DIRECTION('',(-0.0,-0.0,1.0));
#339=CARTESIAN_POINT('',(-2.8421709430404E-014,1.57973060482331E-014,7.99999999999997));
#340=DIRECTION('',(0.0,0.0,-1.0));
#341=DIRECTION('',(1.0,4.25426117567713E-017,0.0));
#342=DIRECTION('',(-0.0,-0.0,1.0));
#343=FILL_AREA_STYLE('',(#350));
#344=FILL_AREA_STYLE('',(#351));
#345=FILL_AREA_STYLE('',(#352));
#346=FILL_AREA_STYLE('',(#353));
#347=FILL_AREA_STYLE('',(#354));
#348=FILL_AREA_STYLE('',(#355));
#349=FILL_AREA_STYLE('',(#356));
#350=FILL_AREA_STYLE_COLOUR('',#357);
#351=FILL_AREA_STYLE_COLOUR('',#358);
#352=FILL_AREA_STYLE_COLOUR('',#359);
#353=FILL_AREA_STYLE_COLOUR('',#360);
#354=FILL_AREA_STYLE_COLOUR('',#361);
#355=FILL_AREA_STYLE_COLOUR('',#362);
#356=FILL_AREA_STYLE_COLOUR('',#363);
#357=COLOUR_RGB('',0.509803950786591,0.509803950786591,0.588235318660736);
#358=COLOUR_RGB('',0.509803950786591,0.509803950786591,0.588235318660736);
#359=COLOUR_RGB('',0.509803950786591,0.509803950786591,0.588235318660736);
#360=COLOUR_RGB('',0.509803950786591,0.509803950786591,0.588235318660736);
#361=COLOUR_RGB('',0.509803950786591,0.509803950786591,0.588235318660736);
#362=COLOUR_RGB('',0.509803950786591,0.509803950786591,0.588235318660736);
#363=COLOUR_RGB('',0.509803950786591,0.509803950786591,0.588235318660736);
ENDSEC;
END-ISO-10303-21;
