ISO-10303-21;
HEADER;
FILE_DESCRIPTION(('STEP AP214'),'1');
FILE_NAME(' ','  ',('TraceParts'),('TraceParts S.A.'),'XStep 1.0',' ',' ');
FILE_SCHEMA(('automotive_design'));
ENDSEC;
DATA;
#1=MECHANICAL_DESIGN_GEOMETRIC_PRESENTATION_REPRESENTATION(' ',(#10,#11,#12,#13,#14,#15,#16,#17,#18,#19,#20,#21,#22,#23,#24,#25,#26,#27,#28,#29,#30,#31,#32,#33,#34,#35,#36),#6);
#2=PRODUCT_DEFINITION_CONTEXT('',#37,'design');
#3=APPLICATION_PROTOCOL_DEFINITION('INTERNATIONAL STANDARD','automotive_design',1994,#37);
#4=PRODUCT_CATEGORY_RELATIONSHIP('NONE','NONE',#38,#39);
#5=SHAPE_DEFINITION_REPRESENTATION(#40,#41);
#6= (GEOMETRIC_REPRESENTATION_CONTEXT(3)GLOBAL_UNCERTAINTY_ASSIGNED_CONTEXT((#44))GLOBAL_UNIT_ASSIGNED_CONTEXT((#46,#47,#48))REPRESENTATION_CONTEXT('NONE','WORKSPACE'));
#10=STYLED_ITEM('',(#50),#51);
#11=STYLED_ITEM('',(#52),#53);
#12=STYLED_ITEM('',(#54),#55);
#13=STYLED_ITEM('',(#56),#57);
#14=STYLED_ITEM('',(#58),#59);
#15=STYLED_ITEM('',(#60),#61);
#16=STYLED_ITEM('',(#62),#63);
#17=STYLED_ITEM('',(#64),#65);
#18=STYLED_ITEM('',(#66),#67);
#19=STYLED_ITEM('',(#68),#69);
#20=STYLED_ITEM('',(#70),#71);
#21=STYLED_ITEM('',(#72),#73);
#22=STYLED_ITEM('',(#74),#75);
#23=STYLED_ITEM('',(#76),#77);
#24=STYLED_ITEM('',(#78),#79);
#25=STYLED_ITEM('',(#80),#81);
#26=STYLED_ITEM('',(#82),#83);
#27=STYLED_ITEM('',(#84),#85);
#28=STYLED_ITEM('',(#86),#87);
#29=STYLED_ITEM('',(#88),#89);
#30=STYLED_ITEM('',(#90),#91);
#31=STYLED_ITEM('',(#92),#93);
#32=STYLED_ITEM('',(#94),#95);
#33=STYLED_ITEM('',(#96),#97);
#34=STYLED_ITEM('',(#98),#99);
#35=STYLED_ITEM('',(#100),#101);
#36=STYLED_ITEM('',(#102),#103);
#37=APPLICATION_CONTEXT(' ');
#38=PRODUCT_CATEGORY('part','NONE');
#39=PRODUCT_RELATED_PRODUCT_CATEGORY('detail',' ',(#104));
#40=PRODUCT_DEFINITION_SHAPE('NONE','NONE',#105);
#41=ADVANCED_BREP_SHAPE_REPRESENTATION('1',(#73,#106),#6);
#44=UNCERTAINTY_MEASURE_WITH_UNIT(LENGTH_MEASURE(1.0E-006),#46,'','');
#46= (CONVERSION_BASED_UNIT('MILLIMETRE',#109)LENGTH_UNIT()NAMED_UNIT(#112));
#47= (NAMED_UNIT(#114)PLANE_ANGLE_UNIT()SI_UNIT($,.RADIAN.));
#48= (NAMED_UNIT(#114)SOLID_ANGLE_UNIT()SI_UNIT($,.STERADIAN.));
#50=PRESENTATION_STYLE_ASSIGNMENT((#120));
#51=ADVANCED_FACE('',(#121),#122,.T.);
#52=PRESENTATION_STYLE_ASSIGNMENT((#123));
#53=ADVANCED_FACE('',(#124),#125,.F.);
#54=PRESENTATION_STYLE_ASSIGNMENT((#126));
#55=VERTEX_POINT('',#127);
#56=PRESENTATION_STYLE_ASSIGNMENT((#128));
#57=EDGE_CURVE('',#103,#69,#129,.T.);
#58=PRESENTATION_STYLE_ASSIGNMENT((#130));
#59=ADVANCED_FACE('',(#131,#132),#133,.T.);
#60=PRESENTATION_STYLE_ASSIGNMENT((#134));
#61=EDGE_CURVE('',#69,#89,#135,.T.);
#62=PRESENTATION_STYLE_ASSIGNMENT((#136));
#63=ADVANCED_FACE('',(#137),#138,.T.);
#64=PRESENTATION_STYLE_ASSIGNMENT((#139));
#65=EDGE_CURVE('',#75,#79,#140,.T.);
#66=PRESENTATION_STYLE_ASSIGNMENT((#141));
#67=EDGE_CURVE('',#75,#85,#142,.T.);
#68=PRESENTATION_STYLE_ASSIGNMENT((#143));
#69=VERTEX_POINT('',#144);
#70=PRESENTATION_STYLE_ASSIGNMENT((#145));
#71=EDGE_CURVE('',#79,#91,#146,.T.);
#72=PRESENTATION_STYLE_ASSIGNMENT((#147));
#73=MANIFOLD_SOLID_BREP('1',#148);
#74=PRESENTATION_STYLE_ASSIGNMENT((#149));
#75=VERTEX_POINT('',#150);
#76=PRESENTATION_STYLE_ASSIGNMENT((#151));
#77=ADVANCED_FACE('',(#152),#153,.F.);
#78=PRESENTATION_STYLE_ASSIGNMENT((#154));
#79=VERTEX_POINT('',#155);
#80=PRESENTATION_STYLE_ASSIGNMENT((#156));
#81=EDGE_CURVE('',#91,#85,#157,.T.);
#82=PRESENTATION_STYLE_ASSIGNMENT((#158));
#83=EDGE_CURVE('',#55,#89,#159,.T.);
#84=PRESENTATION_STYLE_ASSIGNMENT((#160));
#85=VERTEX_POINT('',#161);
#86=PRESENTATION_STYLE_ASSIGNMENT((#162));
#87=EDGE_CURVE('',#91,#79,#163,.T.);
#88=PRESENTATION_STYLE_ASSIGNMENT((#164));
#89=VERTEX_POINT('',#165);
#90=PRESENTATION_STYLE_ASSIGNMENT((#166));
#91=VERTEX_POINT('',#167);
#92=PRESENTATION_STYLE_ASSIGNMENT((#168));
#93=EDGE_CURVE('',#55,#103,#169,.T.);
#94=PRESENTATION_STYLE_ASSIGNMENT((#170));
#95=EDGE_CURVE('',#69,#103,#171,.T.);
#96=PRESENTATION_STYLE_ASSIGNMENT((#172));
#97=EDGE_CURVE('',#89,#55,#173,.T.);
#98=PRESENTATION_STYLE_ASSIGNMENT((#174));
#99=ADVANCED_FACE('',(#175,#176),#177,.T.);
#100=PRESENTATION_STYLE_ASSIGNMENT((#178));
#101=EDGE_CURVE('',#85,#75,#179,.T.);
#102=PRESENTATION_STYLE_ASSIGNMENT((#180));
#103=VERTEX_POINT('',#181);
#104=PRODUCT('1','1','PART-1-DESC',(#182));
#105=PRODUCT_DEFINITION('NONE','NONE',#183,#2);
#106=AXIS2_PLACEMENT_3D('',#184,#185,#186);
#109=LENGTH_MEASURE_WITH_UNIT(LENGTH_MEASURE(1.0),#187);
#112=DIMENSIONAL_EXPONENTS(1.0,0.0,0.0,0.0,0.0,0.0,0.0);
#114=DIMENSIONAL_EXPONENTS(0.0,0.0,0.0,0.0,0.0,0.0,0.0);
#120=SURFACE_STYLE_USAGE(.BOTH.,#188);
#121=FACE_OUTER_BOUND('',#189,.T.);
#122=CYLINDRICAL_SURFACE('',#190,11.5);
#123=SURFACE_STYLE_USAGE(.BOTH.,#191);
#124=FACE_OUTER_BOUND('',#192,.T.);
#125=CYLINDRICAL_SURFACE('',#193,4.19999999999999);
#126=POINT_STYLE(' ',#194,POSITIVE_LENGTH_MEASURE(1.0E-006),#195);
#127=CARTESIAN_POINT('',(11.5,1.53074635067041E-014,3.99999999999997));
#128=CURVE_STYLE('',#196,POSITIVE_LENGTH_MEASURE(1.0E-006),#197);
#129=CIRCLE('',#198,11.5);
#130=SURFACE_STYLE_USAGE(.BOTH.,#199);
#131=FACE_OUTER_BOUND('',#200,.T.);
#132=FACE_BOUND('',#201,.T.);
#133=PLANE('',#202);
#134=CURVE_STYLE('',#203,POSITIVE_LENGTH_MEASURE(1.0E-006),#204);
#135=LINE('',#205,#206);
#136=SURFACE_STYLE_USAGE(.BOTH.,#207);
#137=FACE_OUTER_BOUND('',#208,.T.);
#138=CYLINDRICAL_SURFACE('',#209,11.5);
#139=CURVE_STYLE('',#210,POSITIVE_LENGTH_MEASURE(1.0E-006),#211);
#140=LINE('',#212,#213);
#141=CURVE_STYLE('',#214,POSITIVE_LENGTH_MEASURE(1.0E-006),#215);
#142=CIRCLE('',#216,4.19999999999999);
#143=POINT_STYLE(' ',#217,POSITIVE_LENGTH_MEASURE(1.0E-006),#218);
#144=CARTESIAN_POINT('',(-11.5000000000001,1.32293732944711E-014,-2.8421709430404E-014));
#145=CURVE_STYLE('',#219,POSITIVE_LENGTH_MEASURE(1.0E-006),#220);
#146=CIRCLE('',#221,4.19999999999999);
#147=SURFACE_STYLE_USAGE(.BOTH.,#222);
#148=CLOSED_SHELL('',(#53,#51,#59,#63,#99,#77));
#149=POINT_STYLE(' ',#223,POSITIVE_LENGTH_MEASURE(1.0E-006),#224);
#150=CARTESIAN_POINT('',(4.19999999999996,1.53074635067041E-014,3.99999999999997));
#151=SURFACE_STYLE_USAGE(.BOTH.,#225);
#152=FACE_OUTER_BOUND('',#226,.T.);
#153=CYLINDRICAL_SURFACE('',#227,4.19999999999999);
#154=POINT_STYLE(' ',#228,POSITIVE_LENGTH_MEASURE(1.0E-006),#229);
#155=CARTESIAN_POINT('',(4.19999999999996,1.55523847774686E-014,-2.8421709430404E-014));
#156=CURVE_STYLE('',#230,POSITIVE_LENGTH_MEASURE(1.0E-006),#231);
#157=LINE('',#232,#233);
#158=CURVE_STYLE('',#234,POSITIVE_LENGTH_MEASURE(1.0E-006),#235);
#159=CIRCLE('',#236,11.5);
#160=POINT_STYLE(' ',#237,POSITIVE_LENGTH_MEASURE(1.0E-006),#238);
#161=CARTESIAN_POINT('',(-4.20000000000002,1.45485088204973E-014,3.99999999999997));
#162=CURVE_STYLE('',#239,POSITIVE_LENGTH_MEASURE(1.0E-006),#240);
#163=CIRCLE('',#241,4.19999999999999);
#164=POINT_STYLE(' ',#242,POSITIVE_LENGTH_MEASURE(1.0E-006),#243);
#165=CARTESIAN_POINT('',(-11.5000000000001,1.32293732944711E-014,3.99999999999997));
#166=POINT_STYLE(' ',#244,POSITIVE_LENGTH_MEASURE(1.0E-006),#245);
#167=CARTESIAN_POINT('',(-4.20000000000002,1.45485088204973E-014,-2.8421709430404E-014));
#168=CURVE_STYLE('',#246,POSITIVE_LENGTH_MEASURE(1.0E-006),#247);
#169=LINE('',#248,#249);
#170=CURVE_STYLE('',#250,POSITIVE_LENGTH_MEASURE(1.0E-006),#251);
#171=CIRCLE('',#252,11.5);
#172=CURVE_STYLE('',#253,POSITIVE_LENGTH_MEASURE(1.0E-006),#254);
#173=CIRCLE('',#255,11.5);
#174=SURFACE_STYLE_USAGE(.BOTH.,#256);
#175=FACE_BOUND('',#257,.T.);
#176=FACE_OUTER_BOUND('',#258,.T.);
#177=PLANE('',#259);
#178=CURVE_STYLE('',#260,POSITIVE_LENGTH_MEASURE(1.0E-006),#261);
#179=CIRCLE('',#262,4.19999999999999);
#180=POINT_STYLE(' ',#263,POSITIVE_LENGTH_MEASURE(1.0E-006),#264);
#181=CARTESIAN_POINT('',(11.5,1.55523847774686E-014,-2.8421709430404E-014));
#182=PRODUCT_CONTEXT('',#37,'mechanical');
#183=PRODUCT_DEFINITION_FORMATION_WITH_SPECIFIED_SOURCE(' ','NONE',#104,.NOT_KNOWN.);
#184=CARTESIAN_POINT('',(0.0,0.0,0.0));
#185=DIRECTION('',(0.0,0.0,1.0));
#186=DIRECTION('',(1.0,0.0,0.0));
#187= (NAMED_UNIT(#112)LENGTH_UNIT()SI_UNIT(.MILLI.,.METRE.));
#188=SURFACE_SIDE_STYLE('',(#266));
#189=EDGE_LOOP('',(#267,#268,#269,#270));
#190=AXIS2_PLACEMENT_3D('',#271,#272,#273);
#191=SURFACE_SIDE_STYLE('',(#274));
#192=EDGE_LOOP('',(#275,#276,#277,#278));
#193=AXIS2_PLACEMENT_3D('',#279,#280,#281);
#194=PRE_DEFINED_MARKER('');
#195=COLOUR_RGB('',0.509803950786591,0.509803950786591,0.588235318660736);
#196=DRAUGHTING_PRE_DEFINED_CURVE_FONT('continuous');
#197=COLOUR_RGB('',0.509803950786591,0.509803950786591,0.588235318660736);
#198=AXIS2_PLACEMENT_3D('',#282,#283,#284);
#199=SURFACE_SIDE_STYLE('',(#285));
#200=EDGE_LOOP('',(#286,#287));
#201=EDGE_LOOP('',(#288,#289));
#202=AXIS2_PLACEMENT_3D('',#290,#291,#292);
#203=DRAUGHTING_PRE_DEFINED_CURVE_FONT('continuous');
#204=COLOUR_RGB('',0.509803950786591,0.509803950786591,0.588235318660736);
#205=CARTESIAN_POINT('',(-11.5000000000001,1.32293732944711E-014,1.99999999999997));
#206=VECTOR('',#293,1.0);
#207=SURFACE_SIDE_STYLE('',(#294));
#208=EDGE_LOOP('',(#295,#296,#297,#298));
#209=AXIS2_PLACEMENT_3D('',#299,#300,#301);
#210=DRAUGHTING_PRE_DEFINED_CURVE_FONT('continuous');
#211=COLOUR_RGB('',0.509803950786591,0.509803950786591,0.588235318660736);
#212=CARTESIAN_POINT('',(4.19999999999996,1.6066418192911E-014,1.99999999999997));
#213=VECTOR('',#302,1.0);
#214=DRAUGHTING_PRE_DEFINED_CURVE_FONT('continuous');
#215=COLOUR_RGB('',0.509803950786591,0.509803950786591,0.588235318660736);
#216=AXIS2_PLACEMENT_3D('',#303,#304,#305);
#217=PRE_DEFINED_MARKER('');
#218=COLOUR_RGB('',0.509803950786591,0.509803950786591,0.588235318660736);
#219=DRAUGHTING_PRE_DEFINED_CURVE_FONT('continuous');
#220=COLOUR_RGB('',0.509803950786591,0.509803950786591,0.588235318660736);
#221=AXIS2_PLACEMENT_3D('',#306,#307,#308);
#222=SURFACE_SIDE_STYLE('',(#309));
#223=PRE_DEFINED_MARKER('');
#224=COLOUR_RGB('',0.509803950786591,0.509803950786591,0.588235318660736);
#225=SURFACE_SIDE_STYLE('',(#310));
#226=EDGE_LOOP('',(#311,#312,#313,#314));
#227=AXIS2_PLACEMENT_3D('',#315,#316,#317);
#228=PRE_DEFINED_MARKER('');
#229=COLOUR_RGB('',0.509803950786591,0.509803950786591,0.588235318660736);
#230=DRAUGHTING_PRE_DEFINED_CURVE_FONT('continuous');
#231=COLOUR_RGB('',0.509803950786591,0.509803950786591,0.588235318660736);
#232=CARTESIAN_POINT('',(-4.20000000000002,1.45485088204973E-014,1.99999999999997));
#233=VECTOR('',#318,1.0);
#234=DRAUGHTING_PRE_DEFINED_CURVE_FONT('continuous');
#235=COLOUR_RGB('',0.509803950786591,0.509803950786591,0.588235318660736);
#236=AXIS2_PLACEMENT_3D('',#319,#320,#321);
#237=PRE_DEFINED_MARKER('');
#238=COLOUR_RGB('',0.509803950786591,0.509803950786591,0.588235318660736);
#239=DRAUGHTING_PRE_DEFINED_CURVE_FONT('continuous');
#240=COLOUR_RGB('',0.509803950786591,0.509803950786591,0.588235318660736);
#241=AXIS2_PLACEMENT_3D('',#322,#323,#324);
#242=PRE_DEFINED_MARKER('');
#243=COLOUR_RGB('',0.509803950786591,0.509803950786591,0.588235318660736);
#244=PRE_DEFINED_MARKER('');
#245=COLOUR_RGB('',0.509803950786591,0.509803950786591,0.588235318660736);
#246=DRAUGHTING_PRE_DEFINED_CURVE_FONT('continuous');
#247=COLOUR_RGB('',0.509803950786591,0.509803950786591,0.588235318660736);
#248=CARTESIAN_POINT('',(11.5,1.73855537189371E-014,1.99999999999997));
#249=VECTOR('',#325,1.0);
#250=DRAUGHTING_PRE_DEFINED_CURVE_FONT('continuous');
#251=COLOUR_RGB('',0.509803950786591,0.509803950786591,0.588235318660736);
#252=AXIS2_PLACEMENT_3D('',#326,#327,#328);
#253=DRAUGHTING_PRE_DEFINED_CURVE_FONT('continuous');
#254=COLOUR_RGB('',0.509803950786591,0.509803950786591,0.588235318660736);
#255=AXIS2_PLACEMENT_3D('',#329,#330,#331);
#256=SURFACE_SIDE_STYLE('',(#332));
#257=EDGE_LOOP('',(#333,#334));
#258=EDGE_LOOP('',(#335,#336));
#259=AXIS2_PLACEMENT_3D('',#337,#338,#339);
#260=DRAUGHTING_PRE_DEFINED_CURVE_FONT('continuous');
#261=COLOUR_RGB('',0.509803950786591,0.509803950786591,0.588235318660736);
#262=AXIS2_PLACEMENT_3D('',#340,#341,#342);
#263=PRE_DEFINED_MARKER('');
#264=COLOUR_RGB('',0.509803950786591,0.509803950786591,0.588235318660736);
#266=SURFACE_STYLE_FILL_AREA(#343);
#267=ORIENTED_EDGE('',*,*,#93,.F.);
#268=ORIENTED_EDGE('',*,*,#83,.T.);
#269=ORIENTED_EDGE('',*,*,#61,.F.);
#270=ORIENTED_EDGE('',*,*,#57,.F.);
#271=CARTESIAN_POINT('',(-2.8421709430404E-014,1.53074635067041E-014,1.99999999999997));
#272=DIRECTION('',(-0.0,-0.0,1.0));
#273=DIRECTION('',(1.0,5.8242861333675E-017,0.0));
#274=SURFACE_STYLE_FILL_AREA(#344);
#275=ORIENTED_EDGE('',*,*,#65,.F.);
#276=ORIENTED_EDGE('',*,*,#101,.F.);
#277=ORIENTED_EDGE('',*,*,#81,.F.);
#278=ORIENTED_EDGE('',*,*,#87,.T.);
#279=CARTESIAN_POINT('',(-2.8421709430404E-014,1.53074635067041E-014,1.99999999999997));
#280=DIRECTION('',(-0.0,-0.0,1.0));
#281=DIRECTION('',(1.0,5.8242861333675E-017,0.0));
#282=CARTESIAN_POINT('',(-2.8421709430404E-014,1.53074635067041E-014,-2.8421709430404E-014));
#283=DIRECTION('',(0.0,0.0,-1.0));
#284=DIRECTION('',(1.0,5.8242861333675E-017,0.0));
#285=SURFACE_STYLE_FILL_AREA(#345);
#286=ORIENTED_EDGE('',*,*,#83,.F.);
#287=ORIENTED_EDGE('',*,*,#97,.F.);
#288=ORIENTED_EDGE('',*,*,#67,.T.);
#289=ORIENTED_EDGE('',*,*,#101,.T.);
#290=CARTESIAN_POINT('',(7.84999999999998,1.53074635067041E-014,3.99999999999997));
#291=DIRECTION('',(0.0,0.0,1.0));
#292=DIRECTION('',(1.0,0.0,0.0));
#293=DIRECTION('',(-0.0,-0.0,1.0));
#294=SURFACE_STYLE_FILL_AREA(#346);
#295=ORIENTED_EDGE('',*,*,#93,.T.);
#296=ORIENTED_EDGE('',*,*,#95,.F.);
#297=ORIENTED_EDGE('',*,*,#61,.T.);
#298=ORIENTED_EDGE('',*,*,#97,.T.);
#299=CARTESIAN_POINT('',(-2.8421709430404E-014,1.53074635067041E-014,1.99999999999997));
#300=DIRECTION('',(-0.0,-0.0,1.0));
#301=DIRECTION('',(1.0,5.8242861333675E-017,0.0));
#302=DIRECTION('',(-0.0,-0.0,-1.0));
#303=CARTESIAN_POINT('',(-2.8421709430404E-014,1.53074635067041E-014,3.99999999999997));
#304=DIRECTION('',(0.0,0.0,-1.0));
#305=DIRECTION('',(1.0,5.8242861333675E-017,0.0));
#306=CARTESIAN_POINT('',(-2.8421709430404E-014,1.53074635067041E-014,-2.8421709430404E-014));
#307=DIRECTION('',(0.0,0.0,-1.0));
#308=DIRECTION('',(1.0,5.8242861333675E-017,0.0));
#309=SURFACE_STYLE_FILL_AREA(#347);
#310=SURFACE_STYLE_FILL_AREA(#348);
#311=ORIENTED_EDGE('',*,*,#65,.T.);
#312=ORIENTED_EDGE('',*,*,#71,.T.);
#313=ORIENTED_EDGE('',*,*,#81,.T.);
#314=ORIENTED_EDGE('',*,*,#67,.F.);
#315=CARTESIAN_POINT('',(-2.8421709430404E-014,1.53074635067041E-014,1.99999999999997));
#316=DIRECTION('',(-0.0,-0.0,1.0));
#317=DIRECTION('',(1.0,5.8242861333675E-017,0.0));
#318=DIRECTION('',(-0.0,-0.0,1.0));
#319=CARTESIAN_POINT('',(-2.8421709430404E-014,1.53074635067041E-014,3.99999999999997));
#320=DIRECTION('',(0.0,0.0,-1.0));
#321=DIRECTION('',(1.0,5.8242861333675E-017,0.0));
#322=CARTESIAN_POINT('',(-2.8421709430404E-014,1.53074635067041E-014,-2.8421709430404E-014));
#323=DIRECTION('',(0.0,0.0,-1.0));
#324=DIRECTION('',(1.0,5.8242861333675E-017,0.0));
#325=DIRECTION('',(0.0,0.0,-1.0));
#326=CARTESIAN_POINT('',(-2.8421709430404E-014,1.53074635067041E-014,-2.8421709430404E-014));
#327=DIRECTION('',(0.0,0.0,-1.0));
#328=DIRECTION('',(1.0,5.8242861333675E-017,0.0));
#329=CARTESIAN_POINT('',(-2.8421709430404E-014,1.53074635067041E-014,3.99999999999997));
#330=DIRECTION('',(0.0,0.0,-1.0));
#331=DIRECTION('',(1.0,5.8242861333675E-017,0.0));
#332=SURFACE_STYLE_FILL_AREA(#349);
#333=ORIENTED_EDGE('',*,*,#71,.F.);
#334=ORIENTED_EDGE('',*,*,#87,.F.);
#335=ORIENTED_EDGE('',*,*,#57,.T.);
#336=ORIENTED_EDGE('',*,*,#95,.T.);
#337=CARTESIAN_POINT('',(7.84999999999998,1.55523847774686E-014,-2.8421709430404E-014));
#338=DIRECTION('',(0.0,0.0,-1.0));
#339=DIRECTION('',(-1.0,0.0,0.0));
#340=CARTESIAN_POINT('',(-2.8421709430404E-014,1.53074635067041E-014,3.99999999999997));
#341=DIRECTION('',(0.0,0.0,-1.0));
#342=DIRECTION('',(1.0,5.8242861333675E-017,0.0));
#343=FILL_AREA_STYLE('',(#350));
#344=FILL_AREA_STYLE('',(#351));
#345=FILL_AREA_STYLE('',(#352));
#346=FILL_AREA_STYLE('',(#353));
#347=FILL_AREA_STYLE('',(#354));
#348=FILL_AREA_STYLE('',(#355));
#349=FILL_AREA_STYLE('',(#356));
#350=FILL_AREA_STYLE_COLOUR('',#357);
#351=FILL_AREA_STYLE_COLOUR('',#358);
#352=FILL_AREA_STYLE_COLOUR('',#359);
#353=FILL_AREA_STYLE_COLOUR('',#360);
#354=FILL_AREA_STYLE_COLOUR('',#361);
#355=FILL_AREA_STYLE_COLOUR('',#362);
#356=FILL_AREA_STYLE_COLOUR('',#363);
#357=COLOUR_RGB('',0.509803950786591,0.509803950786591,0.588235318660736);
#358=COLOUR_RGB('',0.509803950786591,0.509803950786591,0.588235318660736);
#359=COLOUR_RGB('',0.509803950786591,0.509803950786591,0.588235318660736);
#360=COLOUR_RGB('',0.509803950786591,0.509803950786591,0.588235318660736);
#361=COLOUR_RGB('',0.509803950786591,0.509803950786591,0.588235318660736);
#362=COLOUR_RGB('',0.509803950786591,0.509803950786591,0.588235318660736);
#363=COLOUR_RGB('',0.509803950786591,0.509803950786591,0.588235318660736);
ENDSEC;
END-ISO-10303-21;
