ISO-10303-21;
HEADER;
FILE_DESCRIPTION(('STEP AP214'),'1');
FILE_NAME(' ','  ',('TraceParts'),('TraceParts S.A.'),'XStep 1.0',' ',' ');
FILE_SCHEMA(('automotive_design'));
ENDSEC;
DATA;
#1=MECHANICAL_DESIGN_GEOMETRIC_PRESENTATION_REPRESENTATION(' ',(#10,#11,#12,#13,#14,#15,#16,#17,#18,#19,#20,#21,#22,#23,#24,#25,#26,#27,#28,#29,#30,#31,#32,#33,#34,#35,#36,#37,#38,#39,#40,#41,#42,#43,#44),#6);
#2=PRODUCT_DEFINITION_CONTEXT('',#45,'design');
#3=APPLICATION_PROTOCOL_DEFINITION('INTERNATIONAL STANDARD','automotive_design',1994,#45);
#4=PRODUCT_CATEGORY_RELATIONSHIP('NONE','NONE',#46,#47);
#5=SHAPE_DEFINITION_REPRESENTATION(#48,#49);
#6= (GEOMETRIC_REPRESENTATION_CONTEXT(3)GLOBAL_UNCERTAINTY_ASSIGNED_CONTEXT((#52))GLOBAL_UNIT_ASSIGNED_CONTEXT((#54,#55,#56))REPRESENTATION_CONTEXT('NONE','WORKSPACE'));
#10=STYLED_ITEM('',(#58),#59);
#11=STYLED_ITEM('',(#60),#61);
#12=STYLED_ITEM('',(#62),#63);
#13=STYLED_ITEM('',(#64),#65);
#14=STYLED_ITEM('',(#66),#67);
#15=STYLED_ITEM('',(#68),#69);
#16=STYLED_ITEM('',(#70),#71);
#17=STYLED_ITEM('',(#72),#73);
#18=STYLED_ITEM('',(#74),#75);
#19=STYLED_ITEM('',(#76),#77);
#20=STYLED_ITEM('',(#78),#79);
#21=STYLED_ITEM('',(#80),#81);
#22=STYLED_ITEM('',(#82),#83);
#23=STYLED_ITEM('',(#84),#85);
#24=STYLED_ITEM('',(#86),#87);
#25=STYLED_ITEM('',(#88),#89);
#26=STYLED_ITEM('',(#90),#91);
#27=STYLED_ITEM('',(#92),#93);
#28=STYLED_ITEM('',(#94),#95);
#29=STYLED_ITEM('',(#96),#97);
#30=STYLED_ITEM('',(#98),#99);
#31=STYLED_ITEM('',(#100),#101);
#32=STYLED_ITEM('',(#102),#103);
#33=STYLED_ITEM('',(#104),#105);
#34=STYLED_ITEM('',(#106),#107);
#35=STYLED_ITEM('',(#108),#109);
#36=STYLED_ITEM('',(#110),#111);
#37=STYLED_ITEM('',(#112),#113);
#38=STYLED_ITEM('',(#114),#115);
#39=STYLED_ITEM('',(#116),#117);
#40=STYLED_ITEM('',(#118),#119);
#41=STYLED_ITEM('',(#120),#121);
#42=STYLED_ITEM('',(#122),#123);
#43=STYLED_ITEM('',(#124),#125);
#44=STYLED_ITEM('',(#126),#127);
#45=APPLICATION_CONTEXT(' ');
#46=PRODUCT_CATEGORY('part','NONE');
#47=PRODUCT_RELATED_PRODUCT_CATEGORY('detail',' ',(#128));
#48=PRODUCT_DEFINITION_SHAPE('NONE','NONE',#129);
#49=ADVANCED_BREP_SHAPE_REPRESENTATION('1',(#61,#130),#6);
#52=UNCERTAINTY_MEASURE_WITH_UNIT(LENGTH_MEASURE(1.0E-006),#54,'','');
#54= (CONVERSION_BASED_UNIT('MILLIMETRE',#133)LENGTH_UNIT()NAMED_UNIT(#136));
#55= (NAMED_UNIT(#138)PLANE_ANGLE_UNIT()SI_UNIT($,.RADIAN.));
#56= (NAMED_UNIT(#138)SOLID_ANGLE_UNIT()SI_UNIT($,.STERADIAN.));
#58=PRESENTATION_STYLE_ASSIGNMENT((#144));
#59=VERTEX_POINT('',#145);
#60=PRESENTATION_STYLE_ASSIGNMENT((#146));
#61=MANIFOLD_SOLID_BREP('1',#147);
#62=PRESENTATION_STYLE_ASSIGNMENT((#148));
#63=ADVANCED_FACE('',(#149,#150),#151,.T.);
#64=PRESENTATION_STYLE_ASSIGNMENT((#152));
#65=VERTEX_POINT('',#153);
#66=PRESENTATION_STYLE_ASSIGNMENT((#154));
#67=EDGE_CURVE('',#105,#95,#155,.T.);
#68=PRESENTATION_STYLE_ASSIGNMENT((#156));
#69=ADVANCED_FACE('',(#157),#158,.T.);
#70=PRESENTATION_STYLE_ASSIGNMENT((#159));
#71=EDGE_CURVE('',#79,#123,#160,.T.);
#72=PRESENTATION_STYLE_ASSIGNMENT((#161));
#73=ADVANCED_FACE('',(#162),#163,.T.);
#74=PRESENTATION_STYLE_ASSIGNMENT((#164));
#75=EDGE_CURVE('',#79,#127,#165,.T.);
#76=PRESENTATION_STYLE_ASSIGNMENT((#166));
#77=EDGE_CURVE('',#59,#127,#167,.T.);
#78=PRESENTATION_STYLE_ASSIGNMENT((#168));
#79=VERTEX_POINT('',#169);
#80=PRESENTATION_STYLE_ASSIGNMENT((#170));
#81=EDGE_CURVE('',#123,#79,#171,.T.);
#82=PRESENTATION_STYLE_ASSIGNMENT((#172));
#83=VERTEX_POINT('',#173);
#84=PRESENTATION_STYLE_ASSIGNMENT((#174));
#85=EDGE_CURVE('',#127,#59,#175,.T.);
#86=PRESENTATION_STYLE_ASSIGNMENT((#176));
#87=EDGE_CURVE('',#83,#117,#177,.T.);
#88=PRESENTATION_STYLE_ASSIGNMENT((#178));
#89=ADVANCED_FACE('',(#179),#180,.F.);
#90=PRESENTATION_STYLE_ASSIGNMENT((#181));
#91=VERTEX_POINT('',#182);
#92=PRESENTATION_STYLE_ASSIGNMENT((#183));
#93=ADVANCED_FACE('',(#184),#185,.F.);
#94=PRESENTATION_STYLE_ASSIGNMENT((#186));
#95=VERTEX_POINT('',#187);
#96=PRESENTATION_STYLE_ASSIGNMENT((#188));
#97=EDGE_CURVE('',#95,#91,#189,.T.);
#98=PRESENTATION_STYLE_ASSIGNMENT((#190));
#99=ADVANCED_FACE('',(#191),#192,.F.);
#100=PRESENTATION_STYLE_ASSIGNMENT((#193));
#101=ADVANCED_FACE('',(#194),#195,.F.);
#102=PRESENTATION_STYLE_ASSIGNMENT((#196));
#103=EDGE_CURVE('',#65,#91,#197,.T.);
#104=PRESENTATION_STYLE_ASSIGNMENT((#198));
#105=VERTEX_POINT('',#199);
#106=PRESENTATION_STYLE_ASSIGNMENT((#200));
#107=EDGE_CURVE('',#91,#117,#201,.T.);
#108=PRESENTATION_STYLE_ASSIGNMENT((#202));
#109=EDGE_CURVE('',#65,#105,#203,.T.);
#110=PRESENTATION_STYLE_ASSIGNMENT((#204));
#111=EDGE_CURVE('',#95,#105,#205,.T.);
#112=PRESENTATION_STYLE_ASSIGNMENT((#206));
#113=EDGE_CURVE('',#91,#65,#207,.T.);
#114=PRESENTATION_STYLE_ASSIGNMENT((#208));
#115=EDGE_CURVE('',#117,#83,#209,.T.);
#116=PRESENTATION_STYLE_ASSIGNMENT((#210));
#117=VERTEX_POINT('',#211);
#118=PRESENTATION_STYLE_ASSIGNMENT((#212));
#119=ADVANCED_FACE('',(#213,#214),#215,.T.);
#120=PRESENTATION_STYLE_ASSIGNMENT((#216));
#121=EDGE_CURVE('',#59,#123,#217,.T.);
#122=PRESENTATION_STYLE_ASSIGNMENT((#218));
#123=VERTEX_POINT('',#219);
#124=PRESENTATION_STYLE_ASSIGNMENT((#220));
#125=EDGE_CURVE('',#83,#65,#221,.T.);
#126=PRESENTATION_STYLE_ASSIGNMENT((#222));
#127=VERTEX_POINT('',#223);
#128=PRODUCT('1','1','PART-1-DESC',(#224));
#129=PRODUCT_DEFINITION('NONE','NONE',#225,#2);
#130=AXIS2_PLACEMENT_3D('',#226,#227,#228);
#133=LENGTH_MEASURE_WITH_UNIT(LENGTH_MEASURE(1.0),#229);
#136=DIMENSIONAL_EXPONENTS(1.0,0.0,0.0,0.0,0.0,0.0,0.0);
#138=DIMENSIONAL_EXPONENTS(0.0,0.0,0.0,0.0,0.0,0.0,0.0);
#144=POINT_STYLE(' ',#230,POSITIVE_LENGTH_MEASURE(1.0E-006),#231);
#145=CARTESIAN_POINT('',(34.0000000000001,2.24307504665072E-014,-2.8421709430404E-014));
#146=SURFACE_STYLE_USAGE(.BOTH.,#232);
#147=CLOSED_SHELL('',(#93,#69,#99,#101,#119,#73,#63,#89));
#148=SURFACE_STYLE_USAGE(.BOTH.,#233);
#149=FACE_BOUND('',#234,.T.);
#150=FACE_OUTER_BOUND('',#235,.T.);
#151=PLANE('',#236);
#152=POINT_STYLE(' ',#237,POSITIVE_LENGTH_MEASURE(1.0E-006),#238);
#153=CARTESIAN_POINT('',(-17.5,1.02865301558445E-014,7.95854811567261));
#154=CURVE_STYLE('',#239,POSITIVE_LENGTH_MEASURE(1.0E-006),#240);
#155=CIRCLE('',#241,17.5);
#156=SURFACE_STYLE_USAGE(.BOTH.,#242);
#157=FACE_OUTER_BOUND('',#243,.T.);
#158=CYLINDRICAL_SURFACE('',#244,34.0000000000001);
#159=CURVE_STYLE('',#245,POSITIVE_LENGTH_MEASURE(1.0E-006),#246);
#160=CIRCLE('',#247,34.0000000000001);
#161=SURFACE_STYLE_USAGE(.BOTH.,#248);
#162=FACE_OUTER_BOUND('',#249,.T.);
#163=CYLINDRICAL_SURFACE('',#250,34.0000000000001);
#164=CURVE_STYLE('',#251,POSITIVE_LENGTH_MEASURE(1.0E-006),#252);
#165=LINE('',#253,#254);
#166=CURVE_STYLE('',#255,POSITIVE_LENGTH_MEASURE(1.0E-006),#256);
#167=CIRCLE('',#257,34.0000000000001);
#168=POINT_STYLE(' ',#258,POSITIVE_LENGTH_MEASURE(1.0E-006),#259);
#169=CARTESIAN_POINT('',(-34.0000000000001,8.51338905484829E-015,12.0));
#170=CURVE_STYLE('',#260,POSITIVE_LENGTH_MEASURE(1.0E-006),#261);
#171=CIRCLE('',#262,34.0000000000001);
#172=POINT_STYLE(' ',#263,POSITIVE_LENGTH_MEASURE(1.0E-006),#264);
#173=CARTESIAN_POINT('',(-24.5000000000001,9.67676509097955E-015,12.0));
#174=CURVE_STYLE('',#265,POSITIVE_LENGTH_MEASURE(1.0E-006),#266);
#175=CIRCLE('',#267,34.0000000000001);
#176=CURVE_STYLE('',#268,POSITIVE_LENGTH_MEASURE(1.0E-006),#269);
#177=CIRCLE('',#270,24.5000000000001);
#178=SURFACE_STYLE_USAGE(.BOTH.,#271);
#179=FACE_OUTER_BOUND('',#272,.T.);
#180=CYLINDRICAL_SURFACE('',#273,17.5);
#181=POINT_STYLE(' ',#274,POSITIVE_LENGTH_MEASURE(1.0E-006),#275);
#182=CARTESIAN_POINT('',(17.5,1.76973373240679E-014,7.95854811567261));
#183=SURFACE_STYLE_USAGE(.BOTH.,#276);
#184=FACE_OUTER_BOUND('',#277,.T.);
#185=CYLINDRICAL_SURFACE('',#278,17.5);
#186=POINT_STYLE(' ',#279,POSITIVE_LENGTH_MEASURE(1.0E-006),#280);
#187=CARTESIAN_POINT('',(17.5,1.76973373240679E-014,-2.8421709430404E-014));
#188=CURVE_STYLE('',#281,POSITIVE_LENGTH_MEASURE(1.0E-006),#282);
#189=LINE('',#283,#284);
#190=SURFACE_STYLE_USAGE(.BOTH.,#285);
#191=FACE_OUTER_BOUND('',#286,.T.);
#192=CONICAL_SURFACE('',#287,21.0,1.0471975511966);
#193=SURFACE_STYLE_USAGE(.BOTH.,#288);
#194=FACE_OUTER_BOUND('',#289,.T.);
#195=CONICAL_SURFACE('',#290,21.0,1.0471975511966);
#196=CURVE_STYLE('',#291,POSITIVE_LENGTH_MEASURE(1.0E-006),#292);
#197=CIRCLE('',#293,17.5);
#198=POINT_STYLE(' ',#294,POSITIVE_LENGTH_MEASURE(1.0E-006),#295);
#199=CARTESIAN_POINT('',(-17.5,9.79922572636179E-015,-2.8421709430404E-014));
#200=CURVE_STYLE('',#296,POSITIVE_LENGTH_MEASURE(1.0E-006),#297);
#201=LINE('',#298,#299);
#202=CURVE_STYLE('',#300,POSITIVE_LENGTH_MEASURE(1.0E-006),#301);
#203=LINE('',#302,#303);
#204=CURVE_STYLE('',#304,POSITIVE_LENGTH_MEASURE(1.0E-006),#305);
#205=CIRCLE('',#306,17.5);
#206=CURVE_STYLE('',#307,POSITIVE_LENGTH_MEASURE(1.0E-006),#308);
#207=CIRCLE('',#309,17.5);
#208=CURVE_STYLE('',#310,POSITIVE_LENGTH_MEASURE(1.0E-006),#311);
#209=CIRCLE('',#312,24.5000000000001);
#210=POINT_STYLE(' ',#313,POSITIVE_LENGTH_MEASURE(1.0E-006),#314);
#211=CARTESIAN_POINT('',(24.5000000000001,1.97054519905573E-014,12.0));
#212=SURFACE_STYLE_USAGE(.BOTH.,#315);
#213=FACE_OUTER_BOUND('',#316,.T.);
#214=FACE_BOUND('',#317,.T.);
#215=PLANE('',#318);
#216=CURVE_STYLE('',#319,POSITIVE_LENGTH_MEASURE(1.0E-006),#320);
#217=LINE('',#321,#322);
#218=POINT_STYLE(' ',#323,POSITIVE_LENGTH_MEASURE(1.0E-006),#324);
#219=CARTESIAN_POINT('',(34.0000000000001,2.24307504665072E-014,12.0));
#220=CURVE_STYLE('',#325,POSITIVE_LENGTH_MEASURE(1.0E-006),#326);
#221=LINE('',#327,#328);
#222=POINT_STYLE(' ',#329,POSITIVE_LENGTH_MEASURE(1.0E-006),#330);
#223=CARTESIAN_POINT('',(-34.0000000000001,7.77862524255487E-015,-2.8421709430404E-014));
#224=PRODUCT_CONTEXT('',#45,'mechanical');
#225=PRODUCT_DEFINITION_FORMATION_WITH_SPECIFIED_SOURCE(' ','NONE',#128,.NOT_KNOWN.);
#226=CARTESIAN_POINT('',(0.0,0.0,0.0));
#227=DIRECTION('',(0.0,0.0,1.0));
#228=DIRECTION('',(1.0,0.0,0.0));
#229= (NAMED_UNIT(#136)LENGTH_UNIT()SI_UNIT(.MILLI.,.METRE.));
#230=PRE_DEFINED_MARKER('');
#231=COLOUR_RGB('',0.509803950786591,0.509803950786591,0.588235318660736);
#232=SURFACE_SIDE_STYLE('',(#332));
#233=SURFACE_SIDE_STYLE('',(#333));
#234=EDGE_LOOP('',(#334,#335));
#235=EDGE_LOOP('',(#336,#337));
#236=AXIS2_PLACEMENT_3D('',#338,#339,#340);
#237=PRE_DEFINED_MARKER('');
#238=COLOUR_RGB('',0.509803950786591,0.509803950786591,0.588235318660736);
#239=DRAUGHTING_PRE_DEFINED_CURVE_FONT('continuous');
#240=COLOUR_RGB('',0.509803950786591,0.509803950786591,0.588235318660736);
#241=AXIS2_PLACEMENT_3D('',#341,#342,#343);
#242=SURFACE_SIDE_STYLE('',(#344));
#243=EDGE_LOOP('',(#345,#346,#347,#348));
#244=AXIS2_PLACEMENT_3D('',#349,#350,#351);
#245=DRAUGHTING_PRE_DEFINED_CURVE_FONT('continuous');
#246=COLOUR_RGB('',0.509803950786591,0.509803950786591,0.588235318660736);
#247=AXIS2_PLACEMENT_3D('',#352,#353,#354);
#248=SURFACE_SIDE_STYLE('',(#355));
#249=EDGE_LOOP('',(#356,#357,#358,#359));
#250=AXIS2_PLACEMENT_3D('',#360,#361,#362);
#251=DRAUGHTING_PRE_DEFINED_CURVE_FONT('continuous');
#252=COLOUR_RGB('',0.509803950786591,0.509803950786591,0.588235318660736);
#253=CARTESIAN_POINT('',(-34.0000000000001,2.92335084918159E-015,5.99999999999997));
#254=VECTOR('',#363,1.0);
#255=DRAUGHTING_PRE_DEFINED_CURVE_FONT('continuous');
#256=COLOUR_RGB('',0.509803950786591,0.509803950786591,0.588235318660736);
#257=AXIS2_PLACEMENT_3D('',#364,#365,#366);
#258=PRE_DEFINED_MARKER('');
#259=COLOUR_RGB('',0.509803950786591,0.509803950786591,0.588235318660736);
#260=DRAUGHTING_PRE_DEFINED_CURVE_FONT('continuous');
#261=COLOUR_RGB('',0.509803950786591,0.509803950786591,0.588235318660736);
#262=AXIS2_PLACEMENT_3D('',#367,#368,#369);
#263=PRE_DEFINED_MARKER('');
#264=COLOUR_RGB('',0.509803950786591,0.509803950786591,0.588235318660736);
#265=DRAUGHTING_PRE_DEFINED_CURVE_FONT('continuous');
#266=COLOUR_RGB('',0.509803950786591,0.509803950786591,0.588235318660736);
#267=AXIS2_PLACEMENT_3D('',#370,#371,#372);
#268=DRAUGHTING_PRE_DEFINED_CURVE_FONT('continuous');
#269=COLOUR_RGB('',0.509803950786591,0.509803950786591,0.588235318660736);
#270=AXIS2_PLACEMENT_3D('',#373,#374,#375);
#271=SURFACE_SIDE_STYLE('',(#376));
#272=EDGE_LOOP('',(#377,#378,#379,#380));
#273=AXIS2_PLACEMENT_3D('',#381,#382,#383);
#274=PRE_DEFINED_MARKER('');
#275=COLOUR_RGB('',0.509803950786591,0.509803950786591,0.588235318660736);
#276=SURFACE_SIDE_STYLE('',(#384));
#277=EDGE_LOOP('',(#385,#386,#387,#388));
#278=AXIS2_PLACEMENT_3D('',#389,#390,#391);
#279=PRE_DEFINED_MARKER('');
#280=COLOUR_RGB('',0.509803950786591,0.509803950786591,0.588235318660736);
#281=DRAUGHTING_PRE_DEFINED_CURVE_FONT('continuous');
#282=COLOUR_RGB('',0.509803950786591,0.509803950786591,0.588235318660736);
#283=CARTESIAN_POINT('',(17.5,1.76973373240679E-014,3.97927405783629));
#284=VECTOR('',#392,1.0);
#285=SURFACE_SIDE_STYLE('',(#393));
#286=EDGE_LOOP('',(#394,#395,#396,#397));
#287=AXIS2_PLACEMENT_3D('',#398,#399,#400);
#288=SURFACE_SIDE_STYLE('',(#401));
#289=EDGE_LOOP('',(#402,#403,#404,#405));
#290=AXIS2_PLACEMENT_3D('',#406,#407,#408);
#291=DRAUGHTING_PRE_DEFINED_CURVE_FONT('continuous');
#292=COLOUR_RGB('',0.509803950786591,0.509803950786591,0.588235318660736);
#293=AXIS2_PLACEMENT_3D('',#409,#410,#411);
#294=PRE_DEFINED_MARKER('');
#295=COLOUR_RGB('',0.509803950786591,0.509803950786591,0.588235318660736);
#296=DRAUGHTING_PRE_DEFINED_CURVE_FONT('continuous');
#297=COLOUR_RGB('',0.509803950786591,0.509803950786591,0.588235318660736);
#298=CARTESIAN_POINT('',(21.0,1.87013946573126E-014,9.97927405783629));
#299=VECTOR('',#412,1.0);
#300=DRAUGHTING_PRE_DEFINED_CURVE_FONT('continuous');
#301=COLOUR_RGB('',0.509803950786591,0.509803950786591,0.588235318660736);
#302=CARTESIAN_POINT('',(-17.5,7.6567639916209E-015,3.97927405783629));
#303=VECTOR('',#413,1.0);
#304=DRAUGHTING_PRE_DEFINED_CURVE_FONT('continuous');
#305=COLOUR_RGB('',0.509803950786591,0.509803950786591,0.588235318660736);
#306=AXIS2_PLACEMENT_3D('',#414,#415,#416);
#307=DRAUGHTING_PRE_DEFINED_CURVE_FONT('continuous');
#308=COLOUR_RGB('',0.509803950786591,0.509803950786591,0.588235318660736);
#309=AXIS2_PLACEMENT_3D('',#417,#418,#419);
#310=DRAUGHTING_PRE_DEFINED_CURVE_FONT('continuous');
#311=COLOUR_RGB('',0.509803950786591,0.509803950786591,0.588235318660736);
#312=AXIS2_PLACEMENT_3D('',#420,#421,#422);
#313=PRE_DEFINED_MARKER('');
#314=COLOUR_RGB('',0.509803950786591,0.509803950786591,0.588235318660736);
#315=SURFACE_SIDE_STYLE('',(#423));
#316=EDGE_LOOP('',(#424,#425));
#317=EDGE_LOOP('',(#426,#427));
#318=AXIS2_PLACEMENT_3D('',#428,#429,#430);
#319=DRAUGHTING_PRE_DEFINED_CURVE_FONT('continuous');
#320=COLOUR_RGB('',0.509803950786591,0.509803950786591,0.588235318660736);
#321=CARTESIAN_POINT('',(34.0000000000001,2.24307504665072E-014,5.99999999999997));
#322=VECTOR('',#431,1.0);
#323=PRE_DEFINED_MARKER('');
#324=COLOUR_RGB('',0.509803950786591,0.509803950786591,0.588235318660736);
#325=DRAUGHTING_PRE_DEFINED_CURVE_FONT('continuous');
#326=COLOUR_RGB('',0.509803950786591,0.509803950786591,0.588235318660736);
#327=CARTESIAN_POINT('',(-21.0,6.65270665837619E-015,9.97927405783629));
#328=VECTOR('',#432,1.0);
#329=PRE_DEFINED_MARKER('');
#330=COLOUR_RGB('',0.509803950786591,0.509803950786591,0.588235318660736);
#332=SURFACE_STYLE_FILL_AREA(#433);
#333=SURFACE_STYLE_FILL_AREA(#434);
#334=ORIENTED_EDGE('',*,*,#67,.F.);
#335=ORIENTED_EDGE('',*,*,#111,.F.);
#336=ORIENTED_EDGE('',*,*,#85,.T.);
#337=ORIENTED_EDGE('',*,*,#77,.T.);
#338=CARTESIAN_POINT('',(-25.75,8.78892548445833E-015,-2.8421709430404E-014));
#339=DIRECTION('',(0.0,0.0,-1.0));
#340=DIRECTION('',(1.0,1.22460635382238E-016,0.0));
#341=CARTESIAN_POINT('',(0.0,1.26770506578444E-014,-2.8421709430404E-014));
#342=DIRECTION('',(-0.0,0.0,-1.0));
#343=DIRECTION('',(-1.0,-1.64412888401961E-016,0.0));
#344=SURFACE_STYLE_FILL_AREA(#435);
#345=ORIENTED_EDGE('',*,*,#75,.F.);
#346=ORIENTED_EDGE('',*,*,#71,.T.);
#347=ORIENTED_EDGE('',*,*,#121,.F.);
#348=ORIENTED_EDGE('',*,*,#85,.F.);
#349=CARTESIAN_POINT('',(0.0,1.26770506578444E-014,5.99999999999997));
#350=DIRECTION('',(0.0,-0.0,1.0));
#351=DIRECTION('',(-1.0,-1.64412888401961E-016,0.0));
#352=CARTESIAN_POINT('',(0.0,1.26770506578444E-014,12.0));
#353=DIRECTION('',(-0.0,0.0,-1.0));
#354=DIRECTION('',(-1.0,-1.64412888401961E-016,0.0));
#355=SURFACE_STYLE_FILL_AREA(#436);
#356=ORIENTED_EDGE('',*,*,#75,.T.);
#357=ORIENTED_EDGE('',*,*,#77,.F.);
#358=ORIENTED_EDGE('',*,*,#121,.T.);
#359=ORIENTED_EDGE('',*,*,#81,.T.);
#360=CARTESIAN_POINT('',(0.0,1.26770506578444E-014,5.99999999999997));
#361=DIRECTION('',(0.0,-0.0,1.0));
#362=DIRECTION('',(-1.0,-1.64412888401961E-016,0.0));
#363=DIRECTION('',(0.0,0.0,-1.0));
#364=CARTESIAN_POINT('',(0.0,1.26770506578444E-014,-2.8421709430404E-014));
#365=DIRECTION('',(-0.0,0.0,-1.0));
#366=DIRECTION('',(-1.0,-1.64412888401961E-016,0.0));
#367=CARTESIAN_POINT('',(0.0,1.26770506578444E-014,12.0));
#368=DIRECTION('',(-0.0,0.0,-1.0));
#369=DIRECTION('',(-1.0,-1.64412888401961E-016,0.0));
#370=CARTESIAN_POINT('',(0.0,1.26770506578444E-014,-2.8421709430404E-014));
#371=DIRECTION('',(-0.0,0.0,-1.0));
#372=DIRECTION('',(-1.0,-1.64412888401961E-016,0.0));
#373=CARTESIAN_POINT('',(0.0,1.26770506578444E-014,12.0));
#374=DIRECTION('',(-0.0,0.0,-1.0));
#375=DIRECTION('',(-1.0,-1.64412888401961E-016,0.0));
#376=SURFACE_STYLE_FILL_AREA(#437);
#377=ORIENTED_EDGE('',*,*,#109,.T.);
#378=ORIENTED_EDGE('',*,*,#67,.T.);
#379=ORIENTED_EDGE('',*,*,#97,.T.);
#380=ORIENTED_EDGE('',*,*,#103,.F.);
#381=CARTESIAN_POINT('',(0.0,1.26770506578444E-014,3.97927405783629));
#382=DIRECTION('',(0.0,-0.0,1.0));
#383=DIRECTION('',(-1.0,-1.64412888401961E-016,0.0));
#384=SURFACE_STYLE_FILL_AREA(#438);
#385=ORIENTED_EDGE('',*,*,#109,.F.);
#386=ORIENTED_EDGE('',*,*,#113,.F.);
#387=ORIENTED_EDGE('',*,*,#97,.F.);
#388=ORIENTED_EDGE('',*,*,#111,.T.);
#389=CARTESIAN_POINT('',(0.0,1.26770506578444E-014,3.97927405783629));
#390=DIRECTION('',(0.0,-0.0,1.0));
#391=DIRECTION('',(-1.0,-1.64412888401961E-016,0.0));
#392=DIRECTION('',(0.0,0.0,1.0));
#393=SURFACE_STYLE_FILL_AREA(#439);
#394=ORIENTED_EDGE('',*,*,#125,.F.);
#395=ORIENTED_EDGE('',*,*,#115,.F.);
#396=ORIENTED_EDGE('',*,*,#107,.F.);
#397=ORIENTED_EDGE('',*,*,#113,.T.);
#398=CARTESIAN_POINT('',(0.0,1.26770506578444E-014,9.97927405783629));
#399=DIRECTION('',(0.0,-0.0,1.0));
#400=DIRECTION('',(-1.0,-1.64412888401961E-016,0.0));
#401=SURFACE_STYLE_FILL_AREA(#440);
#402=ORIENTED_EDGE('',*,*,#125,.T.);
#403=ORIENTED_EDGE('',*,*,#103,.T.);
#404=ORIENTED_EDGE('',*,*,#107,.T.);
#405=ORIENTED_EDGE('',*,*,#87,.F.);
#406=CARTESIAN_POINT('',(0.0,1.26770506578444E-014,9.97927405783629));
#407=DIRECTION('',(0.0,-0.0,1.0));
#408=DIRECTION('',(-1.0,-1.64412888401961E-016,0.0));
#409=CARTESIAN_POINT('',(0.0,1.26770506578444E-014,7.95854811567261));
#410=DIRECTION('',(-0.0,0.0,-1.0));
#411=DIRECTION('',(-1.0,-1.64412888401961E-016,0.0));
#412=DIRECTION('',(0.866025403784442,2.48439759270277E-016,0.499999999999995));
#413=DIRECTION('',(0.0,0.0,-1.0));
#414=CARTESIAN_POINT('',(0.0,1.26770506578444E-014,-2.8421709430404E-014));
#415=DIRECTION('',(-0.0,0.0,-1.0));
#416=DIRECTION('',(-1.0,-1.64412888401961E-016,0.0));
#417=CARTESIAN_POINT('',(0.0,1.26770506578444E-014,7.95854811567261));
#418=DIRECTION('',(-0.0,0.0,-1.0));
#419=DIRECTION('',(-1.0,-1.64412888401961E-016,0.0));
#420=CARTESIAN_POINT('',(0.0,1.26770506578444E-014,12.0));
#421=DIRECTION('',(-0.0,0.0,-1.0));
#422=DIRECTION('',(-1.0,-1.64412888401961E-016,0.0));
#423=SURFACE_STYLE_FILL_AREA(#441);
#424=ORIENTED_EDGE('',*,*,#71,.F.);
#425=ORIENTED_EDGE('',*,*,#81,.F.);
#426=ORIENTED_EDGE('',*,*,#87,.T.);
#427=ORIENTED_EDGE('',*,*,#115,.T.);
#428=CARTESIAN_POINT('',(-29.2500000000001,9.09507707291392E-015,12.0));
#429=DIRECTION('',(0.0,0.0,1.0));
#430=DIRECTION('',(-1.0,-1.22460635382238E-016,0.0));
#431=DIRECTION('',(-0.0,-0.0,1.0));
#432=DIRECTION('',(0.866025403784442,2.48439759270277E-016,-0.499999999999995));
#433=FILL_AREA_STYLE('',(#442));
#434=FILL_AREA_STYLE('',(#443));
#435=FILL_AREA_STYLE('',(#444));
#436=FILL_AREA_STYLE('',(#445));
#437=FILL_AREA_STYLE('',(#446));
#438=FILL_AREA_STYLE('',(#447));
#439=FILL_AREA_STYLE('',(#448));
#440=FILL_AREA_STYLE('',(#449));
#441=FILL_AREA_STYLE('',(#450));
#442=FILL_AREA_STYLE_COLOUR('',#451);
#443=FILL_AREA_STYLE_COLOUR('',#452);
#444=FILL_AREA_STYLE_COLOUR('',#453);
#445=FILL_AREA_STYLE_COLOUR('',#454);
#446=FILL_AREA_STYLE_COLOUR('',#455);
#447=FILL_AREA_STYLE_COLOUR('',#456);
#448=FILL_AREA_STYLE_COLOUR('',#457);
#449=FILL_AREA_STYLE_COLOUR('',#458);
#450=FILL_AREA_STYLE_COLOUR('',#459);
#451=COLOUR_RGB('',0.509803950786591,0.509803950786591,0.588235318660736);
#452=COLOUR_RGB('',0.509803950786591,0.509803950786591,0.588235318660736);
#453=COLOUR_RGB('',0.509803950786591,0.509803950786591,0.588235318660736);
#454=COLOUR_RGB('',0.509803950786591,0.509803950786591,0.588235318660736);
#455=COLOUR_RGB('',0.509803950786591,0.509803950786591,0.588235318660736);
#456=COLOUR_RGB('',0.509803950786591,0.509803950786591,0.588235318660736);
#457=COLOUR_RGB('',0.509803950786591,0.509803950786591,0.588235318660736);
#458=COLOUR_RGB('',0.509803950786591,0.509803950786591,0.588235318660736);
#459=COLOUR_RGB('',0.509803950786591,0.509803950786591,0.588235318660736);
ENDSEC;
END-ISO-10303-21;
