ISO-10303-21;
HEADER;
FILE_DESCRIPTION(('STEP AP214'),'1');
FILE_NAME(' ','  ',('TraceParts'),('TraceParts S.A.'),'XStep 1.0',' ',' ');
FILE_SCHEMA(('automotive_design'));
ENDSEC;
DATA;
#1=MECHANICAL_DESIGN_GEOMETRIC_PRESENTATION_REPRESENTATION(' ',(#10,#11,#12,#13,#14,#15,#16,#17,#18,#19,#20,#21,#22,#23,#24,#25,#26,#27,#28,#29,#30,#31,#32,#33,#34,#35,#36,#37,#38,#39,#40,#41,#42,#43,#44),#6);
#2=PRODUCT_DEFINITION_CONTEXT('',#45,'design');
#3=APPLICATION_PROTOCOL_DEFINITION('INTERNATIONAL STANDARD','automotive_design',1994,#45);
#4=PRODUCT_CATEGORY_RELATIONSHIP('NONE','NONE',#46,#47);
#5=SHAPE_DEFINITION_REPRESENTATION(#48,#49);
#6= (GEOMETRIC_REPRESENTATION_CONTEXT(3)GLOBAL_UNCERTAINTY_ASSIGNED_CONTEXT((#52))GLOBAL_UNIT_ASSIGNED_CONTEXT((#54,#55,#56))REPRESENTATION_CONTEXT('NONE','WORKSPACE'));
#10=STYLED_ITEM('',(#58),#59);
#11=STYLED_ITEM('',(#60),#61);
#12=STYLED_ITEM('',(#62),#63);
#13=STYLED_ITEM('',(#64),#65);
#14=STYLED_ITEM('',(#66),#67);
#15=STYLED_ITEM('',(#68),#69);
#16=STYLED_ITEM('',(#70),#71);
#17=STYLED_ITEM('',(#72),#73);
#18=STYLED_ITEM('',(#74),#75);
#19=STYLED_ITEM('',(#76),#77);
#20=STYLED_ITEM('',(#78),#79);
#21=STYLED_ITEM('',(#80),#81);
#22=STYLED_ITEM('',(#82),#83);
#23=STYLED_ITEM('',(#84),#85);
#24=STYLED_ITEM('',(#86),#87);
#25=STYLED_ITEM('',(#88),#89);
#26=STYLED_ITEM('',(#90),#91);
#27=STYLED_ITEM('',(#92),#93);
#28=STYLED_ITEM('',(#94),#95);
#29=STYLED_ITEM('',(#96),#97);
#30=STYLED_ITEM('',(#98),#99);
#31=STYLED_ITEM('',(#100),#101);
#32=STYLED_ITEM('',(#102),#103);
#33=STYLED_ITEM('',(#104),#105);
#34=STYLED_ITEM('',(#106),#107);
#35=STYLED_ITEM('',(#108),#109);
#36=STYLED_ITEM('',(#110),#111);
#37=STYLED_ITEM('',(#112),#113);
#38=STYLED_ITEM('',(#114),#115);
#39=STYLED_ITEM('',(#116),#117);
#40=STYLED_ITEM('',(#118),#119);
#41=STYLED_ITEM('',(#120),#121);
#42=STYLED_ITEM('',(#122),#123);
#43=STYLED_ITEM('',(#124),#125);
#44=STYLED_ITEM('',(#126),#127);
#45=APPLICATION_CONTEXT(' ');
#46=PRODUCT_CATEGORY('part','NONE');
#47=PRODUCT_RELATED_PRODUCT_CATEGORY('detail',' ',(#128));
#48=PRODUCT_DEFINITION_SHAPE('NONE','NONE',#129);
#49=ADVANCED_BREP_SHAPE_REPRESENTATION('1',(#99,#130),#6);
#52=UNCERTAINTY_MEASURE_WITH_UNIT(LENGTH_MEASURE(1.0E-006),#54,'','');
#54= (CONVERSION_BASED_UNIT('MILLIMETRE',#133)LENGTH_UNIT()NAMED_UNIT(#136));
#55= (NAMED_UNIT(#138)PLANE_ANGLE_UNIT()SI_UNIT($,.RADIAN.));
#56= (NAMED_UNIT(#138)SOLID_ANGLE_UNIT()SI_UNIT($,.STERADIAN.));
#58=PRESENTATION_STYLE_ASSIGNMENT((#144));
#59=EDGE_CURVE('',#87,#85,#145,.T.);
#60=PRESENTATION_STYLE_ASSIGNMENT((#146));
#61=ADVANCED_FACE('',(#147),#148,.F.);
#62=PRESENTATION_STYLE_ASSIGNMENT((#149));
#63=EDGE_CURVE('',#115,#95,#150,.T.);
#64=PRESENTATION_STYLE_ASSIGNMENT((#151));
#65=EDGE_CURVE('',#115,#67,#152,.T.);
#66=PRESENTATION_STYLE_ASSIGNMENT((#153));
#67=VERTEX_POINT('',#154);
#68=PRESENTATION_STYLE_ASSIGNMENT((#155));
#69=ADVANCED_FACE('',(#156),#157,.F.);
#70=PRESENTATION_STYLE_ASSIGNMENT((#158));
#71=ADVANCED_FACE('',(#159),#160,.T.);
#72=PRESENTATION_STYLE_ASSIGNMENT((#161));
#73=ADVANCED_FACE('',(#162,#163),#164,.T.);
#74=PRESENTATION_STYLE_ASSIGNMENT((#165));
#75=EDGE_CURVE('',#95,#93,#166,.T.);
#76=PRESENTATION_STYLE_ASSIGNMENT((#167));
#77=ADVANCED_FACE('',(#168),#169,.F.);
#78=PRESENTATION_STYLE_ASSIGNMENT((#170));
#79=EDGE_CURVE('',#67,#115,#171,.T.);
#80=PRESENTATION_STYLE_ASSIGNMENT((#172));
#81=VERTEX_POINT('',#173);
#82=PRESENTATION_STYLE_ASSIGNMENT((#174));
#83=EDGE_CURVE('',#127,#109,#175,.T.);
#84=PRESENTATION_STYLE_ASSIGNMENT((#176));
#85=VERTEX_POINT('',#177);
#86=PRESENTATION_STYLE_ASSIGNMENT((#178));
#87=VERTEX_POINT('',#179);
#88=PRESENTATION_STYLE_ASSIGNMENT((#180));
#89=EDGE_CURVE('',#107,#81,#181,.T.);
#90=PRESENTATION_STYLE_ASSIGNMENT((#182));
#91=EDGE_CURVE('',#81,#109,#183,.T.);
#92=PRESENTATION_STYLE_ASSIGNMENT((#184));
#93=VERTEX_POINT('',#185);
#94=PRESENTATION_STYLE_ASSIGNMENT((#186));
#95=VERTEX_POINT('',#187);
#96=PRESENTATION_STYLE_ASSIGNMENT((#188));
#97=EDGE_CURVE('',#93,#95,#189,.T.);
#98=PRESENTATION_STYLE_ASSIGNMENT((#190));
#99=MANIFOLD_SOLID_BREP('1',#191);
#100=PRESENTATION_STYLE_ASSIGNMENT((#192));
#101=EDGE_CURVE('',#85,#87,#193,.T.);
#102=PRESENTATION_STYLE_ASSIGNMENT((#194));
#103=EDGE_CURVE('',#109,#127,#195,.T.);
#104=PRESENTATION_STYLE_ASSIGNMENT((#196));
#105=ADVANCED_FACE('',(#197,#198),#199,.T.);
#106=PRESENTATION_STYLE_ASSIGNMENT((#200));
#107=VERTEX_POINT('',#201);
#108=PRESENTATION_STYLE_ASSIGNMENT((#202));
#109=VERTEX_POINT('',#203);
#110=PRESENTATION_STYLE_ASSIGNMENT((#204));
#111=ADVANCED_FACE('',(#205),#206,.F.);
#112=PRESENTATION_STYLE_ASSIGNMENT((#207));
#113=EDGE_CURVE('',#107,#87,#208,.T.);
#114=PRESENTATION_STYLE_ASSIGNMENT((#209));
#115=VERTEX_POINT('',#210);
#116=PRESENTATION_STYLE_ASSIGNMENT((#211));
#117=EDGE_CURVE('',#93,#67,#212,.T.);
#118=PRESENTATION_STYLE_ASSIGNMENT((#213));
#119=ADVANCED_FACE('',(#214),#215,.T.);
#120=PRESENTATION_STYLE_ASSIGNMENT((#216));
#121=EDGE_CURVE('',#85,#81,#217,.T.);
#122=PRESENTATION_STYLE_ASSIGNMENT((#218));
#123=EDGE_CURVE('',#81,#107,#219,.T.);
#124=PRESENTATION_STYLE_ASSIGNMENT((#220));
#125=EDGE_CURVE('',#127,#107,#221,.T.);
#126=PRESENTATION_STYLE_ASSIGNMENT((#222));
#127=VERTEX_POINT('',#223);
#128=PRODUCT('1','1','PART-1-DESC',(#224));
#129=PRODUCT_DEFINITION('NONE','NONE',#225,#2);
#130=AXIS2_PLACEMENT_3D('',#226,#227,#228);
#133=LENGTH_MEASURE_WITH_UNIT(LENGTH_MEASURE(1.0),#229);
#136=DIMENSIONAL_EXPONENTS(1.0,0.0,0.0,0.0,0.0,0.0,0.0);
#138=DIMENSIONAL_EXPONENTS(0.0,0.0,0.0,0.0,0.0,0.0,0.0);
#144=CURVE_STYLE('',#230,POSITIVE_LENGTH_MEASURE(1.0E-006),#231);
#145=CIRCLE('',#232,9.5);
#146=SURFACE_STYLE_USAGE(.BOTH.,#233);
#147=FACE_OUTER_BOUND('',#234,.T.);
#148=CONICAL_SURFACE('',#235,11.25,1.04719755119659);
#149=CURVE_STYLE('',#236,POSITIVE_LENGTH_MEASURE(1.0E-006),#237);
#150=LINE('',#238,#239);
#151=CURVE_STYLE('',#240,POSITIVE_LENGTH_MEASURE(1.0E-006),#241);
#152=CIRCLE('',#242,15.0);
#153=POINT_STYLE(' ',#243,POSITIVE_LENGTH_MEASURE(1.0E-006),#244);
#154=CARTESIAN_POINT('',(-15.0,9.36631194260708E-015,-2.8421709430404E-014));
#155=SURFACE_STYLE_USAGE(.BOTH.,#245);
#156=FACE_OUTER_BOUND('',#246,.T.);
#157=CYLINDRICAL_SURFACE('',#247,9.5);
#158=SURFACE_STYLE_USAGE(.BOTH.,#248);
#159=FACE_OUTER_BOUND('',#249,.T.);
#160=CYLINDRICAL_SURFACE('',#250,15.0);
#161=SURFACE_STYLE_USAGE(.BOTH.,#251);
#162=FACE_OUTER_BOUND('',#252,.T.);
#163=FACE_BOUND('',#253,.T.);
#164=PLANE('',#254);
#165=CURVE_STYLE('',#255,POSITIVE_LENGTH_MEASURE(1.0E-006),#256);
#166=CIRCLE('',#257,15.0);
#167=SURFACE_STYLE_USAGE(.BOTH.,#258);
#168=FACE_OUTER_BOUND('',#259,.T.);
#169=CYLINDRICAL_SURFACE('',#260,9.5);
#170=CURVE_STYLE('',#261,POSITIVE_LENGTH_MEASURE(1.0E-006),#262);
#171=CIRCLE('',#263,15.0);
#172=POINT_STYLE(' ',#264,POSITIVE_LENGTH_MEASURE(1.0E-006),#265);
#173=CARTESIAN_POINT('',(9.5,1.42889147300908E-014,4.17927405783621));
#174=CURVE_STYLE('',#266,POSITIVE_LENGTH_MEASURE(1.0E-006),#267);
#175=CIRCLE('',#268,13.0);
#176=POINT_STYLE(' ',#269,POSITIVE_LENGTH_MEASURE(1.0E-006),#270);
#177=CARTESIAN_POINT('',(9.5,1.42889147300908E-014,-2.8421709430404E-014));
#178=POINT_STYLE(' ',#271,POSITIVE_LENGTH_MEASURE(1.0E-006),#272);
#179=CARTESIAN_POINT('',(-9.5,1.00398454372094E-014,-2.8421709430404E-014));
#180=CURVE_STYLE('',#273,POSITIVE_LENGTH_MEASURE(1.0E-006),#274);
#181=CIRCLE('',#275,9.5);
#182=CURVE_STYLE('',#276,POSITIVE_LENGTH_MEASURE(1.0E-006),#277);
#183=LINE('',#278,#279);
#184=POINT_STYLE(' ',#280,POSITIVE_LENGTH_MEASURE(1.0E-006),#281);
#185=CARTESIAN_POINT('',(-15.0,9.74593991229201E-015,6.19999999999996));
#186=POINT_STYLE(' ',#282,POSITIVE_LENGTH_MEASURE(1.0E-006),#283);
#187=CARTESIAN_POINT('',(15.0,1.58555841068127E-014,6.19999999999996));
#188=CURVE_STYLE('',#284,POSITIVE_LENGTH_MEASURE(1.0E-006),#285);
#189=CIRCLE('',#286,15.0);
#190=SURFACE_STYLE_USAGE(.BOTH.,#287);
#191=CLOSED_SHELL('',(#77,#119,#111,#61,#73,#71,#105,#69));
#192=CURVE_STYLE('',#288,POSITIVE_LENGTH_MEASURE(1.0E-006),#289);
#193=CIRCLE('',#290,9.5);
#194=CURVE_STYLE('',#291,POSITIVE_LENGTH_MEASURE(1.0E-006),#292);
#195=CIRCLE('',#293,13.0);
#196=SURFACE_STYLE_USAGE(.BOTH.,#294);
#197=FACE_BOUND('',#295,.T.);
#198=FACE_OUTER_BOUND('',#296,.T.);
#199=PLANE('',#297);
#200=POINT_STYLE(' ',#298,POSITIVE_LENGTH_MEASURE(1.0E-006),#299);
#201=CARTESIAN_POINT('',(-9.5,1.0295743715489E-014,4.17927405783621));
#202=POINT_STYLE(' ',#300,POSITIVE_LENGTH_MEASURE(1.0E-006),#301);
#203=CARTESIAN_POINT('',(13.0,1.52858861516411E-014,6.19999999999996));
#204=SURFACE_STYLE_USAGE(.BOTH.,#302);
#205=FACE_OUTER_BOUND('',#303,.T.);
#206=CONICAL_SURFACE('',#304,11.25,1.04719755119659);
#207=CURVE_STYLE('',#305,POSITIVE_LENGTH_MEASURE(1.0E-006),#306);
#208=LINE('',#307,#308);
#209=POINT_STYLE(' ',#309,POSITIVE_LENGTH_MEASURE(1.0E-006),#310);
#210=CARTESIAN_POINT('',(15.0,1.58555841068127E-014,-2.8421709430404E-014));
#211=CURVE_STYLE('',#311,POSITIVE_LENGTH_MEASURE(1.0E-006),#312);
#212=LINE('',#313,#314);
#213=SURFACE_STYLE_USAGE(.BOTH.,#315);
#214=FACE_OUTER_BOUND('',#316,.T.);
#215=CYLINDRICAL_SURFACE('',#317,15.0);
#216=CURVE_STYLE('',#318,POSITIVE_LENGTH_MEASURE(1.0E-006),#319);
#217=LINE('',#320,#321);
#218=CURVE_STYLE('',#322,POSITIVE_LENGTH_MEASURE(1.0E-006),#323);
#219=CIRCLE('',#324,9.5);
#220=CURVE_STYLE('',#325,POSITIVE_LENGTH_MEASURE(1.0E-006),#326);
#221=LINE('',#327,#328);
#222=POINT_STYLE(' ',#329,POSITIVE_LENGTH_MEASURE(1.0E-006),#330);
#223=CARTESIAN_POINT('',(-13.0,9.99086118305649E-015,6.19999999999996));
#224=PRODUCT_CONTEXT('',#45,'mechanical');
#225=PRODUCT_DEFINITION_FORMATION_WITH_SPECIFIED_SOURCE(' ','NONE',#128,.NOT_KNOWN.);
#226=CARTESIAN_POINT('',(0.0,0.0,0.0));
#227=DIRECTION('',(0.0,0.0,1.0));
#228=DIRECTION('',(1.0,0.0,0.0));
#229= (NAMED_UNIT(#136)LENGTH_UNIT()SI_UNIT(.MILLI.,.METRE.));
#230=DRAUGHTING_PRE_DEFINED_CURVE_FONT('continuous');
#231=COLOUR_RGB('',0.509803950786591,0.509803950786591,0.588235318660736);
#232=AXIS2_PLACEMENT_3D('',#332,#333,#334);
#233=SURFACE_SIDE_STYLE('',(#335));
#234=EDGE_LOOP('',(#336,#337,#338,#339));
#235=AXIS2_PLACEMENT_3D('',#340,#341,#342);
#236=DRAUGHTING_PRE_DEFINED_CURVE_FONT('continuous');
#237=COLOUR_RGB('',0.509803950786591,0.509803950786591,0.588235318660736);
#238=CARTESIAN_POINT('',(15.0,1.58555841068127E-014,3.09999999999997));
#239=VECTOR('',#343,1.0);
#240=DRAUGHTING_PRE_DEFINED_CURVE_FONT('continuous');
#241=COLOUR_RGB('',0.509803950786591,0.509803950786591,0.588235318660736);
#242=AXIS2_PLACEMENT_3D('',#344,#345,#346);
#243=PRE_DEFINED_MARKER('');
#244=COLOUR_RGB('',0.509803950786591,0.509803950786591,0.588235318660736);
#245=SURFACE_SIDE_STYLE('',(#347));
#246=EDGE_LOOP('',(#348,#349,#350,#351));
#247=AXIS2_PLACEMENT_3D('',#352,#353,#354);
#248=SURFACE_SIDE_STYLE('',(#355));
#249=EDGE_LOOP('',(#356,#357,#358,#359));
#250=AXIS2_PLACEMENT_3D('',#360,#361,#362);
#251=SURFACE_SIDE_STYLE('',(#363));
#252=EDGE_LOOP('',(#364,#365));
#253=EDGE_LOOP('',(#366,#367));
#254=AXIS2_PLACEMENT_3D('',#368,#369,#370);
#255=DRAUGHTING_PRE_DEFINED_CURVE_FONT('continuous');
#256=COLOUR_RGB('',0.509803950786591,0.509803950786591,0.588235318660736);
#257=AXIS2_PLACEMENT_3D('',#371,#372,#373);
#258=SURFACE_SIDE_STYLE('',(#374));
#259=EDGE_LOOP('',(#375,#376,#377,#378));
#260=AXIS2_PLACEMENT_3D('',#379,#380,#381);
#261=DRAUGHTING_PRE_DEFINED_CURVE_FONT('continuous');
#262=COLOUR_RGB('',0.509803950786591,0.509803950786591,0.588235318660736);
#263=AXIS2_PLACEMENT_3D('',#382,#383,#384);
#264=PRE_DEFINED_MARKER('');
#265=COLOUR_RGB('',0.509803950786591,0.509803950786591,0.588235318660736);
#266=DRAUGHTING_PRE_DEFINED_CURVE_FONT('continuous');
#267=COLOUR_RGB('',0.509803950786591,0.509803950786591,0.588235318660736);
#268=AXIS2_PLACEMENT_3D('',#385,#386,#387);
#269=PRE_DEFINED_MARKER('');
#270=COLOUR_RGB('',0.509803950786591,0.509803950786591,0.588235318660736);
#271=PRE_DEFINED_MARKER('');
#272=COLOUR_RGB('',0.509803950786591,0.509803950786591,0.588235318660736);
#273=DRAUGHTING_PRE_DEFINED_CURVE_FONT('continuous');
#274=COLOUR_RGB('',0.509803950786591,0.509803950786591,0.588235318660736);
#275=AXIS2_PLACEMENT_3D('',#388,#389,#390);
#276=DRAUGHTING_PRE_DEFINED_CURVE_FONT('continuous');
#277=COLOUR_RGB('',0.509803950786591,0.509803950786591,0.588235318660736);
#278=CARTESIAN_POINT('',(11.25,1.47874004408659E-014,5.18963702891809));
#279=VECTOR('',#391,1.0);
#280=PRE_DEFINED_MARKER('');
#281=COLOUR_RGB('',0.509803950786591,0.509803950786591,0.588235318660736);
#282=PRE_DEFINED_MARKER('');
#283=COLOUR_RGB('',0.509803950786591,0.509803950786591,0.588235318660736);
#284=DRAUGHTING_PRE_DEFINED_CURVE_FONT('continuous');
#285=COLOUR_RGB('',0.509803950786591,0.509803950786591,0.588235318660736);
#286=AXIS2_PLACEMENT_3D('',#392,#393,#394);
#287=SURFACE_SIDE_STYLE('',(#395));
#288=DRAUGHTING_PRE_DEFINED_CURVE_FONT('continuous');
#289=COLOUR_RGB('',0.509803950786591,0.509803950786591,0.588235318660736);
#290=AXIS2_PLACEMENT_3D('',#396,#397,#398);
#291=DRAUGHTING_PRE_DEFINED_CURVE_FONT('continuous');
#292=COLOUR_RGB('',0.509803950786591,0.509803950786591,0.588235318660736);
#293=AXIS2_PLACEMENT_3D('',#399,#400,#401);
#294=SURFACE_SIDE_STYLE('',(#402));
#295=EDGE_LOOP('',(#403,#404));
#296=EDGE_LOOP('',(#405,#406));
#297=AXIS2_PLACEMENT_3D('',#407,#408,#409);
#298=PRE_DEFINED_MARKER('');
#299=COLOUR_RGB('',0.509803950786591,0.509803950786591,0.588235318660736);
#300=PRE_DEFINED_MARKER('');
#301=COLOUR_RGB('',0.509803950786591,0.509803950786591,0.588235318660736);
#302=SURFACE_SIDE_STYLE('',(#410));
#303=EDGE_LOOP('',(#411,#412,#413,#414));
#304=AXIS2_PLACEMENT_3D('',#415,#416,#417);
#305=DRAUGHTING_PRE_DEFINED_CURVE_FONT('continuous');
#306=COLOUR_RGB('',0.509803950786591,0.509803950786591,0.588235318660736);
#307=CARTESIAN_POINT('',(-9.5,8.87678415596041E-015,2.08963702891809));
#308=VECTOR('',#418,1.0);
#309=PRE_DEFINED_MARKER('');
#310=COLOUR_RGB('',0.509803950786591,0.509803950786591,0.588235318660736);
#311=DRAUGHTING_PRE_DEFINED_CURVE_FONT('continuous');
#312=COLOUR_RGB('',0.509803950786591,0.509803950786591,0.588235318660736);
#313=CARTESIAN_POINT('',(-15.0,7.31011477923846E-015,3.09999999999997));
#314=VECTOR('',#419,1.0);
#315=SURFACE_SIDE_STYLE('',(#420));
#316=EDGE_LOOP('',(#421,#422,#423,#424));
#317=AXIS2_PLACEMENT_3D('',#425,#426,#427);
#318=DRAUGHTING_PRE_DEFINED_CURVE_FONT('continuous');
#319=COLOUR_RGB('',0.509803950786591,0.509803950786591,0.588235318660736);
#320=CARTESIAN_POINT('',(9.5,1.42889147300908E-014,2.08963702891809));
#321=VECTOR('',#428,1.0);
#322=DRAUGHTING_PRE_DEFINED_CURVE_FONT('continuous');
#323=COLOUR_RGB('',0.509803950786591,0.509803950786591,0.588235318660736);
#324=AXIS2_PLACEMENT_3D('',#429,#430,#431);
#325=DRAUGHTING_PRE_DEFINED_CURVE_FONT('continuous');
#326=COLOUR_RGB('',0.509803950786591,0.509803950786591,0.588235318660736);
#327=CARTESIAN_POINT('',(-11.25,8.37829844518525E-015,5.18963702891809));
#328=VECTOR('',#432,1.0);
#329=PRE_DEFINED_MARKER('');
#330=COLOUR_RGB('',0.509803950786591,0.509803950786591,0.588235318660736);
#332=CARTESIAN_POINT('',(0.0,1.15828494430256E-014,-2.8421709430404E-014));
#333=DIRECTION('',(-0.0,0.0,-1.0));
#334=DIRECTION('',(-1.0,-1.6238834220357E-016,0.0));
#335=SURFACE_STYLE_FILL_AREA(#433);
#336=ORIENTED_EDGE('',*,*,#125,.T.);
#337=ORIENTED_EDGE('',*,*,#89,.T.);
#338=ORIENTED_EDGE('',*,*,#91,.T.);
#339=ORIENTED_EDGE('',*,*,#83,.F.);
#340=CARTESIAN_POINT('',(0.0,1.15828494430256E-014,5.18963702891809));
#341=DIRECTION('',(0.0,-0.0,1.0));
#342=DIRECTION('',(-1.0,-1.6238834220357E-016,0.0));
#343=DIRECTION('',(-0.0,-0.0,1.0));
#344=CARTESIAN_POINT('',(0.0,1.15828494430256E-014,-2.8421709430404E-014));
#345=DIRECTION('',(-0.0,0.0,-1.0));
#346=DIRECTION('',(-1.0,-1.6238834220357E-016,0.0));
#347=SURFACE_STYLE_FILL_AREA(#434);
#348=ORIENTED_EDGE('',*,*,#113,.T.);
#349=ORIENTED_EDGE('',*,*,#59,.T.);
#350=ORIENTED_EDGE('',*,*,#121,.T.);
#351=ORIENTED_EDGE('',*,*,#89,.F.);
#352=CARTESIAN_POINT('',(0.0,1.15828494430256E-014,2.08963702891809));
#353=DIRECTION('',(0.0,-0.0,1.0));
#354=DIRECTION('',(-1.0,-1.6238834220357E-016,0.0));
#355=SURFACE_STYLE_FILL_AREA(#435);
#356=ORIENTED_EDGE('',*,*,#117,.T.);
#357=ORIENTED_EDGE('',*,*,#65,.F.);
#358=ORIENTED_EDGE('',*,*,#63,.T.);
#359=ORIENTED_EDGE('',*,*,#75,.T.);
#360=CARTESIAN_POINT('',(0.0,1.15828494430256E-014,3.09999999999997));
#361=DIRECTION('',(0.0,-0.0,1.0));
#362=DIRECTION('',(-1.0,-1.6238834220357E-016,0.0));
#363=SURFACE_STYLE_FILL_AREA(#436);
#364=ORIENTED_EDGE('',*,*,#97,.F.);
#365=ORIENTED_EDGE('',*,*,#75,.F.);
#366=ORIENTED_EDGE('',*,*,#83,.T.);
#367=ORIENTED_EDGE('',*,*,#103,.T.);
#368=CARTESIAN_POINT('',(-14.0,9.86840054767425E-015,6.19999999999996));
#369=DIRECTION('',(0.0,0.0,1.0));
#370=DIRECTION('',(-1.0,-1.22460635382238E-016,0.0));
#371=CARTESIAN_POINT('',(0.0,1.15828494430256E-014,6.19999999999996));
#372=DIRECTION('',(-0.0,0.0,-1.0));
#373=DIRECTION('',(-1.0,-1.6238834220357E-016,0.0));
#374=SURFACE_STYLE_FILL_AREA(#437);
#375=ORIENTED_EDGE('',*,*,#113,.F.);
#376=ORIENTED_EDGE('',*,*,#123,.F.);
#377=ORIENTED_EDGE('',*,*,#121,.F.);
#378=ORIENTED_EDGE('',*,*,#101,.T.);
#379=CARTESIAN_POINT('',(0.0,1.15828494430256E-014,2.08963702891809));
#380=DIRECTION('',(0.0,-0.0,1.0));
#381=DIRECTION('',(-1.0,-1.6238834220357E-016,0.0));
#382=CARTESIAN_POINT('',(0.0,1.15828494430256E-014,-2.8421709430404E-014));
#383=DIRECTION('',(-0.0,0.0,-1.0));
#384=DIRECTION('',(-1.0,-1.6238834220357E-016,0.0));
#385=CARTESIAN_POINT('',(0.0,1.15828494430256E-014,6.19999999999996));
#386=DIRECTION('',(-0.0,0.0,-1.0));
#387=DIRECTION('',(-1.0,-1.6238834220357E-016,0.0));
#388=CARTESIAN_POINT('',(0.0,1.15828494430256E-014,4.17927405783621));
#389=DIRECTION('',(-0.0,0.0,-1.0));
#390=DIRECTION('',(-1.0,-1.6238834220357E-016,0.0));
#391=DIRECTION('',(0.866025403784434,2.46686450831332E-016,0.500000000000008));
#392=CARTESIAN_POINT('',(0.0,1.15828494430256E-014,6.19999999999996));
#393=DIRECTION('',(-0.0,0.0,-1.0));
#394=DIRECTION('',(-1.0,-1.6238834220357E-016,0.0));
#395=SURFACE_STYLE_FILL_AREA(#438);
#396=CARTESIAN_POINT('',(0.0,1.15828494430256E-014,-2.8421709430404E-014));
#397=DIRECTION('',(-0.0,0.0,-1.0));
#398=DIRECTION('',(-1.0,-1.6238834220357E-016,0.0));
#399=CARTESIAN_POINT('',(0.0,1.15828494430256E-014,6.19999999999996));
#400=DIRECTION('',(-0.0,0.0,-1.0));
#401=DIRECTION('',(-1.0,-1.6238834220357E-016,0.0));
#402=SURFACE_STYLE_FILL_AREA(#439);
#403=ORIENTED_EDGE('',*,*,#59,.F.);
#404=ORIENTED_EDGE('',*,*,#101,.F.);
#405=ORIENTED_EDGE('',*,*,#79,.T.);
#406=ORIENTED_EDGE('',*,*,#65,.T.);
#407=CARTESIAN_POINT('',(-12.25,9.70307868990823E-015,-2.8421709430404E-014));
#408=DIRECTION('',(0.0,0.0,-1.0));
#409=DIRECTION('',(1.0,1.22460635382238E-016,0.0));
#410=SURFACE_STYLE_FILL_AREA(#440);
#411=ORIENTED_EDGE('',*,*,#125,.F.);
#412=ORIENTED_EDGE('',*,*,#103,.F.);
#413=ORIENTED_EDGE('',*,*,#91,.F.);
#414=ORIENTED_EDGE('',*,*,#123,.T.);
#415=CARTESIAN_POINT('',(0.0,1.15828494430256E-014,5.18963702891809));
#416=DIRECTION('',(0.0,-0.0,1.0));
#417=DIRECTION('',(-1.0,-1.6238834220357E-016,0.0));
#418=DIRECTION('',(0.0,0.0,-1.0));
#419=DIRECTION('',(0.0,0.0,-1.0));
#420=SURFACE_STYLE_FILL_AREA(#441);
#421=ORIENTED_EDGE('',*,*,#117,.F.);
#422=ORIENTED_EDGE('',*,*,#97,.T.);
#423=ORIENTED_EDGE('',*,*,#63,.F.);
#424=ORIENTED_EDGE('',*,*,#79,.F.);
#425=CARTESIAN_POINT('',(0.0,1.15828494430256E-014,3.09999999999997));
#426=DIRECTION('',(0.0,-0.0,1.0));
#427=DIRECTION('',(-1.0,-1.6238834220357E-016,0.0));
#428=DIRECTION('',(0.0,0.0,1.0));
#429=CARTESIAN_POINT('',(0.0,1.15828494430256E-014,4.17927405783621));
#430=DIRECTION('',(-0.0,0.0,-1.0));
#431=DIRECTION('',(-1.0,-1.6238834220357E-016,0.0));
#432=DIRECTION('',(0.866025403784434,2.46686450831332E-016,-0.500000000000008));
#433=FILL_AREA_STYLE('',(#442));
#434=FILL_AREA_STYLE('',(#443));
#435=FILL_AREA_STYLE('',(#444));
#436=FILL_AREA_STYLE('',(#445));
#437=FILL_AREA_STYLE('',(#446));
#438=FILL_AREA_STYLE('',(#447));
#439=FILL_AREA_STYLE('',(#448));
#440=FILL_AREA_STYLE('',(#449));
#441=FILL_AREA_STYLE('',(#450));
#442=FILL_AREA_STYLE_COLOUR('',#451);
#443=FILL_AREA_STYLE_COLOUR('',#452);
#444=FILL_AREA_STYLE_COLOUR('',#453);
#445=FILL_AREA_STYLE_COLOUR('',#454);
#446=FILL_AREA_STYLE_COLOUR('',#455);
#447=FILL_AREA_STYLE_COLOUR('',#456);
#448=FILL_AREA_STYLE_COLOUR('',#457);
#449=FILL_AREA_STYLE_COLOUR('',#458);
#450=FILL_AREA_STYLE_COLOUR('',#459);
#451=COLOUR_RGB('',0.509803950786591,0.509803950786591,0.588235318660736);
#452=COLOUR_RGB('',0.509803950786591,0.509803950786591,0.588235318660736);
#453=COLOUR_RGB('',0.509803950786591,0.509803950786591,0.588235318660736);
#454=COLOUR_RGB('',0.509803950786591,0.509803950786591,0.588235318660736);
#455=COLOUR_RGB('',0.509803950786591,0.509803950786591,0.588235318660736);
#456=COLOUR_RGB('',0.509803950786591,0.509803950786591,0.588235318660736);
#457=COLOUR_RGB('',0.509803950786591,0.509803950786591,0.588235318660736);
#458=COLOUR_RGB('',0.509803950786591,0.509803950786591,0.588235318660736);
#459=COLOUR_RGB('',0.509803950786591,0.509803950786591,0.588235318660736);
ENDSEC;
END-ISO-10303-21;
