ISO-10303-21;
HEADER;
FILE_DESCRIPTION(('STEP AP214'),'1');
FILE_NAME(' ','  ',('TraceParts'),('TraceParts S.A.'),'XStep 1.0',' ',' ');
FILE_SCHEMA(('automotive_design'));
ENDSEC;
DATA;
#1=MECHANICAL_DESIGN_GEOMETRIC_PRESENTATION_REPRESENTATION(' ',(#10,#11,#12,#13,#14,#15,#16,#17,#18,#19,#20,#21,#22,#23,#24,#25,#26,#27,#28,#29,#30,#31,#32,#33,#34,#35,#36,#37,#38,#39,#40,#41,#42,#43,#44,#45,#46,#47,#48,#49,#50,#51,#52),#6);
#2=PRODUCT_DEFINITION_CONTEXT('',#53,'design');
#3=APPLICATION_PROTOCOL_DEFINITION('INTERNATIONAL STANDARD','automotive_design',1994,#53);
#4=PRODUCT_CATEGORY_RELATIONSHIP('NONE','NONE',#54,#55);
#5=SHAPE_DEFINITION_REPRESENTATION(#56,#57);
#6= (GEOMETRIC_REPRESENTATION_CONTEXT(3)GLOBAL_UNCERTAINTY_ASSIGNED_CONTEXT((#60))GLOBAL_UNIT_ASSIGNED_CONTEXT((#62,#63,#64))REPRESENTATION_CONTEXT('NONE','WORKSPACE'));
#10=STYLED_ITEM('',(#66),#67);
#11=STYLED_ITEM('',(#68),#69);
#12=STYLED_ITEM('',(#70),#71);
#13=STYLED_ITEM('',(#72),#73);
#14=STYLED_ITEM('',(#74),#75);
#15=STYLED_ITEM('',(#76),#77);
#16=STYLED_ITEM('',(#78),#79);
#17=STYLED_ITEM('',(#80),#81);
#18=STYLED_ITEM('',(#82),#83);
#19=STYLED_ITEM('',(#84),#85);
#20=STYLED_ITEM('',(#86),#87);
#21=STYLED_ITEM('',(#88),#89);
#22=STYLED_ITEM('',(#90),#91);
#23=STYLED_ITEM('',(#92),#93);
#24=STYLED_ITEM('',(#94),#95);
#25=STYLED_ITEM('',(#96),#97);
#26=STYLED_ITEM('',(#98),#99);
#27=STYLED_ITEM('',(#100),#101);
#28=STYLED_ITEM('',(#102),#103);
#29=STYLED_ITEM('',(#104),#105);
#30=STYLED_ITEM('',(#106),#107);
#31=STYLED_ITEM('',(#108),#109);
#32=STYLED_ITEM('',(#110),#111);
#33=STYLED_ITEM('',(#112),#113);
#34=STYLED_ITEM('',(#114),#115);
#35=STYLED_ITEM('',(#116),#117);
#36=STYLED_ITEM('',(#118),#119);
#37=STYLED_ITEM('',(#120),#121);
#38=STYLED_ITEM('',(#122),#123);
#39=STYLED_ITEM('',(#124),#125);
#40=STYLED_ITEM('',(#126),#127);
#41=STYLED_ITEM('',(#128),#129);
#42=STYLED_ITEM('',(#130),#131);
#43=STYLED_ITEM('',(#132),#133);
#44=STYLED_ITEM('',(#134),#135);
#45=STYLED_ITEM('',(#136),#137);
#46=STYLED_ITEM('',(#138),#139);
#47=STYLED_ITEM('',(#140),#141);
#48=STYLED_ITEM('',(#142),#143);
#49=STYLED_ITEM('',(#144),#145);
#50=STYLED_ITEM('',(#146),#147);
#51=STYLED_ITEM('',(#148),#149);
#52=STYLED_ITEM('',(#150),#151);
#53=APPLICATION_CONTEXT(' ');
#54=PRODUCT_CATEGORY('part','NONE');
#55=PRODUCT_RELATED_PRODUCT_CATEGORY('detail',' ',(#152));
#56=PRODUCT_DEFINITION_SHAPE('NONE','NONE',#153);
#57=ADVANCED_BREP_SHAPE_REPRESENTATION('1',(#151,#154),#6);
#60=UNCERTAINTY_MEASURE_WITH_UNIT(LENGTH_MEASURE(1.0E-006),#62,'','');
#62= (CONVERSION_BASED_UNIT('MILLIMETRE',#157)LENGTH_UNIT()NAMED_UNIT(#160));
#63= (NAMED_UNIT(#162)PLANE_ANGLE_UNIT()SI_UNIT($,.RADIAN.));
#64= (NAMED_UNIT(#162)SOLID_ANGLE_UNIT()SI_UNIT($,.STERADIAN.));
#66=PRESENTATION_STYLE_ASSIGNMENT((#168));
#67=VERTEX_POINT('',#169);
#68=PRESENTATION_STYLE_ASSIGNMENT((#170));
#69=EDGE_CURVE('',#67,#95,#171,.T.);
#70=PRESENTATION_STYLE_ASSIGNMENT((#172));
#71=ADVANCED_FACE('',(#173),#174,.F.);
#72=PRESENTATION_STYLE_ASSIGNMENT((#175));
#73=EDGE_CURVE('',#129,#139,#176,.T.);
#74=PRESENTATION_STYLE_ASSIGNMENT((#177));
#75=EDGE_CURVE('',#77,#103,#178,.T.);
#76=PRESENTATION_STYLE_ASSIGNMENT((#179));
#77=VERTEX_POINT('',#180);
#78=PRESENTATION_STYLE_ASSIGNMENT((#181));
#79=ADVANCED_FACE('',(#182),#183,.F.);
#80=PRESENTATION_STYLE_ASSIGNMENT((#184));
#81=ADVANCED_FACE('',(#185,#186),#187,.T.);
#82=PRESENTATION_STYLE_ASSIGNMENT((#188));
#83=EDGE_CURVE('',#95,#129,#189,.T.);
#84=PRESENTATION_STYLE_ASSIGNMENT((#190));
#85=VERTEX_POINT('',#191);
#86=PRESENTATION_STYLE_ASSIGNMENT((#192));
#87=EDGE_CURVE('',#85,#105,#193,.T.);
#88=PRESENTATION_STYLE_ASSIGNMENT((#194));
#89=EDGE_CURVE('',#95,#67,#195,.T.);
#90=PRESENTATION_STYLE_ASSIGNMENT((#196));
#91=EDGE_CURVE('',#139,#129,#197,.T.);
#92=PRESENTATION_STYLE_ASSIGNMENT((#198));
#93=ADVANCED_FACE('',(#199),#200,.T.);
#94=PRESENTATION_STYLE_ASSIGNMENT((#201));
#95=VERTEX_POINT('',#202);
#96=PRESENTATION_STYLE_ASSIGNMENT((#203));
#97=EDGE_CURVE('',#105,#85,#204,.T.);
#98=PRESENTATION_STYLE_ASSIGNMENT((#205));
#99=EDGE_CURVE('',#147,#127,#206,.T.);
#100=PRESENTATION_STYLE_ASSIGNMENT((#207));
#101=EDGE_CURVE('',#129,#105,#208,.T.);
#102=PRESENTATION_STYLE_ASSIGNMENT((#209));
#103=VERTEX_POINT('',#210);
#104=PRESENTATION_STYLE_ASSIGNMENT((#211));
#105=VERTEX_POINT('',#212);
#106=PRESENTATION_STYLE_ASSIGNMENT((#213));
#107=EDGE_CURVE('',#115,#135,#214,.T.);
#108=PRESENTATION_STYLE_ASSIGNMENT((#215));
#109=EDGE_CURVE('',#103,#115,#216,.T.);
#110=PRESENTATION_STYLE_ASSIGNMENT((#217));
#111=ADVANCED_FACE('',(#218),#219,.T.);
#112=PRESENTATION_STYLE_ASSIGNMENT((#220));
#113=ADVANCED_FACE('',(#221),#222,.T.);
#114=PRESENTATION_STYLE_ASSIGNMENT((#223));
#115=VERTEX_POINT('',#224);
#116=PRESENTATION_STYLE_ASSIGNMENT((#225));
#117=ADVANCED_FACE('',(#226),#227,.F.);
#118=PRESENTATION_STYLE_ASSIGNMENT((#228));
#119=EDGE_CURVE('',#103,#77,#229,.T.);
#120=PRESENTATION_STYLE_ASSIGNMENT((#230));
#121=EDGE_CURVE('',#127,#147,#231,.T.);
#122=PRESENTATION_STYLE_ASSIGNMENT((#232));
#123=EDGE_CURVE('',#115,#127,#233,.T.);
#124=PRESENTATION_STYLE_ASSIGNMENT((#234));
#125=ADVANCED_FACE('',(#235),#236,.F.);
#126=PRESENTATION_STYLE_ASSIGNMENT((#237));
#127=VERTEX_POINT('',#238);
#128=PRESENTATION_STYLE_ASSIGNMENT((#239));
#129=VERTEX_POINT('',#240);
#130=PRESENTATION_STYLE_ASSIGNMENT((#241));
#131=EDGE_CURVE('',#85,#139,#242,.T.);
#132=PRESENTATION_STYLE_ASSIGNMENT((#243));
#133=EDGE_CURVE('',#147,#135,#244,.T.);
#134=PRESENTATION_STYLE_ASSIGNMENT((#245));
#135=VERTEX_POINT('',#246);
#136=PRESENTATION_STYLE_ASSIGNMENT((#247));
#137=ADVANCED_FACE('',(#248,#249),#250,.T.);
#138=PRESENTATION_STYLE_ASSIGNMENT((#251));
#139=VERTEX_POINT('',#252);
#140=PRESENTATION_STYLE_ASSIGNMENT((#253));
#141=EDGE_CURVE('',#139,#67,#254,.T.);
#142=PRESENTATION_STYLE_ASSIGNMENT((#255));
#143=ADVANCED_FACE('',(#256),#257,.T.);
#144=PRESENTATION_STYLE_ASSIGNMENT((#258));
#145=EDGE_CURVE('',#135,#77,#259,.T.);
#146=PRESENTATION_STYLE_ASSIGNMENT((#260));
#147=VERTEX_POINT('',#261);
#148=PRESENTATION_STYLE_ASSIGNMENT((#262));
#149=EDGE_CURVE('',#135,#115,#263,.T.);
#150=PRESENTATION_STYLE_ASSIGNMENT((#264));
#151=MANIFOLD_SOLID_BREP('1',#265);
#152=PRODUCT('1','1','PART-1-DESC',(#266));
#153=PRODUCT_DEFINITION('NONE','NONE',#267,#2);
#154=AXIS2_PLACEMENT_3D('',#268,#269,#270);
#157=LENGTH_MEASURE_WITH_UNIT(LENGTH_MEASURE(1.0),#271);
#160=DIMENSIONAL_EXPONENTS(1.0,0.0,0.0,0.0,0.0,0.0,0.0);
#162=DIMENSIONAL_EXPONENTS(0.0,0.0,0.0,0.0,0.0,0.0,0.0);
#168=POINT_STYLE(' ',#272,POSITIVE_LENGTH_MEASURE(1.0E-006),#273);
#169=CARTESIAN_POINT('',(-25.0,5.93168696360718E-015,-2.8421709430404E-014));
#170=CURVE_STYLE('',#274,POSITIVE_LENGTH_MEASURE(1.0E-006),#275);
#171=CIRCLE('',#276,25.0);
#172=SURFACE_STYLE_USAGE(.BOTH.,#277);
#173=FACE_OUTER_BOUND('',#278,.T.);
#174=CYLINDRICAL_SURFACE('',#279,25.0);
#175=CURVE_STYLE('',#280,POSITIVE_LENGTH_MEASURE(1.0E-006),#281);
#176=CIRCLE('',#282,25.0);
#177=CURVE_STYLE('',#283,POSITIVE_LENGTH_MEASURE(1.0E-006),#284);
#178=CIRCLE('',#285,46.0);
#179=POINT_STYLE(' ',#286,POSITIVE_LENGTH_MEASURE(1.0E-006),#287);
#180=CARTESIAN_POINT('',(46.0,2.39085859213274E-014,21.0));
#181=SURFACE_STYLE_USAGE(.BOTH.,#288);
#182=FACE_OUTER_BOUND('',#289,.T.);
#183=CYLINDRICAL_SURFACE('',#290,25.0);
#184=SURFACE_STYLE_USAGE(.BOTH.,#291);
#185=FACE_OUTER_BOUND('',#292,.T.);
#186=FACE_BOUND('',#293,.T.);
#187=PLANE('',#294);
#188=CURVE_STYLE('',#295,POSITIVE_LENGTH_MEASURE(1.0E-006),#296);
#189=LINE('',#297,#298);
#190=POINT_STYLE(' ',#299,POSITIVE_LENGTH_MEASURE(1.0E-006),#300);
#191=CARTESIAN_POINT('',(-26.0,7.09506299973844E-015,21.0));
#192=CURVE_STYLE('',#301,POSITIVE_LENGTH_MEASURE(1.0E-006),#302);
#193=CIRCLE('',#303,26.0);
#194=CURVE_STYLE('',#304,POSITIVE_LENGTH_MEASURE(1.0E-006),#305);
#195=CIRCLE('',#306,25.0);
#196=CURVE_STYLE('',#307,POSITIVE_LENGTH_MEASURE(1.0E-006),#308);
#197=CIRCLE('',#309,25.0);
#198=SURFACE_STYLE_USAGE(.BOTH.,#310);
#199=FACE_OUTER_BOUND('',#311,.T.);
#200=CYLINDRICAL_SURFACE('',#312,46.0);
#201=POINT_STYLE(' ',#313,POSITIVE_LENGTH_MEASURE(1.0E-006),#314);
#202=CARTESIAN_POINT('',(25.0,1.76864016944868E-014,-2.8421709430404E-014));
#203=CURVE_STYLE('',#315,POSITIVE_LENGTH_MEASURE(1.0E-006),#316);
#204=CIRCLE('',#317,26.0);
#205=CURVE_STYLE('',#318,POSITIVE_LENGTH_MEASURE(1.0E-006),#319);
#206=CIRCLE('',#320,26.0854433790746);
#207=CURVE_STYLE('',#321,POSITIVE_LENGTH_MEASURE(1.0E-006),#322);
#208=LINE('',#323,#324);
#209=POINT_STYLE(' ',#325,POSITIVE_LENGTH_MEASURE(1.0E-006),#326);
#210=CARTESIAN_POINT('',(-46.0,4.64585029209369E-015,21.0));
#211=POINT_STYLE(' ',#327,POSITIVE_LENGTH_MEASURE(1.0E-006),#328);
#212=CARTESIAN_POINT('',(26.0,1.79826961814792E-014,21.0));
#213=CURVE_STYLE('',#329,POSITIVE_LENGTH_MEASURE(1.0E-006),#330);
#214=CIRCLE('',#331,46.0);
#215=CURVE_STYLE('',#332,POSITIVE_LENGTH_MEASURE(1.0E-006),#333);
#216=LINE('',#334,#335);
#217=SURFACE_STYLE_USAGE(.BOTH.,#336);
#218=FACE_OUTER_BOUND('',#337,.T.);
#219=CYLINDRICAL_SURFACE('',#338,46.0);
#220=SURFACE_STYLE_USAGE(.BOTH.,#339);
#221=FACE_OUTER_BOUND('',#340,.T.);
#222=SPHERICAL_SURFACE('',#341,67.0000000000002);
#223=POINT_STYLE(' ',#342,POSITIVE_LENGTH_MEASURE(1.0E-006),#343);
#224=CARTESIAN_POINT('',(-45.9999999999999,4.15600775056475E-015,13.0));
#225=SURFACE_STYLE_USAGE(.BOTH.,#344);
#226=FACE_OUTER_BOUND('',#345,.T.);
#227=CONICAL_SURFACE('',#346,25.5,0.785398163397448);
#228=CURVE_STYLE('',#347,POSITIVE_LENGTH_MEASURE(1.0E-006),#348);
#229=CIRCLE('',#349,46.0);
#230=CURVE_STYLE('',#350,POSITIVE_LENGTH_MEASURE(1.0E-006),#351);
#231=CIRCLE('',#352,26.0854433790746);
#232=CURVE_STYLE('',#353,POSITIVE_LENGTH_MEASURE(1.0E-006),#354);
#233=CIRCLE('',#355,67.0000000000002);
#234=SURFACE_STYLE_USAGE(.BOTH.,#356);
#235=FACE_OUTER_BOUND('',#357,.T.);
#236=CONICAL_SURFACE('',#358,25.5,0.785398163397448);
#237=POINT_STYLE(' ',#359,POSITIVE_LENGTH_MEASURE(1.0E-006),#360);
#238=CARTESIAN_POINT('',(-26.0854433790737,5.79876287773437E-015,-4.9737991503207E-014));
#239=POINT_STYLE(' ',#361,POSITIVE_LENGTH_MEASURE(1.0E-006),#362);
#240=CARTESIAN_POINT('',(25.0,1.76864016944868E-014,20.0));
#241=CURVE_STYLE('',#363,POSITIVE_LENGTH_MEASURE(1.0E-006),#364);
#242=LINE('',#365,#366);
#243=CURVE_STYLE('',#367,POSITIVE_LENGTH_MEASURE(1.0E-006),#368);
#244=CIRCLE('',#369,67.0000000000002);
#245=POINT_STYLE(' ',#370,POSITIVE_LENGTH_MEASURE(1.0E-006),#371);
#246=CARTESIAN_POINT('',(46.0,2.40383153200971E-014,12.9999999999998));
#247=SURFACE_STYLE_USAGE(.BOTH.,#372);
#248=FACE_OUTER_BOUND('',#373,.T.);
#249=FACE_BOUND('',#374,.T.);
#250=PLANE('',#375);
#251=POINT_STYLE(' ',#376,POSITIVE_LENGTH_MEASURE(1.0E-006),#377);
#252=CARTESIAN_POINT('',(-25.0,7.15629331742956E-015,20.0));
#253=CURVE_STYLE('',#378,POSITIVE_LENGTH_MEASURE(1.0E-006),#379);
#254=LINE('',#380,#381);
#255=SURFACE_STYLE_USAGE(.BOTH.,#382);
#256=FACE_OUTER_BOUND('',#383,.T.);
#257=SPHERICAL_SURFACE('',#384,67.0000000000002);
#258=CURVE_STYLE('',#385,POSITIVE_LENGTH_MEASURE(1.0E-006),#386);
#259=LINE('',#387,#388);
#260=POINT_STYLE(' ',#389,POSITIVE_LENGTH_MEASURE(1.0E-006),#390);
#261=CARTESIAN_POINT('',(26.0854433790748,1.9160816805789E-014,-1.4210854715202E-014));
#262=CURVE_STYLE('',#391,POSITIVE_LENGTH_MEASURE(1.0E-006),#392);
#263=CIRCLE('',#393,46.0);
#264=SURFACE_STYLE_USAGE(.BOTH.,#394);
#265=CLOSED_SHELL('',(#79,#111,#125,#113,#143,#117,#137,#93,#81,#71));
#266=PRODUCT_CONTEXT('',#53,'mechanical');
#267=PRODUCT_DEFINITION_FORMATION_WITH_SPECIFIED_SOURCE(' ','NONE',#152,.NOT_KNOWN.);
#268=CARTESIAN_POINT('',(0.0,0.0,0.0));
#269=DIRECTION('',(0.0,0.0,1.0));
#270=DIRECTION('',(1.0,0.0,0.0));
#271= (NAMED_UNIT(#160)LENGTH_UNIT()SI_UNIT(.MILLI.,.METRE.));
#272=PRE_DEFINED_MARKER('');
#273=COLOUR_RGB('',0.509803950786591,0.509803950786591,0.588235318660736);
#274=DRAUGHTING_PRE_DEFINED_CURVE_FONT('continuous');
#275=COLOUR_RGB('',0.509803950786591,0.509803950786591,0.588235318660736);
#276=AXIS2_PLACEMENT_3D('',#396,#397,#398);
#277=SURFACE_SIDE_STYLE('',(#399));
#278=EDGE_LOOP('',(#400,#401,#402,#403));
#279=AXIS2_PLACEMENT_3D('',#404,#405,#406);
#280=DRAUGHTING_PRE_DEFINED_CURVE_FONT('continuous');
#281=COLOUR_RGB('',0.509803950786591,0.509803950786591,0.588235318660736);
#282=AXIS2_PLACEMENT_3D('',#407,#408,#409);
#283=DRAUGHTING_PRE_DEFINED_CURVE_FONT('continuous');
#284=COLOUR_RGB('',0.509803950786591,0.509803950786591,0.588235318660736);
#285=AXIS2_PLACEMENT_3D('',#410,#411,#412);
#286=PRE_DEFINED_MARKER('');
#287=COLOUR_RGB('',0.509803950786591,0.509803950786591,0.588235318660736);
#288=SURFACE_SIDE_STYLE('',(#413));
#289=EDGE_LOOP('',(#414,#415,#416,#417));
#290=AXIS2_PLACEMENT_3D('',#418,#419,#420);
#291=SURFACE_SIDE_STYLE('',(#421));
#292=EDGE_LOOP('',(#422,#423));
#293=EDGE_LOOP('',(#424,#425));
#294=AXIS2_PLACEMENT_3D('',#426,#427,#428);
#295=DRAUGHTING_PRE_DEFINED_CURVE_FONT('continuous');
#296=COLOUR_RGB('',0.509803950786591,0.509803950786591,0.588235318660736);
#297=CARTESIAN_POINT('',(25.0,1.76864016944868E-014,9.99999999999999));
#298=VECTOR('',#429,1.0);
#299=PRE_DEFINED_MARKER('');
#300=COLOUR_RGB('',0.509803950786591,0.509803950786591,0.588235318660736);
#301=DRAUGHTING_PRE_DEFINED_CURVE_FONT('continuous');
#302=COLOUR_RGB('',0.509803950786591,0.509803950786591,0.588235318660736);
#303=AXIS2_PLACEMENT_3D('',#430,#431,#432);
#304=DRAUGHTING_PRE_DEFINED_CURVE_FONT('continuous');
#305=COLOUR_RGB('',0.509803950786591,0.509803950786591,0.588235318660736);
#306=AXIS2_PLACEMENT_3D('',#433,#434,#435);
#307=DRAUGHTING_PRE_DEFINED_CURVE_FONT('continuous');
#308=COLOUR_RGB('',0.509803950786591,0.509803950786591,0.588235318660736);
#309=AXIS2_PLACEMENT_3D('',#436,#437,#438);
#310=SURFACE_SIDE_STYLE('',(#439));
#311=EDGE_LOOP('',(#440,#441,#442,#443));
#312=AXIS2_PLACEMENT_3D('',#444,#445,#446);
#313=PRE_DEFINED_MARKER('');
#314=COLOUR_RGB('',0.509803950786591,0.509803950786591,0.588235318660736);
#315=DRAUGHTING_PRE_DEFINED_CURVE_FONT('continuous');
#316=COLOUR_RGB('',0.509803950786591,0.509803950786591,0.588235318660736);
#317=AXIS2_PLACEMENT_3D('',#447,#448,#449);
#318=DRAUGHTING_PRE_DEFINED_CURVE_FONT('continuous');
#319=COLOUR_RGB('',0.509803950786591,0.509803950786591,0.588235318660736);
#320=AXIS2_PLACEMENT_3D('',#450,#451,#452);
#321=DRAUGHTING_PRE_DEFINED_CURVE_FONT('continuous');
#322=COLOUR_RGB('',0.509803950786591,0.509803950786591,0.588235318660736);
#323=CARTESIAN_POINT('',(25.5,1.7834548937983E-014,20.5));
#324=VECTOR('',#453,1.0);
#325=PRE_DEFINED_MARKER('');
#326=COLOUR_RGB('',0.509803950786591,0.509803950786591,0.588235318660736);
#327=PRE_DEFINED_MARKER('');
#328=COLOUR_RGB('',0.509803950786591,0.509803950786591,0.588235318660736);
#329=DRAUGHTING_PRE_DEFINED_CURVE_FONT('continuous');
#330=COLOUR_RGB('',0.509803950786591,0.509803950786591,0.588235318660736);
#331=AXIS2_PLACEMENT_3D('',#454,#455,#456);
#332=DRAUGHTING_PRE_DEFINED_CURVE_FONT('continuous');
#333=COLOUR_RGB('',0.509803950786591,0.509803950786591,0.588235318660736);
#334=CARTESIAN_POINT('',(-46.0,-3.35050688197411E-015,16.9999999999999));
#335=VECTOR('',#457,1.0);
#336=SURFACE_SIDE_STYLE('',(#458));
#337=EDGE_LOOP('',(#459,#460,#461,#462));
#338=AXIS2_PLACEMENT_3D('',#463,#464,#465);
#339=SURFACE_SIDE_STYLE('',(#466));
#340=EDGE_LOOP('',(#467,#468,#469,#470));
#341=AXIS2_PLACEMENT_3D('',#471,#472,#473);
#342=PRE_DEFINED_MARKER('');
#343=COLOUR_RGB('',0.509803950786591,0.509803950786591,0.588235318660736);
#344=SURFACE_SIDE_STYLE('',(#474));
#345=EDGE_LOOP('',(#475,#476,#477,#478));
#346=AXIS2_PLACEMENT_3D('',#479,#480,#481);
#347=DRAUGHTING_PRE_DEFINED_CURVE_FONT('continuous');
#348=COLOUR_RGB('',0.509803950786591,0.509803950786591,0.588235318660736);
#349=AXIS2_PLACEMENT_3D('',#482,#483,#484);
#350=DRAUGHTING_PRE_DEFINED_CURVE_FONT('continuous');
#351=COLOUR_RGB('',0.509803950786591,0.509803950786591,0.588235318660736);
#352=AXIS2_PLACEMENT_3D('',#485,#486,#487);
#353=DRAUGHTING_PRE_DEFINED_CURVE_FONT('continuous');
#354=COLOUR_RGB('',0.509803950786591,0.509803950786591,0.588235318660736);
#355=AXIS2_PLACEMENT_3D('',#488,#489,#490);
#356=SURFACE_SIDE_STYLE('',(#491));
#357=EDGE_LOOP('',(#492,#493,#494,#495));
#358=AXIS2_PLACEMENT_3D('',#496,#497,#498);
#359=PRE_DEFINED_MARKER('');
#360=COLOUR_RGB('',0.509803950786591,0.509803950786591,0.588235318660736);
#361=PRE_DEFINED_MARKER('');
#362=COLOUR_RGB('',0.509803950786591,0.509803950786591,0.588235318660736);
#363=DRAUGHTING_PRE_DEFINED_CURVE_FONT('continuous');
#364=COLOUR_RGB('',0.509803950786591,0.509803950786591,0.588235318660736);
#365=CARTESIAN_POINT('',(-25.5,2.72353010137023E-015,20.5));
#366=VECTOR('',#499,1.0);
#367=DRAUGHTING_PRE_DEFINED_CURVE_FONT('continuous');
#368=COLOUR_RGB('',0.509803950786591,0.509803950786591,0.588235318660736);
#369=AXIS2_PLACEMENT_3D('',#500,#501,#502);
#370=PRE_DEFINED_MARKER('');
#371=COLOUR_RGB('',0.509803950786591,0.509803950786591,0.588235318660736);
#372=SURFACE_SIDE_STYLE('',(#503));
#373=EDGE_LOOP('',(#504,#505));
#374=EDGE_LOOP('',(#506,#507));
#375=AXIS2_PLACEMENT_3D('',#508,#509,#510);
#376=PRE_DEFINED_MARKER('');
#377=COLOUR_RGB('',0.509803950786591,0.509803950786591,0.588235318660736);
#378=DRAUGHTING_PRE_DEFINED_CURVE_FONT('continuous');
#379=COLOUR_RGB('',0.509803950786591,0.509803950786591,0.588235318660736);
#380=CARTESIAN_POINT('',(-25.0,2.87167734486643E-015,9.99999999999999));
#381=VECTOR('',#511,1.0);
#382=SURFACE_SIDE_STYLE('',(#512));
#383=EDGE_LOOP('',(#513,#514,#515,#516));
#384=AXIS2_PLACEMENT_3D('',#517,#518,#519);
#385=DRAUGHTING_PRE_DEFINED_CURVE_FONT('continuous');
#386=COLOUR_RGB('',0.509803950786591,0.509803950786591,0.588235318660736);
#387=CARTESIAN_POINT('',(46.0,2.39085859213274E-014,16.9999999999999));
#388=VECTOR('',#520,1.0);
#389=PRE_DEFINED_MARKER('');
#390=COLOUR_RGB('',0.509803950786591,0.509803950786591,0.588235318660736);
#391=DRAUGHTING_PRE_DEFINED_CURVE_FONT('continuous');
#392=COLOUR_RGB('',0.509803950786591,0.509803950786591,0.588235318660736);
#393=AXIS2_PLACEMENT_3D('',#521,#522,#523);
#394=SURFACE_SIDE_STYLE('',(#524));
#396=CARTESIAN_POINT('',(0.0,1.02790395196766E-014,-2.8421709430404E-014));
#397=DIRECTION('',(-0.0,0.0,-1.0));
#398=DIRECTION('',(-1.0,-1.73833851610169E-016,0.0));
#399=SURFACE_STYLE_FILL_AREA(#525);
#400=ORIENTED_EDGE('',*,*,#141,.T.);
#401=ORIENTED_EDGE('',*,*,#69,.T.);
#402=ORIENTED_EDGE('',*,*,#83,.T.);
#403=ORIENTED_EDGE('',*,*,#91,.F.);
#404=CARTESIAN_POINT('',(0.0,1.02790395196766E-014,9.99999999999999));
#405=DIRECTION('',(0.0,-0.0,1.0));
#406=DIRECTION('',(-1.0,-1.73833851610169E-016,0.0));
#407=CARTESIAN_POINT('',(0.0,1.02790395196766E-014,20.0));
#408=DIRECTION('',(-0.0,0.0,-1.0));
#409=DIRECTION('',(-1.0,-1.73833851610169E-016,0.0));
#410=CARTESIAN_POINT('',(0.0,1.02790395196766E-014,21.0));
#411=DIRECTION('',(-0.0,0.0,-1.0));
#412=DIRECTION('',(-1.0,-1.73833851610169E-016,0.0));
#413=SURFACE_STYLE_FILL_AREA(#526);
#414=ORIENTED_EDGE('',*,*,#141,.F.);
#415=ORIENTED_EDGE('',*,*,#73,.F.);
#416=ORIENTED_EDGE('',*,*,#83,.F.);
#417=ORIENTED_EDGE('',*,*,#89,.T.);
#418=CARTESIAN_POINT('',(0.0,1.02790395196766E-014,9.99999999999999));
#419=DIRECTION('',(0.0,-0.0,1.0));
#420=DIRECTION('',(-1.0,-1.73833851610169E-016,0.0));
#421=SURFACE_STYLE_FILL_AREA(#527);
#422=ORIENTED_EDGE('',*,*,#121,.T.);
#423=ORIENTED_EDGE('',*,*,#99,.T.);
#424=ORIENTED_EDGE('',*,*,#69,.F.);
#425=ORIENTED_EDGE('',*,*,#89,.F.);
#426=CARTESIAN_POINT('',(-35.5,4.64585029209369E-015,-1.4210854715202E-014));
#427=DIRECTION('',(0.0,0.0,-1.0));
#428=DIRECTION('',(1.0,1.22460635382238E-016,0.0));
#429=DIRECTION('',(0.0,0.0,1.0));
#430=CARTESIAN_POINT('',(0.0,1.02790395196766E-014,21.0));
#431=DIRECTION('',(-0.0,0.0,-1.0));
#432=DIRECTION('',(-1.0,-1.73833851610169E-016,0.0));
#433=CARTESIAN_POINT('',(0.0,1.02790395196766E-014,-2.8421709430404E-014));
#434=DIRECTION('',(-0.0,0.0,-1.0));
#435=DIRECTION('',(-1.0,-1.73833851610169E-016,0.0));
#436=CARTESIAN_POINT('',(0.0,1.02790395196766E-014,20.0));
#437=DIRECTION('',(-0.0,0.0,-1.0));
#438=DIRECTION('',(-1.0,-1.73833851610169E-016,0.0));
#439=SURFACE_STYLE_FILL_AREA(#528);
#440=ORIENTED_EDGE('',*,*,#109,.T.);
#441=ORIENTED_EDGE('',*,*,#107,.T.);
#442=ORIENTED_EDGE('',*,*,#145,.T.);
#443=ORIENTED_EDGE('',*,*,#75,.T.);
#444=CARTESIAN_POINT('',(0.0,1.02790395196766E-014,10.5));
#445=DIRECTION('',(0.0,-0.0,1.0));
#446=DIRECTION('',(-1.0,-1.73833851610169E-016,0.0));
#447=CARTESIAN_POINT('',(0.0,1.02790395196766E-014,21.0));
#448=DIRECTION('',(-0.0,0.0,-1.0));
#449=DIRECTION('',(-1.0,-1.73833851610169E-016,0.0));
#450=CARTESIAN_POINT('',(2.20268248085631E-013,1.27719368649313E-014,-1.4210854715202E-014));
#451=DIRECTION('',(0.0,0.0,-1.0));
#452=DIRECTION('',(0.0,-1.0,0.0));
#453=DIRECTION('',(0.707106781186548,2.0951184098052E-016,0.707106781186547));
#454=CARTESIAN_POINT('',(0.0,1.02790395196766E-014,12.9999999999998));
#455=DIRECTION('',(0.0,0.0,1.0));
#456=DIRECTION('',(-1.0,-1.73833851610169E-016,0.0));
#457=DIRECTION('',(0.0,0.0,-1.0));
#458=SURFACE_STYLE_FILL_AREA(#529);
#459=ORIENTED_EDGE('',*,*,#109,.F.);
#460=ORIENTED_EDGE('',*,*,#119,.T.);
#461=ORIENTED_EDGE('',*,*,#145,.F.);
#462=ORIENTED_EDGE('',*,*,#149,.T.);
#463=CARTESIAN_POINT('',(0.0,1.02790395196766E-014,10.5));
#464=DIRECTION('',(0.0,-0.0,1.0));
#465=DIRECTION('',(-1.0,-1.73833851610169E-016,0.0));
#466=SURFACE_STYLE_FILL_AREA(#530);
#467=ORIENTED_EDGE('',*,*,#133,.F.);
#468=ORIENTED_EDGE('',*,*,#121,.F.);
#469=ORIENTED_EDGE('',*,*,#123,.F.);
#470=ORIENTED_EDGE('',*,*,#149,.F.);
#471=CARTESIAN_POINT('',(2.20268248085631E-013,1.27719368649313E-014,61.7134478352742));
#472=DIRECTION('',(0.0,0.0,-1.0));
#473=DIRECTION('',(1.0,1.22460635382238E-016,0.0));
#474=SURFACE_STYLE_FILL_AREA(#531);
#475=ORIENTED_EDGE('',*,*,#131,.T.);
#476=ORIENTED_EDGE('',*,*,#91,.T.);
#477=ORIENTED_EDGE('',*,*,#101,.T.);
#478=ORIENTED_EDGE('',*,*,#87,.F.);
#479=CARTESIAN_POINT('',(0.0,1.02790395196766E-014,20.5));
#480=DIRECTION('',(0.0,-0.0,1.0));
#481=DIRECTION('',(-1.0,-1.73833851610169E-016,0.0));
#482=CARTESIAN_POINT('',(0.0,1.02790395196766E-014,21.0));
#483=DIRECTION('',(-0.0,0.0,-1.0));
#484=DIRECTION('',(-1.0,-1.73833851610169E-016,0.0));
#485=CARTESIAN_POINT('',(2.20268248085631E-013,1.27719368649313E-014,-1.4210854715202E-014));
#486=DIRECTION('',(0.0,0.0,-1.0));
#487=DIRECTION('',(0.0,-1.0,0.0));
#488=CARTESIAN_POINT('',(2.20268248085631E-013,1.27719368649313E-014,61.7134478352742));
#489=DIRECTION('',(2.44921270764475E-016,-1.0,0.0));
#490=DIRECTION('',(-0.0,0.0,1.0));
#491=SURFACE_STYLE_FILL_AREA(#532);
#492=ORIENTED_EDGE('',*,*,#131,.F.);
#493=ORIENTED_EDGE('',*,*,#97,.F.);
#494=ORIENTED_EDGE('',*,*,#101,.F.);
#495=ORIENTED_EDGE('',*,*,#73,.T.);
#496=CARTESIAN_POINT('',(0.0,1.02790395196766E-014,20.5));
#497=DIRECTION('',(0.0,-0.0,1.0));
#498=DIRECTION('',(-1.0,-1.73833851610169E-016,0.0));
#499=DIRECTION('',(0.707106781186548,2.0951184098052E-016,-0.707106781186547));
#500=CARTESIAN_POINT('',(2.20268248085631E-013,1.27719368649313E-014,61.7134478352742));
#501=DIRECTION('',(2.44921270764475E-016,-1.0,0.0));
#502=DIRECTION('',(-0.0,0.0,1.0));
#503=SURFACE_STYLE_FILL_AREA(#533);
#504=ORIENTED_EDGE('',*,*,#119,.F.);
#505=ORIENTED_EDGE('',*,*,#75,.F.);
#506=ORIENTED_EDGE('',*,*,#87,.T.);
#507=ORIENTED_EDGE('',*,*,#97,.T.);
#508=CARTESIAN_POINT('',(-36.0,5.87045664591606E-015,21.0));
#509=DIRECTION('',(0.0,0.0,1.0));
#510=DIRECTION('',(-1.0,-1.22460635382238E-016,0.0));
#511=DIRECTION('',(0.0,0.0,-1.0));
#512=SURFACE_STYLE_FILL_AREA(#534);
#513=ORIENTED_EDGE('',*,*,#133,.T.);
#514=ORIENTED_EDGE('',*,*,#107,.F.);
#515=ORIENTED_EDGE('',*,*,#123,.T.);
#516=ORIENTED_EDGE('',*,*,#99,.F.);
#517=CARTESIAN_POINT('',(2.20268248085631E-013,1.27719368649313E-014,61.7134478352742));
#518=DIRECTION('',(0.0,0.0,-1.0));
#519=DIRECTION('',(1.0,1.22460635382238E-016,0.0));
#520=DIRECTION('',(-0.0,-0.0,1.0));
#521=CARTESIAN_POINT('',(0.0,1.02790395196766E-014,12.9999999999998));
#522=DIRECTION('',(0.0,0.0,1.0));
#523=DIRECTION('',(-1.0,-1.73833851610169E-016,0.0));
#524=SURFACE_STYLE_FILL_AREA(#535);
#525=FILL_AREA_STYLE('',(#536));
#526=FILL_AREA_STYLE('',(#537));
#527=FILL_AREA_STYLE('',(#538));
#528=FILL_AREA_STYLE('',(#539));
#529=FILL_AREA_STYLE('',(#540));
#530=FILL_AREA_STYLE('',(#541));
#531=FILL_AREA_STYLE('',(#542));
#532=FILL_AREA_STYLE('',(#543));
#533=FILL_AREA_STYLE('',(#544));
#534=FILL_AREA_STYLE('',(#545));
#535=FILL_AREA_STYLE('',(#546));
#536=FILL_AREA_STYLE_COLOUR('',#547);
#537=FILL_AREA_STYLE_COLOUR('',#548);
#538=FILL_AREA_STYLE_COLOUR('',#549);
#539=FILL_AREA_STYLE_COLOUR('',#550);
#540=FILL_AREA_STYLE_COLOUR('',#551);
#541=FILL_AREA_STYLE_COLOUR('',#552);
#542=FILL_AREA_STYLE_COLOUR('',#553);
#543=FILL_AREA_STYLE_COLOUR('',#554);
#544=FILL_AREA_STYLE_COLOUR('',#555);
#545=FILL_AREA_STYLE_COLOUR('',#556);
#546=FILL_AREA_STYLE_COLOUR('',#557);
#547=COLOUR_RGB('',0.509803950786591,0.509803950786591,0.588235318660736);
#548=COLOUR_RGB('',0.509803950786591,0.509803950786591,0.588235318660736);
#549=COLOUR_RGB('',0.509803950786591,0.509803950786591,0.588235318660736);
#550=COLOUR_RGB('',0.509803950786591,0.509803950786591,0.588235318660736);
#551=COLOUR_RGB('',0.509803950786591,0.509803950786591,0.588235318660736);
#552=COLOUR_RGB('',0.509803950786591,0.509803950786591,0.588235318660736);
#553=COLOUR_RGB('',0.509803950786591,0.509803950786591,0.588235318660736);
#554=COLOUR_RGB('',0.509803950786591,0.509803950786591,0.588235318660736);
#555=COLOUR_RGB('',0.509803950786591,0.509803950786591,0.588235318660736);
#556=COLOUR_RGB('',0.509803950786591,0.509803950786591,0.588235318660736);
#557=COLOUR_RGB('',0.509803950786591,0.509803950786591,0.588235318660736);
ENDSEC;
END-ISO-10303-21;
