ISO-10303-21;
HEADER;
FILE_DESCRIPTION(('STEP AP214'),'1');
FILE_NAME(' ','  ',('TraceParts'),('TraceParts S.A.'),'XStep 1.0',' ',' ');
FILE_SCHEMA(('automotive_design'));
ENDSEC;
DATA;
#1=MECHANICAL_DESIGN_GEOMETRIC_PRESENTATION_REPRESENTATION(' ',(#10,#11,#12,#13,#14,#15,#16,#17,#18,#19,#20,#21,#22,#23,#24,#25,#26,#27,#28,#29,#30,#31,#32,#33,#34,#35,#36,#37,#38,#39,#40,#41,#42,#43,#44,#45,#46,#47,#48,#49,#50,#51,#52),#6);
#2=PRODUCT_DEFINITION_CONTEXT('',#53,'design');
#3=APPLICATION_PROTOCOL_DEFINITION('INTERNATIONAL STANDARD','automotive_design',1994,#53);
#4=PRODUCT_CATEGORY_RELATIONSHIP('NONE','NONE',#54,#55);
#5=SHAPE_DEFINITION_REPRESENTATION(#56,#57);
#6= (GEOMETRIC_REPRESENTATION_CONTEXT(3)GLOBAL_UNCERTAINTY_ASSIGNED_CONTEXT((#60))GLOBAL_UNIT_ASSIGNED_CONTEXT((#62,#63,#64))REPRESENTATION_CONTEXT('NONE','WORKSPACE'));
#10=STYLED_ITEM('',(#66),#67);
#11=STYLED_ITEM('',(#68),#69);
#12=STYLED_ITEM('',(#70),#71);
#13=STYLED_ITEM('',(#72),#73);
#14=STYLED_ITEM('',(#74),#75);
#15=STYLED_ITEM('',(#76),#77);
#16=STYLED_ITEM('',(#78),#79);
#17=STYLED_ITEM('',(#80),#81);
#18=STYLED_ITEM('',(#82),#83);
#19=STYLED_ITEM('',(#84),#85);
#20=STYLED_ITEM('',(#86),#87);
#21=STYLED_ITEM('',(#88),#89);
#22=STYLED_ITEM('',(#90),#91);
#23=STYLED_ITEM('',(#92),#93);
#24=STYLED_ITEM('',(#94),#95);
#25=STYLED_ITEM('',(#96),#97);
#26=STYLED_ITEM('',(#98),#99);
#27=STYLED_ITEM('',(#100),#101);
#28=STYLED_ITEM('',(#102),#103);
#29=STYLED_ITEM('',(#104),#105);
#30=STYLED_ITEM('',(#106),#107);
#31=STYLED_ITEM('',(#108),#109);
#32=STYLED_ITEM('',(#110),#111);
#33=STYLED_ITEM('',(#112),#113);
#34=STYLED_ITEM('',(#114),#115);
#35=STYLED_ITEM('',(#116),#117);
#36=STYLED_ITEM('',(#118),#119);
#37=STYLED_ITEM('',(#120),#121);
#38=STYLED_ITEM('',(#122),#123);
#39=STYLED_ITEM('',(#124),#125);
#40=STYLED_ITEM('',(#126),#127);
#41=STYLED_ITEM('',(#128),#129);
#42=STYLED_ITEM('',(#130),#131);
#43=STYLED_ITEM('',(#132),#133);
#44=STYLED_ITEM('',(#134),#135);
#45=STYLED_ITEM('',(#136),#137);
#46=STYLED_ITEM('',(#138),#139);
#47=STYLED_ITEM('',(#140),#141);
#48=STYLED_ITEM('',(#142),#143);
#49=STYLED_ITEM('',(#144),#145);
#50=STYLED_ITEM('',(#146),#147);
#51=STYLED_ITEM('',(#148),#149);
#52=STYLED_ITEM('',(#150),#151);
#53=APPLICATION_CONTEXT(' ');
#54=PRODUCT_CATEGORY('part','NONE');
#55=PRODUCT_RELATED_PRODUCT_CATEGORY('detail',' ',(#152));
#56=PRODUCT_DEFINITION_SHAPE('NONE','NONE',#153);
#57=ADVANCED_BREP_SHAPE_REPRESENTATION('1',(#113,#154),#6);
#60=UNCERTAINTY_MEASURE_WITH_UNIT(LENGTH_MEASURE(1.0E-006),#62,'','');
#62= (CONVERSION_BASED_UNIT('MILLIMETRE',#157)LENGTH_UNIT()NAMED_UNIT(#160));
#63= (NAMED_UNIT(#162)PLANE_ANGLE_UNIT()SI_UNIT($,.RADIAN.));
#64= (NAMED_UNIT(#162)SOLID_ANGLE_UNIT()SI_UNIT($,.STERADIAN.));
#66=PRESENTATION_STYLE_ASSIGNMENT((#168));
#67=EDGE_CURVE('',#135,#73,#169,.T.);
#68=PRESENTATION_STYLE_ASSIGNMENT((#170));
#69=EDGE_CURVE('',#75,#117,#171,.T.);
#70=PRESENTATION_STYLE_ASSIGNMENT((#172));
#71=EDGE_CURVE('',#93,#75,#173,.T.);
#72=PRESENTATION_STYLE_ASSIGNMENT((#174));
#73=VERTEX_POINT('',#175);
#74=PRESENTATION_STYLE_ASSIGNMENT((#176));
#75=VERTEX_POINT('',#177);
#76=PRESENTATION_STYLE_ASSIGNMENT((#178));
#77=EDGE_CURVE('',#73,#135,#179,.T.);
#78=PRESENTATION_STYLE_ASSIGNMENT((#180));
#79=VERTEX_POINT('',#181);
#80=PRESENTATION_STYLE_ASSIGNMENT((#182));
#81=EDGE_CURVE('',#95,#123,#183,.T.);
#82=PRESENTATION_STYLE_ASSIGNMENT((#184));
#83=EDGE_CURVE('',#79,#123,#185,.T.);
#84=PRESENTATION_STYLE_ASSIGNMENT((#186));
#85=ADVANCED_FACE('',(#187),#188,.F.);
#86=PRESENTATION_STYLE_ASSIGNMENT((#189));
#87=EDGE_CURVE('',#123,#95,#190,.T.);
#88=PRESENTATION_STYLE_ASSIGNMENT((#191));
#89=EDGE_CURVE('',#117,#75,#192,.T.);
#90=PRESENTATION_STYLE_ASSIGNMENT((#193));
#91=ADVANCED_FACE('',(#194),#195,.F.);
#92=PRESENTATION_STYLE_ASSIGNMENT((#196));
#93=VERTEX_POINT('',#197);
#94=PRESENTATION_STYLE_ASSIGNMENT((#198));
#95=VERTEX_POINT('',#199);
#96=PRESENTATION_STYLE_ASSIGNMENT((#200));
#97=ADVANCED_FACE('',(#201),#202,.T.);
#98=PRESENTATION_STYLE_ASSIGNMENT((#203));
#99=EDGE_CURVE('',#93,#79,#204,.T.);
#100=PRESENTATION_STYLE_ASSIGNMENT((#205));
#101=EDGE_CURVE('',#117,#79,#206,.T.);
#102=PRESENTATION_STYLE_ASSIGNMENT((#207));
#103=ADVANCED_FACE('',(#208),#209,.F.);
#104=PRESENTATION_STYLE_ASSIGNMENT((#210));
#105=VERTEX_POINT('',#211);
#106=PRESENTATION_STYLE_ASSIGNMENT((#212));
#107=EDGE_CURVE('',#149,#137,#213,.T.);
#108=PRESENTATION_STYLE_ASSIGNMENT((#214));
#109=EDGE_CURVE('',#95,#93,#215,.T.);
#110=PRESENTATION_STYLE_ASSIGNMENT((#216));
#111=ADVANCED_FACE('',(#217),#218,.F.);
#112=PRESENTATION_STYLE_ASSIGNMENT((#219));
#113=MANIFOLD_SOLID_BREP('1',#220);
#114=PRESENTATION_STYLE_ASSIGNMENT((#221));
#115=ADVANCED_FACE('',(#222,#223),#224,.T.);
#116=PRESENTATION_STYLE_ASSIGNMENT((#225));
#117=VERTEX_POINT('',#226);
#118=PRESENTATION_STYLE_ASSIGNMENT((#227));
#119=EDGE_CURVE('',#105,#133,#228,.T.);
#120=PRESENTATION_STYLE_ASSIGNMENT((#229));
#121=EDGE_CURVE('',#105,#137,#230,.T.);
#122=PRESENTATION_STYLE_ASSIGNMENT((#231));
#123=VERTEX_POINT('',#232);
#124=PRESENTATION_STYLE_ASSIGNMENT((#233));
#125=ADVANCED_FACE('',(#234),#235,.T.);
#126=PRESENTATION_STYLE_ASSIGNMENT((#236));
#127=ADVANCED_FACE('',(#237),#238,.T.);
#128=PRESENTATION_STYLE_ASSIGNMENT((#239));
#129=ADVANCED_FACE('',(#240,#241),#242,.T.);
#130=PRESENTATION_STYLE_ASSIGNMENT((#243));
#131=EDGE_CURVE('',#137,#149,#244,.T.);
#132=PRESENTATION_STYLE_ASSIGNMENT((#245));
#133=VERTEX_POINT('',#246);
#134=PRESENTATION_STYLE_ASSIGNMENT((#247));
#135=VERTEX_POINT('',#248);
#136=PRESENTATION_STYLE_ASSIGNMENT((#249));
#137=VERTEX_POINT('',#250);
#138=PRESENTATION_STYLE_ASSIGNMENT((#251));
#139=EDGE_CURVE('',#133,#105,#252,.T.);
#140=PRESENTATION_STYLE_ASSIGNMENT((#253));
#141=EDGE_CURVE('',#79,#93,#254,.T.);
#142=PRESENTATION_STYLE_ASSIGNMENT((#255));
#143=ADVANCED_FACE('',(#256),#257,.T.);
#144=PRESENTATION_STYLE_ASSIGNMENT((#258));
#145=EDGE_CURVE('',#149,#133,#259,.T.);
#146=PRESENTATION_STYLE_ASSIGNMENT((#260));
#147=EDGE_CURVE('',#135,#105,#261,.T.);
#148=PRESENTATION_STYLE_ASSIGNMENT((#262));
#149=VERTEX_POINT('',#263);
#150=PRESENTATION_STYLE_ASSIGNMENT((#264));
#151=EDGE_CURVE('',#133,#73,#265,.T.);
#152=PRODUCT('1','1','PART-1-DESC',(#266));
#153=PRODUCT_DEFINITION('NONE','NONE',#267,#2);
#154=AXIS2_PLACEMENT_3D('',#268,#269,#270);
#157=LENGTH_MEASURE_WITH_UNIT(LENGTH_MEASURE(1.0),#271);
#160=DIMENSIONAL_EXPONENTS(1.0,0.0,0.0,0.0,0.0,0.0,0.0);
#162=DIMENSIONAL_EXPONENTS(0.0,0.0,0.0,0.0,0.0,0.0,0.0);
#168=CURVE_STYLE('',#272,POSITIVE_LENGTH_MEASURE(1.0E-006),#273);
#169=CIRCLE('',#274,34.0);
#170=CURVE_STYLE('',#275,POSITIVE_LENGTH_MEASURE(1.0E-006),#276);
#171=CIRCLE('',#277,18.5);
#172=CURVE_STYLE('',#278,POSITIVE_LENGTH_MEASURE(1.0E-006),#279);
#173=LINE('',#280,#281);
#174=POINT_STYLE(' ',#282,POSITIVE_LENGTH_MEASURE(1.0E-006),#283);
#175=CARTESIAN_POINT('',(34.0,1.87104752495391E-014,14.0));
#176=POINT_STYLE(' ',#284,POSITIVE_LENGTH_MEASURE(1.0E-006),#285);
#177=CARTESIAN_POINT('',(-18.5,5.68676569284271E-015,-2.8421709430404E-014));
#178=CURVE_STYLE('',#286,POSITIVE_LENGTH_MEASURE(1.0E-006),#287);
#179=CIRCLE('',#288,34.0);
#180=POINT_STYLE(' ',#289,POSITIVE_LENGTH_MEASURE(1.0E-006),#290);
#181=CARTESIAN_POINT('',(18.5,1.41968007791284E-014,13.0));
#182=CURVE_STYLE('',#291,POSITIVE_LENGTH_MEASURE(1.0E-006),#292);
#183=CIRCLE('',#293,19.5);
#184=CURVE_STYLE('',#294,POSITIVE_LENGTH_MEASURE(1.0E-006),#295);
#185=LINE('',#296,#297);
#186=SURFACE_STYLE_USAGE(.BOTH.,#298);
#187=FACE_OUTER_BOUND('',#299,.T.);
#188=CYLINDRICAL_SURFACE('',#300,18.5);
#189=CURVE_STYLE('',#301,POSITIVE_LENGTH_MEASURE(1.0E-006),#302);
#190=CIRCLE('',#303,19.5);
#191=CURVE_STYLE('',#304,POSITIVE_LENGTH_MEASURE(1.0E-006),#305);
#192=CIRCLE('',#306,18.5);
#193=SURFACE_STYLE_USAGE(.BOTH.,#307);
#194=FACE_OUTER_BOUND('',#308,.T.);
#195=CONICAL_SURFACE('',#309,19.0,0.785398163397448);
#196=POINT_STYLE(' ',#310,POSITIVE_LENGTH_MEASURE(1.0E-006),#311);
#197=CARTESIAN_POINT('',(-18.5,6.48275982282725E-015,13.0));
#198=POINT_STYLE(' ',#312,POSITIVE_LENGTH_MEASURE(1.0E-006),#313);
#199=CARTESIAN_POINT('',(-19.5,6.42152950513613E-015,14.0));
#200=SURFACE_STYLE_USAGE(.BOTH.,#314);
#201=FACE_OUTER_BOUND('',#315,.T.);
#202=CYLINDRICAL_SURFACE('',#316,34.0);
#203=CURVE_STYLE('',#317,POSITIVE_LENGTH_MEASURE(1.0E-006),#318);
#204=CIRCLE('',#319,18.5);
#205=CURVE_STYLE('',#320,POSITIVE_LENGTH_MEASURE(1.0E-006),#321);
#206=LINE('',#322,#323);
#207=SURFACE_STYLE_USAGE(.BOTH.,#324);
#208=FACE_OUTER_BOUND('',#325,.T.);
#209=CONICAL_SURFACE('',#326,19.0,0.785398163397448);
#210=POINT_STYLE(' ',#327,POSITIVE_LENGTH_MEASURE(1.0E-006),#328);
#211=CARTESIAN_POINT('',(-34.0,4.36419083071454E-015,9.39999999999993));
#212=CURVE_STYLE('',#329,POSITIVE_LENGTH_MEASURE(1.0E-006),#330);
#213=CIRCLE('',#331,19.4530361506539);
#214=CURVE_STYLE('',#332,POSITIVE_LENGTH_MEASURE(1.0E-006),#333);
#215=LINE('',#334,#335);
#216=SURFACE_STYLE_USAGE(.BOTH.,#336);
#217=FACE_OUTER_BOUND('',#337,.T.);
#218=CYLINDRICAL_SURFACE('',#338,18.5);
#219=SURFACE_STYLE_USAGE(.BOTH.,#339);
#220=CLOSED_SHELL('',(#85,#127,#103,#125,#143,#91,#115,#97,#129,#111));
#221=SURFACE_STYLE_USAGE(.BOTH.,#340);
#222=FACE_OUTER_BOUND('',#341,.T.);
#223=FACE_BOUND('',#342,.T.);
#224=PLANE('',#343);
#225=POINT_STYLE(' ',#344,POSITIVE_LENGTH_MEASURE(1.0E-006),#345);
#226=CARTESIAN_POINT('',(18.5,1.41968007791284E-014,-2.8421709430404E-014));
#227=CURVE_STYLE('',#346,POSITIVE_LENGTH_MEASURE(1.0E-006),#347);
#228=CIRCLE('',#348,34.0);
#229=CURVE_STYLE('',#349,POSITIVE_LENGTH_MEASURE(1.0E-006),#350);
#230=CIRCLE('',#351,50.0000000000002);
#231=POINT_STYLE(' ',#352,POSITIVE_LENGTH_MEASURE(1.0E-006),#353);
#232=CARTESIAN_POINT('',(19.5,1.4488005583671E-014,14.0));
#233=SURFACE_STYLE_USAGE(.BOTH.,#354);
#234=FACE_OUTER_BOUND('',#355,.T.);
#235=SPHERICAL_SURFACE('',#356,50.0000000000002);
#236=SURFACE_STYLE_USAGE(.BOTH.,#357);
#237=FACE_OUTER_BOUND('',#358,.T.);
#238=CYLINDRICAL_SURFACE('',#359,34.0);
#239=SURFACE_STYLE_USAGE(.BOTH.,#360);
#240=FACE_OUTER_BOUND('',#361,.T.);
#241=FACE_BOUND('',#362,.T.);
#242=PLANE('',#363);
#243=CURVE_STYLE('',#364,POSITIVE_LENGTH_MEASURE(1.0E-006),#365);
#244=CIRCLE('',#366,19.4530361506539);
#245=POINT_STYLE(' ',#367,POSITIVE_LENGTH_MEASURE(1.0E-006),#368);
#246=CARTESIAN_POINT('',(34.0,1.90999161648688E-014,9.39999999999981));
#247=POINT_STYLE(' ',#369,POSITIVE_LENGTH_MEASURE(1.0E-006),#370);
#248=CARTESIAN_POINT('',(-34.0,4.64585029209369E-015,14.0));
#249=POINT_STYLE(' ',#371,POSITIVE_LENGTH_MEASURE(1.0E-006),#372);
#250=CARTESIAN_POINT('',(-19.4530361506537,5.57005628029141E-015,-1.4210854715202E-014));
#251=CURVE_STYLE('',#373,POSITIVE_LENGTH_MEASURE(1.0E-006),#374);
#252=CIRCLE('',#375,34.0);
#253=CURVE_STYLE('',#376,POSITIVE_LENGTH_MEASURE(1.0E-006),#377);
#254=CIRCLE('',#378,18.5);
#255=SURFACE_STYLE_USAGE(.BOTH.,#379);
#256=FACE_OUTER_BOUND('',#380,.T.);
#257=SPHERICAL_SURFACE('',#381,50.0000000000002);
#258=CURVE_STYLE('',#382,POSITIVE_LENGTH_MEASURE(1.0E-006),#383);
#259=CIRCLE('',#384,50.0000000000002);
#260=CURVE_STYLE('',#385,POSITIVE_LENGTH_MEASURE(1.0E-006),#386);
#261=LINE('',#387,#388);
#262=POINT_STYLE(' ',#389,POSITIVE_LENGTH_MEASURE(1.0E-006),#390);
#263=CARTESIAN_POINT('',(19.4530361506538,1.5537055293122E-014,-1.4210854715202E-014));
#264=CURVE_STYLE('',#391,POSITIVE_LENGTH_MEASURE(1.0E-006),#392);
#265=LINE('',#393,#394);
#266=PRODUCT_CONTEXT('',#53,'mechanical');
#267=PRODUCT_DEFINITION_FORMATION_WITH_SPECIFIED_SOURCE(' ','NONE',#152,.NOT_KNOWN.);
#268=CARTESIAN_POINT('',(0.0,0.0,0.0));
#269=DIRECTION('',(0.0,0.0,1.0));
#270=DIRECTION('',(1.0,0.0,0.0));
#271= (NAMED_UNIT(#160)LENGTH_UNIT()SI_UNIT(.MILLI.,.METRE.));
#272=DRAUGHTING_PRE_DEFINED_CURVE_FONT('continuous');
#273=COLOUR_RGB('',0.509803950786591,0.509803950786591,0.588235318660736);
#274=AXIS2_PLACEMENT_3D('',#396,#397,#398);
#275=DRAUGHTING_PRE_DEFINED_CURVE_FONT('continuous');
#276=COLOUR_RGB('',0.509803950786591,0.509803950786591,0.588235318660736);
#277=AXIS2_PLACEMENT_3D('',#399,#400,#401);
#278=DRAUGHTING_PRE_DEFINED_CURVE_FONT('continuous');
#279=COLOUR_RGB('',0.509803950786591,0.509803950786591,0.588235318660736);
#280=CARTESIAN_POINT('',(-18.5,3.42222301105119E-015,6.49999999999999));
#281=VECTOR('',#402,1.0);
#282=PRE_DEFINED_MARKER('');
#283=COLOUR_RGB('',0.509803950786591,0.509803950786591,0.588235318660736);
#284=PRE_DEFINED_MARKER('');
#285=COLOUR_RGB('',0.509803950786591,0.509803950786591,0.588235318660736);
#286=DRAUGHTING_PRE_DEFINED_CURVE_FONT('continuous');
#287=COLOUR_RGB('',0.509803950786591,0.509803950786591,0.588235318660736);
#288=AXIS2_PLACEMENT_3D('',#403,#404,#405);
#289=PRE_DEFINED_MARKER('');
#290=COLOUR_RGB('',0.509803950786591,0.509803950786591,0.588235318660736);
#291=DRAUGHTING_PRE_DEFINED_CURVE_FONT('continuous');
#292=COLOUR_RGB('',0.509803950786591,0.509803950786591,0.588235318660736);
#293=AXIS2_PLACEMENT_3D('',#406,#407,#408);
#294=DRAUGHTING_PRE_DEFINED_CURVE_FONT('continuous');
#295=COLOUR_RGB('',0.509803950786591,0.509803950786591,0.588235318660736);
#296=CARTESIAN_POINT('',(19.0,1.43424031813997E-014,13.5));
#297=VECTOR('',#409,1.0);
#298=SURFACE_SIDE_STYLE('',(#410));
#299=EDGE_LOOP('',(#411,#412,#413,#414));
#300=AXIS2_PLACEMENT_3D('',#415,#416,#417);
#301=DRAUGHTING_PRE_DEFINED_CURVE_FONT('continuous');
#302=COLOUR_RGB('',0.509803950786591,0.509803950786591,0.588235318660736);
#303=AXIS2_PLACEMENT_3D('',#418,#419,#420);
#304=DRAUGHTING_PRE_DEFINED_CURVE_FONT('continuous');
#305=COLOUR_RGB('',0.509803950786591,0.509803950786591,0.588235318660736);
#306=AXIS2_PLACEMENT_3D('',#421,#422,#423);
#307=SURFACE_SIDE_STYLE('',(#424));
#308=EDGE_LOOP('',(#425,#426,#427,#428));
#309=AXIS2_PLACEMENT_3D('',#429,#430,#431);
#310=PRE_DEFINED_MARKER('');
#311=COLOUR_RGB('',0.509803950786591,0.509803950786591,0.588235318660736);
#312=PRE_DEFINED_MARKER('');
#313=COLOUR_RGB('',0.509803950786591,0.509803950786591,0.588235318660736);
#314=SURFACE_SIDE_STYLE('',(#432));
#315=EDGE_LOOP('',(#433,#434,#435,#436));
#316=AXIS2_PLACEMENT_3D('',#437,#438,#439);
#317=DRAUGHTING_PRE_DEFINED_CURVE_FONT('continuous');
#318=COLOUR_RGB('',0.509803950786591,0.509803950786591,0.588235318660736);
#319=AXIS2_PLACEMENT_3D('',#440,#441,#442);
#320=DRAUGHTING_PRE_DEFINED_CURVE_FONT('continuous');
#321=COLOUR_RGB('',0.509803950786591,0.509803950786591,0.588235318660736);
#322=CARTESIAN_POINT('',(18.5,1.41968007791284E-014,6.49999999999999));
#323=VECTOR('',#443,1.0);
#324=SURFACE_SIDE_STYLE('',(#444));
#325=EDGE_LOOP('',(#445,#446,#447,#448));
#326=AXIS2_PLACEMENT_3D('',#449,#450,#451);
#327=PRE_DEFINED_MARKER('');
#328=COLOUR_RGB('',0.509803950786591,0.509803950786591,0.588235318660736);
#329=DRAUGHTING_PRE_DEFINED_CURVE_FONT('continuous');
#330=COLOUR_RGB('',0.509803950786591,0.509803950786591,0.588235318660736);
#331=AXIS2_PLACEMENT_3D('',#452,#453,#454);
#332=DRAUGHTING_PRE_DEFINED_CURVE_FONT('continuous');
#333=COLOUR_RGB('',0.509803950786591,0.509803950786591,0.588235318660736);
#334=CARTESIAN_POINT('',(-19.0,3.27662060877987E-015,13.5));
#335=VECTOR('',#455,1.0);
#336=SURFACE_SIDE_STYLE('',(#456));
#337=EDGE_LOOP('',(#457,#458,#459,#460));
#338=AXIS2_PLACEMENT_3D('',#461,#462,#463);
#339=SURFACE_SIDE_STYLE('',(#464));
#340=SURFACE_SIDE_STYLE('',(#465));
#341=EDGE_LOOP('',(#466,#467));
#342=EDGE_LOOP('',(#468,#469));
#343=AXIS2_PLACEMENT_3D('',#470,#471,#472);
#344=PRE_DEFINED_MARKER('');
#345=COLOUR_RGB('',0.509803950786591,0.509803950786591,0.588235318660736);
#346=DRAUGHTING_PRE_DEFINED_CURVE_FONT('continuous');
#347=COLOUR_RGB('',0.509803950786591,0.509803950786591,0.588235318660736);
#348=AXIS2_PLACEMENT_3D('',#473,#474,#475);
#349=DRAUGHTING_PRE_DEFINED_CURVE_FONT('continuous');
#350=COLOUR_RGB('',0.509803950786591,0.509803950786591,0.588235318660736);
#351=AXIS2_PLACEMENT_3D('',#476,#477,#478);
#352=PRE_DEFINED_MARKER('');
#353=COLOUR_RGB('',0.509803950786591,0.509803950786591,0.588235318660736);
#354=SURFACE_SIDE_STYLE('',(#479));
#355=EDGE_LOOP('',(#480,#481,#482,#483));
#356=AXIS2_PLACEMENT_3D('',#484,#485,#486);
#357=SURFACE_SIDE_STYLE('',(#487));
#358=EDGE_LOOP('',(#488,#489,#490,#491));
#359=AXIS2_PLACEMENT_3D('',#492,#493,#494);
#360=SURFACE_SIDE_STYLE('',(#495));
#361=EDGE_LOOP('',(#496,#497));
#362=EDGE_LOOP('',(#498,#499));
#363=AXIS2_PLACEMENT_3D('',#500,#501,#502);
#364=DRAUGHTING_PRE_DEFINED_CURVE_FONT('continuous');
#365=COLOUR_RGB('',0.509803950786591,0.509803950786591,0.588235318660736);
#366=AXIS2_PLACEMENT_3D('',#503,#504,#505);
#367=PRE_DEFINED_MARKER('');
#368=COLOUR_RGB('',0.509803950786591,0.509803950786591,0.588235318660736);
#369=PRE_DEFINED_MARKER('');
#370=COLOUR_RGB('',0.509803950786591,0.509803950786591,0.588235318660736);
#371=PRE_DEFINED_MARKER('');
#372=COLOUR_RGB('',0.509803950786591,0.509803950786591,0.588235318660736);
#373=DRAUGHTING_PRE_DEFINED_CURVE_FONT('continuous');
#374=COLOUR_RGB('',0.509803950786591,0.509803950786591,0.588235318660736);
#375=AXIS2_PLACEMENT_3D('',#506,#507,#508);
#376=DRAUGHTING_PRE_DEFINED_CURVE_FONT('continuous');
#377=COLOUR_RGB('',0.509803950786591,0.509803950786591,0.588235318660736);
#378=AXIS2_PLACEMENT_3D('',#509,#510,#511);
#379=SURFACE_SIDE_STYLE('',(#512));
#380=EDGE_LOOP('',(#513,#514,#515,#516));
#381=AXIS2_PLACEMENT_3D('',#517,#518,#519);
#382=DRAUGHTING_PRE_DEFINED_CURVE_FONT('continuous');
#383=COLOUR_RGB('',0.509803950786591,0.509803950786591,0.588235318660736);
#384=AXIS2_PLACEMENT_3D('',#520,#521,#522);
#385=DRAUGHTING_PRE_DEFINED_CURVE_FONT('continuous');
#386=COLOUR_RGB('',0.509803950786591,0.509803950786591,0.588235318660736);
#387=CARTESIAN_POINT('',(-34.0,-1.09145145935951E-015,11.6999999999999));
#388=VECTOR('',#523,1.0);
#389=PRE_DEFINED_MARKER('');
#390=COLOUR_RGB('',0.509803950786591,0.509803950786591,0.588235318660736);
#391=DRAUGHTING_PRE_DEFINED_CURVE_FONT('continuous');
#392=COLOUR_RGB('',0.509803950786591,0.509803950786591,0.588235318660736);
#393=CARTESIAN_POINT('',(34.0,1.87104752495391E-014,11.6999999999999));
#394=VECTOR('',#524,1.0);
#396=CARTESIAN_POINT('',(0.0,8.80951189508977E-015,14.0));
#397=DIRECTION('',(-0.0,0.0,-1.0));
#398=DIRECTION('',(-1.0,-1.68744169160388E-016,0.0));
#399=CARTESIAN_POINT('',(0.0,8.80951189508977E-015,-2.8421709430404E-014));
#400=DIRECTION('',(-0.0,0.0,-1.0));
#401=DIRECTION('',(-1.0,-1.68744169160388E-016,0.0));
#402=DIRECTION('',(0.0,0.0,-1.0));
#403=CARTESIAN_POINT('',(0.0,8.80951189508977E-015,14.0));
#404=DIRECTION('',(-0.0,0.0,-1.0));
#405=DIRECTION('',(-1.0,-1.68744169160388E-016,0.0));
#406=CARTESIAN_POINT('',(0.0,8.80951189508977E-015,14.0));
#407=DIRECTION('',(-0.0,0.0,-1.0));
#408=DIRECTION('',(-1.0,-1.68744169160388E-016,0.0));
#409=DIRECTION('',(0.707106781186548,2.05912892006194E-016,0.707106781186547));
#410=SURFACE_STYLE_FILL_AREA(#525);
#411=ORIENTED_EDGE('',*,*,#71,.F.);
#412=ORIENTED_EDGE('',*,*,#141,.F.);
#413=ORIENTED_EDGE('',*,*,#101,.F.);
#414=ORIENTED_EDGE('',*,*,#89,.T.);
#415=CARTESIAN_POINT('',(0.0,8.80951189508977E-015,6.49999999999999));
#416=DIRECTION('',(0.0,-0.0,1.0));
#417=DIRECTION('',(-1.0,-1.68744169160388E-016,0.0));
#418=CARTESIAN_POINT('',(0.0,8.80951189508977E-015,14.0));
#419=DIRECTION('',(-0.0,0.0,-1.0));
#420=DIRECTION('',(-1.0,-1.68744169160388E-016,0.0));
#421=CARTESIAN_POINT('',(0.0,8.80951189508977E-015,-2.8421709430404E-014));
#422=DIRECTION('',(-0.0,0.0,-1.0));
#423=DIRECTION('',(-1.0,-1.68744169160388E-016,0.0));
#424=SURFACE_STYLE_FILL_AREA(#526);
#425=ORIENTED_EDGE('',*,*,#109,.T.);
#426=ORIENTED_EDGE('',*,*,#99,.T.);
#427=ORIENTED_EDGE('',*,*,#83,.T.);
#428=ORIENTED_EDGE('',*,*,#81,.F.);
#429=CARTESIAN_POINT('',(0.0,8.80951189508977E-015,13.5));
#430=DIRECTION('',(0.0,-0.0,1.0));
#431=DIRECTION('',(-1.0,-1.68744169160388E-016,0.0));
#432=SURFACE_STYLE_FILL_AREA(#527);
#433=ORIENTED_EDGE('',*,*,#147,.T.);
#434=ORIENTED_EDGE('',*,*,#119,.T.);
#435=ORIENTED_EDGE('',*,*,#151,.T.);
#436=ORIENTED_EDGE('',*,*,#77,.T.);
#437=CARTESIAN_POINT('',(0.0,8.80951189508977E-015,7.0));
#438=DIRECTION('',(0.0,-0.0,1.0));
#439=DIRECTION('',(-1.0,-1.68744169160388E-016,0.0));
#440=CARTESIAN_POINT('',(0.0,8.80951189508977E-015,13.0));
#441=DIRECTION('',(-0.0,0.0,-1.0));
#442=DIRECTION('',(-1.0,-1.68744169160388E-016,0.0));
#443=DIRECTION('',(0.0,0.0,1.0));
#444=SURFACE_STYLE_FILL_AREA(#528);
#445=ORIENTED_EDGE('',*,*,#109,.F.);
#446=ORIENTED_EDGE('',*,*,#87,.F.);
#447=ORIENTED_EDGE('',*,*,#83,.F.);
#448=ORIENTED_EDGE('',*,*,#141,.T.);
#449=CARTESIAN_POINT('',(0.0,8.80951189508977E-015,13.5));
#450=DIRECTION('',(0.0,-0.0,1.0));
#451=DIRECTION('',(-1.0,-1.68744169160388E-016,0.0));
#452=CARTESIAN_POINT('',(-9.59232693276135E-014,1.07725929588766E-014,-1.4210854715202E-014));
#453=DIRECTION('',(0.0,0.0,-1.0));
#454=DIRECTION('',(0.0,-1.0,0.0));
#455=DIRECTION('',(0.707106781186548,2.05912892006194E-016,-0.707106781186547));
#456=SURFACE_STYLE_FILL_AREA(#529);
#457=ORIENTED_EDGE('',*,*,#71,.T.);
#458=ORIENTED_EDGE('',*,*,#69,.T.);
#459=ORIENTED_EDGE('',*,*,#101,.T.);
#460=ORIENTED_EDGE('',*,*,#99,.F.);
#461=CARTESIAN_POINT('',(0.0,8.80951189508977E-015,6.49999999999999));
#462=DIRECTION('',(0.0,-0.0,1.0));
#463=DIRECTION('',(-1.0,-1.68744169160388E-016,0.0));
#464=SURFACE_STYLE_FILL_AREA(#530);
#465=SURFACE_STYLE_FILL_AREA(#531);
#466=ORIENTED_EDGE('',*,*,#67,.F.);
#467=ORIENTED_EDGE('',*,*,#77,.F.);
#468=ORIENTED_EDGE('',*,*,#81,.T.);
#469=ORIENTED_EDGE('',*,*,#87,.T.);
#470=CARTESIAN_POINT('',(-26.75,5.53368989861491E-015,14.0));
#471=DIRECTION('',(0.0,0.0,1.0));
#472=DIRECTION('',(-1.0,-1.22460635382238E-016,0.0));
#473=CARTESIAN_POINT('',(0.0,8.80951189508977E-015,9.39999999999981));
#474=DIRECTION('',(0.0,0.0,1.0));
#475=DIRECTION('',(-1.0,-1.68744169160388E-016,0.0));
#476=CARTESIAN_POINT('',(-9.59232693276135E-014,1.07725929588766E-014,46.0606055596469));
#477=DIRECTION('',(2.44921270764476E-016,-1.0,0.0));
#478=DIRECTION('',(-0.0,0.0,1.0));
#479=SURFACE_STYLE_FILL_AREA(#532);
#480=ORIENTED_EDGE('',*,*,#145,.F.);
#481=ORIENTED_EDGE('',*,*,#131,.F.);
#482=ORIENTED_EDGE('',*,*,#121,.F.);
#483=ORIENTED_EDGE('',*,*,#139,.F.);
#484=CARTESIAN_POINT('',(-9.59232693276135E-014,1.07725929588766E-014,46.0606055596469));
#485=DIRECTION('',(0.0,0.0,-1.0));
#486=DIRECTION('',(1.0,1.22460635382238E-016,0.0));
#487=SURFACE_STYLE_FILL_AREA(#533);
#488=ORIENTED_EDGE('',*,*,#147,.F.);
#489=ORIENTED_EDGE('',*,*,#67,.T.);
#490=ORIENTED_EDGE('',*,*,#151,.F.);
#491=ORIENTED_EDGE('',*,*,#139,.T.);
#492=CARTESIAN_POINT('',(0.0,8.80951189508977E-015,7.0));
#493=DIRECTION('',(0.0,-0.0,1.0));
#494=DIRECTION('',(-1.0,-1.68744169160388E-016,0.0));
#495=SURFACE_STYLE_FILL_AREA(#534);
#496=ORIENTED_EDGE('',*,*,#131,.T.);
#497=ORIENTED_EDGE('',*,*,#107,.T.);
#498=ORIENTED_EDGE('',*,*,#69,.F.);
#499=ORIENTED_EDGE('',*,*,#89,.F.);
#500=CARTESIAN_POINT('',(-26.25,4.73769576863037E-015,-1.4210854715202E-014));
#501=DIRECTION('',(0.0,0.0,-1.0));
#502=DIRECTION('',(1.0,1.22460635382238E-016,0.0));
#503=CARTESIAN_POINT('',(-9.59232693276135E-014,1.07725929588766E-014,-1.4210854715202E-014));
#504=DIRECTION('',(0.0,0.0,-1.0));
#505=DIRECTION('',(0.0,-1.0,0.0));
#506=CARTESIAN_POINT('',(0.0,8.80951189508977E-015,9.39999999999981));
#507=DIRECTION('',(0.0,0.0,1.0));
#508=DIRECTION('',(-1.0,-1.68744169160388E-016,0.0));
#509=CARTESIAN_POINT('',(0.0,8.80951189508977E-015,13.0));
#510=DIRECTION('',(-0.0,0.0,-1.0));
#511=DIRECTION('',(-1.0,-1.68744169160388E-016,0.0));
#512=SURFACE_STYLE_FILL_AREA(#535);
#513=ORIENTED_EDGE('',*,*,#145,.T.);
#514=ORIENTED_EDGE('',*,*,#119,.F.);
#515=ORIENTED_EDGE('',*,*,#121,.T.);
#516=ORIENTED_EDGE('',*,*,#107,.F.);
#517=CARTESIAN_POINT('',(-9.59232693276135E-014,1.07725929588766E-014,46.0606055596469));
#518=DIRECTION('',(0.0,0.0,-1.0));
#519=DIRECTION('',(1.0,1.22460635382238E-016,0.0));
#520=CARTESIAN_POINT('',(-9.59232693276135E-014,1.07725929588766E-014,46.0606055596469));
#521=DIRECTION('',(2.44921270764476E-016,-1.0,0.0));
#522=DIRECTION('',(-0.0,0.0,1.0));
#523=DIRECTION('',(0.0,0.0,-1.0));
#524=DIRECTION('',(-0.0,-0.0,1.0));
#525=FILL_AREA_STYLE('',(#536));
#526=FILL_AREA_STYLE('',(#537));
#527=FILL_AREA_STYLE('',(#538));
#528=FILL_AREA_STYLE('',(#539));
#529=FILL_AREA_STYLE('',(#540));
#530=FILL_AREA_STYLE('',(#541));
#531=FILL_AREA_STYLE('',(#542));
#532=FILL_AREA_STYLE('',(#543));
#533=FILL_AREA_STYLE('',(#544));
#534=FILL_AREA_STYLE('',(#545));
#535=FILL_AREA_STYLE('',(#546));
#536=FILL_AREA_STYLE_COLOUR('',#547);
#537=FILL_AREA_STYLE_COLOUR('',#548);
#538=FILL_AREA_STYLE_COLOUR('',#549);
#539=FILL_AREA_STYLE_COLOUR('',#550);
#540=FILL_AREA_STYLE_COLOUR('',#551);
#541=FILL_AREA_STYLE_COLOUR('',#552);
#542=FILL_AREA_STYLE_COLOUR('',#553);
#543=FILL_AREA_STYLE_COLOUR('',#554);
#544=FILL_AREA_STYLE_COLOUR('',#555);
#545=FILL_AREA_STYLE_COLOUR('',#556);
#546=FILL_AREA_STYLE_COLOUR('',#557);
#547=COLOUR_RGB('',0.509803950786591,0.509803950786591,0.588235318660736);
#548=COLOUR_RGB('',0.509803950786591,0.509803950786591,0.588235318660736);
#549=COLOUR_RGB('',0.509803950786591,0.509803950786591,0.588235318660736);
#550=COLOUR_RGB('',0.509803950786591,0.509803950786591,0.588235318660736);
#551=COLOUR_RGB('',0.509803950786591,0.509803950786591,0.588235318660736);
#552=COLOUR_RGB('',0.509803950786591,0.509803950786591,0.588235318660736);
#553=COLOUR_RGB('',0.509803950786591,0.509803950786591,0.588235318660736);
#554=COLOUR_RGB('',0.509803950786591,0.509803950786591,0.588235318660736);
#555=COLOUR_RGB('',0.509803950786591,0.509803950786591,0.588235318660736);
#556=COLOUR_RGB('',0.509803950786591,0.509803950786591,0.588235318660736);
#557=COLOUR_RGB('',0.509803950786591,0.509803950786591,0.588235318660736);
ENDSEC;
END-ISO-10303-21;
