ISO-10303-21;
HEADER;
FILE_DESCRIPTION(('STEP AP214'),'1');
FILE_NAME(' ','  ',('TraceParts'),('TraceParts S.A.'),'XStep 1.0',' ',' ');
FILE_SCHEMA(('automotive_design'));
ENDSEC;
DATA;
#1=MECHANICAL_DESIGN_GEOMETRIC_PRESENTATION_REPRESENTATION(' ',(#10,#11,#12,#13,#14,#15,#16,#17,#18,#19,#20,#21,#22,#23,#24,#25,#26,#27,#28,#29,#30,#31,#32,#33,#34,#35,#36,#37,#38,#39,#40,#41,#42,#43,#44,#45,#46,#47,#48,#49,#50,#51,#52),#6);
#2=PRODUCT_DEFINITION_CONTEXT('',#53,'design');
#3=APPLICATION_PROTOCOL_DEFINITION('INTERNATIONAL STANDARD','automotive_design',1994,#53);
#4=PRODUCT_CATEGORY_RELATIONSHIP('NONE','NONE',#54,#55);
#5=SHAPE_DEFINITION_REPRESENTATION(#56,#57);
#6= (GEOMETRIC_REPRESENTATION_CONTEXT(3)GLOBAL_UNCERTAINTY_ASSIGNED_CONTEXT((#60))GLOBAL_UNIT_ASSIGNED_CONTEXT((#62,#63,#64))REPRESENTATION_CONTEXT('NONE','WORKSPACE'));
#10=STYLED_ITEM('',(#66),#67);
#11=STYLED_ITEM('',(#68),#69);
#12=STYLED_ITEM('',(#70),#71);
#13=STYLED_ITEM('',(#72),#73);
#14=STYLED_ITEM('',(#74),#75);
#15=STYLED_ITEM('',(#76),#77);
#16=STYLED_ITEM('',(#78),#79);
#17=STYLED_ITEM('',(#80),#81);
#18=STYLED_ITEM('',(#82),#83);
#19=STYLED_ITEM('',(#84),#85);
#20=STYLED_ITEM('',(#86),#87);
#21=STYLED_ITEM('',(#88),#89);
#22=STYLED_ITEM('',(#90),#91);
#23=STYLED_ITEM('',(#92),#93);
#24=STYLED_ITEM('',(#94),#95);
#25=STYLED_ITEM('',(#96),#97);
#26=STYLED_ITEM('',(#98),#99);
#27=STYLED_ITEM('',(#100),#101);
#28=STYLED_ITEM('',(#102),#103);
#29=STYLED_ITEM('',(#104),#105);
#30=STYLED_ITEM('',(#106),#107);
#31=STYLED_ITEM('',(#108),#109);
#32=STYLED_ITEM('',(#110),#111);
#33=STYLED_ITEM('',(#112),#113);
#34=STYLED_ITEM('',(#114),#115);
#35=STYLED_ITEM('',(#116),#117);
#36=STYLED_ITEM('',(#118),#119);
#37=STYLED_ITEM('',(#120),#121);
#38=STYLED_ITEM('',(#122),#123);
#39=STYLED_ITEM('',(#124),#125);
#40=STYLED_ITEM('',(#126),#127);
#41=STYLED_ITEM('',(#128),#129);
#42=STYLED_ITEM('',(#130),#131);
#43=STYLED_ITEM('',(#132),#133);
#44=STYLED_ITEM('',(#134),#135);
#45=STYLED_ITEM('',(#136),#137);
#46=STYLED_ITEM('',(#138),#139);
#47=STYLED_ITEM('',(#140),#141);
#48=STYLED_ITEM('',(#142),#143);
#49=STYLED_ITEM('',(#144),#145);
#50=STYLED_ITEM('',(#146),#147);
#51=STYLED_ITEM('',(#148),#149);
#52=STYLED_ITEM('',(#150),#151);
#53=APPLICATION_CONTEXT(' ');
#54=PRODUCT_CATEGORY('part','NONE');
#55=PRODUCT_RELATED_PRODUCT_CATEGORY('detail',' ',(#152));
#56=PRODUCT_DEFINITION_SHAPE('NONE','NONE',#153);
#57=ADVANCED_BREP_SHAPE_REPRESENTATION('1',(#149,#154),#6);
#60=UNCERTAINTY_MEASURE_WITH_UNIT(LENGTH_MEASURE(1.0E-006),#62,'','');
#62= (CONVERSION_BASED_UNIT('MILLIMETRE',#157)LENGTH_UNIT()NAMED_UNIT(#160));
#63= (NAMED_UNIT(#162)PLANE_ANGLE_UNIT()SI_UNIT($,.RADIAN.));
#64= (NAMED_UNIT(#162)SOLID_ANGLE_UNIT()SI_UNIT($,.STERADIAN.));
#66=PRESENTATION_STYLE_ASSIGNMENT((#168));
#67=EDGE_CURVE('',#85,#115,#169,.T.);
#68=PRESENTATION_STYLE_ASSIGNMENT((#170));
#69=EDGE_CURVE('',#123,#133,#171,.T.);
#70=PRESENTATION_STYLE_ASSIGNMENT((#172));
#71=VERTEX_POINT('',#173);
#72=PRESENTATION_STYLE_ASSIGNMENT((#174));
#73=ADVANCED_FACE('',(#175),#176,.T.);
#74=PRESENTATION_STYLE_ASSIGNMENT((#177));
#75=VERTEX_POINT('',#178);
#76=PRESENTATION_STYLE_ASSIGNMENT((#179));
#77=VERTEX_POINT('',#180);
#78=PRESENTATION_STYLE_ASSIGNMENT((#181));
#79=EDGE_CURVE('',#71,#141,#182,.T.);
#80=PRESENTATION_STYLE_ASSIGNMENT((#183));
#81=EDGE_CURVE('',#151,#123,#184,.T.);
#82=PRESENTATION_STYLE_ASSIGNMENT((#185));
#83=ADVANCED_FACE('',(#186),#187,.T.);
#84=PRESENTATION_STYLE_ASSIGNMENT((#188));
#85=VERTEX_POINT('',#189);
#86=PRESENTATION_STYLE_ASSIGNMENT((#190));
#87=ADVANCED_FACE('',(#191),#192,.F.);
#88=PRESENTATION_STYLE_ASSIGNMENT((#193));
#89=EDGE_CURVE('',#77,#141,#194,.T.);
#90=PRESENTATION_STYLE_ASSIGNMENT((#195));
#91=ADVANCED_FACE('',(#196,#197),#198,.T.);
#92=PRESENTATION_STYLE_ASSIGNMENT((#199));
#93=EDGE_CURVE('',#151,#119,#200,.T.);
#94=PRESENTATION_STYLE_ASSIGNMENT((#201));
#95=EDGE_CURVE('',#75,#71,#202,.T.);
#96=PRESENTATION_STYLE_ASSIGNMENT((#203));
#97=EDGE_CURVE('',#145,#137,#204,.T.);
#98=PRESENTATION_STYLE_ASSIGNMENT((#205));
#99=EDGE_CURVE('',#133,#119,#206,.T.);
#100=PRESENTATION_STYLE_ASSIGNMENT((#207));
#101=EDGE_CURVE('',#119,#151,#208,.T.);
#102=PRESENTATION_STYLE_ASSIGNMENT((#209));
#103=ADVANCED_FACE('',(#210,#211),#212,.T.);
#104=PRESENTATION_STYLE_ASSIGNMENT((#213));
#105=ADVANCED_FACE('',(#214),#215,.F.);
#106=PRESENTATION_STYLE_ASSIGNMENT((#216));
#107=EDGE_CURVE('',#71,#75,#217,.T.);
#108=PRESENTATION_STYLE_ASSIGNMENT((#218));
#109=ADVANCED_FACE('',(#219),#220,.T.);
#110=PRESENTATION_STYLE_ASSIGNMENT((#221));
#111=ADVANCED_FACE('',(#222),#223,.F.);
#112=PRESENTATION_STYLE_ASSIGNMENT((#224));
#113=EDGE_CURVE('',#75,#85,#225,.T.);
#114=PRESENTATION_STYLE_ASSIGNMENT((#226));
#115=VERTEX_POINT('',#227);
#116=PRESENTATION_STYLE_ASSIGNMENT((#228));
#117=EDGE_CURVE('',#115,#85,#229,.T.);
#118=PRESENTATION_STYLE_ASSIGNMENT((#230));
#119=VERTEX_POINT('',#231);
#120=PRESENTATION_STYLE_ASSIGNMENT((#232));
#121=EDGE_CURVE('',#133,#123,#233,.T.);
#122=PRESENTATION_STYLE_ASSIGNMENT((#234));
#123=VERTEX_POINT('',#235);
#124=PRESENTATION_STYLE_ASSIGNMENT((#236));
#125=EDGE_CURVE('',#137,#145,#237,.T.);
#126=PRESENTATION_STYLE_ASSIGNMENT((#238));
#127=EDGE_CURVE('',#119,#137,#239,.T.);
#128=PRESENTATION_STYLE_ASSIGNMENT((#240));
#129=ADVANCED_FACE('',(#241),#242,.F.);
#130=PRESENTATION_STYLE_ASSIGNMENT((#243));
#131=EDGE_CURVE('',#115,#71,#244,.T.);
#132=PRESENTATION_STYLE_ASSIGNMENT((#245));
#133=VERTEX_POINT('',#246);
#134=PRESENTATION_STYLE_ASSIGNMENT((#247));
#135=EDGE_CURVE('',#141,#77,#248,.T.);
#136=PRESENTATION_STYLE_ASSIGNMENT((#249));
#137=VERTEX_POINT('',#250);
#138=PRESENTATION_STYLE_ASSIGNMENT((#251));
#139=ADVANCED_FACE('',(#252),#253,.T.);
#140=PRESENTATION_STYLE_ASSIGNMENT((#254));
#141=VERTEX_POINT('',#255);
#142=PRESENTATION_STYLE_ASSIGNMENT((#256));
#143=EDGE_CURVE('',#145,#151,#257,.T.);
#144=PRESENTATION_STYLE_ASSIGNMENT((#258));
#145=VERTEX_POINT('',#259);
#146=PRESENTATION_STYLE_ASSIGNMENT((#260));
#147=EDGE_CURVE('',#77,#75,#261,.T.);
#148=PRESENTATION_STYLE_ASSIGNMENT((#262));
#149=MANIFOLD_SOLID_BREP('1',#263);
#150=PRESENTATION_STYLE_ASSIGNMENT((#264));
#151=VERTEX_POINT('',#265);
#152=PRODUCT('1','1','PART-1-DESC',(#266));
#153=PRODUCT_DEFINITION('NONE','NONE',#267,#2);
#154=AXIS2_PLACEMENT_3D('',#268,#269,#270);
#157=LENGTH_MEASURE_WITH_UNIT(LENGTH_MEASURE(1.0),#271);
#160=DIMENSIONAL_EXPONENTS(1.0,0.0,0.0,0.0,0.0,0.0,0.0);
#162=DIMENSIONAL_EXPONENTS(0.0,0.0,0.0,0.0,0.0,0.0,0.0);
#168=CURVE_STYLE('',#272,POSITIVE_LENGTH_MEASURE(1.0E-006),#273);
#169=CIRCLE('',#274,15.5);
#170=CURVE_STYLE('',#275,POSITIVE_LENGTH_MEASURE(1.0E-006),#276);
#171=CIRCLE('',#277,28.0);
#172=POINT_STYLE(' ',#278,POSITIVE_LENGTH_MEASURE(1.0E-006),#279);
#173=CARTESIAN_POINT('',(15.5000000000001,1.25560240795624E-014,10.3999999999999));
#174=SURFACE_STYLE_USAGE(.BOTH.,#280);
#175=FACE_OUTER_BOUND('',#281,.T.);
#176=CYLINDRICAL_SURFACE('',#282,28.0);
#177=POINT_STYLE(' ',#283,POSITIVE_LENGTH_MEASURE(1.0E-006),#284);
#178=CARTESIAN_POINT('',(-15.5,6.12762398021876E-015,10.3999999999999));
#179=POINT_STYLE(' ',#285,POSITIVE_LENGTH_MEASURE(1.0E-006),#286);
#180=CARTESIAN_POINT('',(-16.3,6.07863972606587E-015,11.2));
#181=CURVE_STYLE('',#287,POSITIVE_LENGTH_MEASURE(1.0E-006),#288);
#182=LINE('',#289,#290);
#183=CURVE_STYLE('',#291,POSITIVE_LENGTH_MEASURE(1.0E-006),#292);
#184=LINE('',#293,#294);
#185=SURFACE_STYLE_USAGE(.BOTH.,#295);
#186=FACE_OUTER_BOUND('',#296,.T.);
#187=CYLINDRICAL_SURFACE('',#297,28.0);
#188=POINT_STYLE(' ',#298,POSITIVE_LENGTH_MEASURE(1.0E-006),#299);
#189=CARTESIAN_POINT('',(-15.5,5.49082867623113E-015,-2.8421709430404E-014));
#190=SURFACE_STYLE_USAGE(.BOTH.,#300);
#191=FACE_OUTER_BOUND('',#301,.T.);
#192=CONICAL_SURFACE('',#302,15.9,0.785398163397448);
#193=CURVE_STYLE('',#303,POSITIVE_LENGTH_MEASURE(1.0E-006),#304);
#194=CIRCLE('',#305,16.3);
#195=SURFACE_STYLE_USAGE(.BOTH.,#306);
#196=FACE_OUTER_BOUND('',#307,.T.);
#197=FACE_BOUND('',#308,.T.);
#198=PLANE('',#309);
#199=CURVE_STYLE('',#310,POSITIVE_LENGTH_MEASURE(1.0E-006),#311);
#200=CIRCLE('',#312,28.0);
#201=CURVE_STYLE('',#313,POSITIVE_LENGTH_MEASURE(1.0E-006),#314);
#202=CIRCLE('',#315,15.5);
#203=CURVE_STYLE('',#316,POSITIVE_LENGTH_MEASURE(1.0E-006),#317);
#204=CIRCLE('',#318,16.4620969014004);
#205=CURVE_STYLE('',#319,POSITIVE_LENGTH_MEASURE(1.0E-006),#320);
#206=LINE('',#321,#322);
#207=CURVE_STYLE('',#323,POSITIVE_LENGTH_MEASURE(1.0E-006),#324);
#208=CIRCLE('',#325,28.0);
#209=SURFACE_STYLE_USAGE(.BOTH.,#326);
#210=FACE_OUTER_BOUND('',#327,.T.);
#211=FACE_BOUND('',#328,.T.);
#212=PLANE('',#329);
#213=SURFACE_STYLE_USAGE(.BOTH.,#330);
#214=FACE_OUTER_BOUND('',#331,.T.);
#215=CYLINDRICAL_SURFACE('',#332,15.5);
#216=CURVE_STYLE('',#333,POSITIVE_LENGTH_MEASURE(1.0E-006),#334);
#217=CIRCLE('',#335,15.5);
#218=SURFACE_STYLE_USAGE(.BOTH.,#336);
#219=FACE_OUTER_BOUND('',#337,.T.);
#220=SPHERICAL_SURFACE('',#338,41.0000000000001);
#221=SURFACE_STYLE_USAGE(.BOTH.,#339);
#222=FACE_OUTER_BOUND('',#340,.T.);
#223=CYLINDRICAL_SURFACE('',#341,15.5);
#224=CURVE_STYLE('',#342,POSITIVE_LENGTH_MEASURE(1.0E-006),#343);
#225=LINE('',#344,#345);
#226=POINT_STYLE(' ',#346,POSITIVE_LENGTH_MEASURE(1.0E-006),#347);
#227=CARTESIAN_POINT('',(15.5000000000001,1.25560240795623E-014,-2.8421709430404E-014));
#228=CURVE_STYLE('',#348,POSITIVE_LENGTH_MEASURE(1.0E-006),#349);
#229=CIRCLE('',#350,15.5);
#230=POINT_STYLE(' ',#351,POSITIVE_LENGTH_MEASURE(1.0E-006),#352);
#231=CARTESIAN_POINT('',(-28.0,4.42542114840566E-015,7.59999999999994));
#232=CURVE_STYLE('',#353,POSITIVE_LENGTH_MEASURE(1.0E-006),#354);
#233=CIRCLE('',#355,28.0);
#234=POINT_STYLE(' ',#356,POSITIVE_LENGTH_MEASURE(1.0E-006),#357);
#235=CARTESIAN_POINT('',(28.0000000000001,1.61699563350188E-014,11.2));
#236=CURVE_STYLE('',#358,POSITIVE_LENGTH_MEASURE(1.0E-006),#359);
#237=CIRCLE('',#360,16.4620969014004);
#238=CURVE_STYLE('',#361,POSITIVE_LENGTH_MEASURE(1.0E-006),#362);
#239=CIRCLE('',#363,41.0000000000001);
#240=SURFACE_STYLE_USAGE(.BOTH.,#364);
#241=FACE_OUTER_BOUND('',#365,.T.);
#242=CONICAL_SURFACE('',#366,15.9,0.785398163397448);
#243=CURVE_STYLE('',#367,POSITIVE_LENGTH_MEASURE(1.0E-006),#368);
#244=LINE('',#369,#370);
#245=POINT_STYLE(' ',#371,POSITIVE_LENGTH_MEASURE(1.0E-006),#372);
#246=CARTESIAN_POINT('',(-28.0,4.64585029209369E-015,11.2));
#247=CURVE_STYLE('',#373,POSITIVE_LENGTH_MEASURE(1.0E-006),#374);
#248=CIRCLE('',#375,16.3);
#249=POINT_STYLE(' ',#376,POSITIVE_LENGTH_MEASURE(1.0E-006),#377);
#250=CARTESIAN_POINT('',(-16.4620969014002,5.37300967838637E-015,-2.8421709430404E-014));
#251=SURFACE_STYLE_USAGE(.BOTH.,#378);
#252=FACE_OUTER_BOUND('',#379,.T.);
#253=SPHERICAL_SURFACE('',#380,41.0000000000001);
#254=POINT_STYLE(' ',#381,POSITIVE_LENGTH_MEASURE(1.0E-006),#382);
#255=CARTESIAN_POINT('',(16.3000000000001,1.27873157439116E-014,11.2));
#256=CURVE_STYLE('',#383,POSITIVE_LENGTH_MEASURE(1.0E-006),#384);
#257=CIRCLE('',#385,41.0000000000001);
#258=POINT_STYLE(' ',#386,POSITIVE_LENGTH_MEASURE(1.0E-006),#387);
#259=CARTESIAN_POINT('',(16.4620969014003,1.3720082090972E-014,-2.8421709430404E-014));
#260=CURVE_STYLE('',#388,POSITIVE_LENGTH_MEASURE(1.0E-006),#389);
#261=LINE('',#390,#391);
#262=SURFACE_STYLE_USAGE(.BOTH.,#392);
#263=CLOSED_SHELL('',(#105,#73,#87,#139,#109,#129,#91,#83,#103,#111));
#264=POINT_STYLE(' ',#393,POSITIVE_LENGTH_MEASURE(1.0E-006),#394);
#265=CARTESIAN_POINT('',(28.0000000000001,1.65459599798384E-014,7.59999999999988));
#266=PRODUCT_CONTEXT('',#53,'mechanical');
#267=PRODUCT_DEFINITION_FORMATION_WITH_SPECIFIED_SOURCE(' ','NONE',#152,.NOT_KNOWN.);
#268=CARTESIAN_POINT('',(0.0,0.0,0.0));
#269=DIRECTION('',(0.0,0.0,1.0));
#270=DIRECTION('',(1.0,0.0,0.0));
#271= (NAMED_UNIT(#160)LENGTH_UNIT()SI_UNIT(.MILLI.,.METRE.));
#272=DRAUGHTING_PRE_DEFINED_CURVE_FONT('continuous');
#273=COLOUR_RGB('',0.509803950786591,0.509803950786591,0.588235318660736);
#274=AXIS2_PLACEMENT_3D('',#396,#397,#398);
#275=DRAUGHTING_PRE_DEFINED_CURVE_FONT('continuous');
#276=COLOUR_RGB('',0.509803950786591,0.509803950786591,0.588235318660736);
#277=AXIS2_PLACEMENT_3D('',#399,#400,#401);
#278=PRE_DEFINED_MARKER('');
#279=COLOUR_RGB('',0.509803950786591,0.509803950786591,0.588235318660736);
#280=SURFACE_SIDE_STYLE('',(#402));
#281=EDGE_LOOP('',(#403,#404,#405,#406));
#282=AXIS2_PLACEMENT_3D('',#407,#408,#409);
#283=PRE_DEFINED_MARKER('');
#284=COLOUR_RGB('',0.509803950786591,0.509803950786591,0.588235318660736);
#285=PRE_DEFINED_MARKER('');
#286=COLOUR_RGB('',0.509803950786591,0.509803950786591,0.588235318660736);
#287=DRAUGHTING_PRE_DEFINED_CURVE_FONT('continuous');
#288=COLOUR_RGB('',0.509803950786591,0.509803950786591,0.588235318660736);
#289=CARTESIAN_POINT('',(15.9000000000001,1.2671669911737E-014,10.8));
#290=VECTOR('',#410,1.0);
#291=DRAUGHTING_PRE_DEFINED_CURVE_FONT('continuous');
#292=COLOUR_RGB('',0.509803950786591,0.509803950786591,0.588235318660736);
#293=CARTESIAN_POINT('',(28.0000000000001,1.61699563350188E-014,9.39999999999992));
#294=VECTOR('',#411,1.0);
#295=SURFACE_SIDE_STYLE('',(#412));
#296=EDGE_LOOP('',(#413,#414,#415,#416));
#297=AXIS2_PLACEMENT_3D('',#417,#418,#419);
#298=PRE_DEFINED_MARKER('');
#299=COLOUR_RGB('',0.509803950786591,0.509803950786591,0.588235318660736);
#300=SURFACE_SIDE_STYLE('',(#420));
#301=EDGE_LOOP('',(#421,#422,#423,#424));
#302=AXIS2_PLACEMENT_3D('',#425,#426,#427);
#303=DRAUGHTING_PRE_DEFINED_CURVE_FONT('continuous');
#304=COLOUR_RGB('',0.509803950786591,0.509803950786591,0.588235318660736);
#305=AXIS2_PLACEMENT_3D('',#428,#429,#430);
#306=SURFACE_SIDE_STYLE('',(#431));
#307=EDGE_LOOP('',(#432,#433));
#308=EDGE_LOOP('',(#434,#435));
#309=AXIS2_PLACEMENT_3D('',#436,#437,#438);
#310=DRAUGHTING_PRE_DEFINED_CURVE_FONT('continuous');
#311=COLOUR_RGB('',0.509803950786591,0.509803950786591,0.588235318660736);
#312=AXIS2_PLACEMENT_3D('',#439,#440,#441);
#313=DRAUGHTING_PRE_DEFINED_CURVE_FONT('continuous');
#314=COLOUR_RGB('',0.509803950786591,0.509803950786591,0.588235318660736);
#315=AXIS2_PLACEMENT_3D('',#442,#443,#444);
#316=DRAUGHTING_PRE_DEFINED_CURVE_FONT('continuous');
#317=COLOUR_RGB('',0.509803950786591,0.509803950786591,0.588235318660736);
#318=AXIS2_PLACEMENT_3D('',#445,#446,#447);
#319=DRAUGHTING_PRE_DEFINED_CURVE_FONT('continuous');
#320=COLOUR_RGB('',0.509803950786591,0.509803950786591,0.588235318660736);
#321=CARTESIAN_POINT('',(-28.0,-2.0460169426104E-017,9.39999999999992));
#322=VECTOR('',#448,1.0);
#323=DRAUGHTING_PRE_DEFINED_CURVE_FONT('continuous');
#324=COLOUR_RGB('',0.509803950786591,0.509803950786591,0.588235318660736);
#325=AXIS2_PLACEMENT_3D('',#449,#450,#451);
#326=SURFACE_SIDE_STYLE('',(#452));
#327=EDGE_LOOP('',(#453,#454));
#328=EDGE_LOOP('',(#455,#456));
#329=AXIS2_PLACEMENT_3D('',#457,#458,#459);
#330=SURFACE_SIDE_STYLE('',(#460));
#331=EDGE_LOOP('',(#461,#462,#463,#464));
#332=AXIS2_PLACEMENT_3D('',#465,#466,#467);
#333=DRAUGHTING_PRE_DEFINED_CURVE_FONT('continuous');
#334=COLOUR_RGB('',0.509803950786591,0.509803950786591,0.588235318660736);
#335=AXIS2_PLACEMENT_3D('',#468,#469,#470);
#336=SURFACE_SIDE_STYLE('',(#471));
#337=EDGE_LOOP('',(#472,#473,#474,#475));
#338=AXIS2_PLACEMENT_3D('',#476,#477,#478);
#339=SURFACE_SIDE_STYLE('',(#479));
#340=EDGE_LOOP('',(#480,#481,#482,#483));
#341=AXIS2_PLACEMENT_3D('',#484,#485,#486);
#342=DRAUGHTING_PRE_DEFINED_CURVE_FONT('continuous');
#343=COLOUR_RGB('',0.509803950786591,0.509803950786591,0.588235318660736);
#344=CARTESIAN_POINT('',(-15.5,3.59347208603034E-015,5.19999999999996));
#345=VECTOR('',#487,1.0);
#346=PRE_DEFINED_MARKER('');
#347=COLOUR_RGB('',0.509803950786591,0.509803950786591,0.588235318660736);
#348=DRAUGHTING_PRE_DEFINED_CURVE_FONT('continuous');
#349=COLOUR_RGB('',0.509803950786591,0.509803950786591,0.588235318660736);
#350=AXIS2_PLACEMENT_3D('',#488,#489,#490);
#351=PRE_DEFINED_MARKER('');
#352=COLOUR_RGB('',0.509803950786591,0.509803950786591,0.588235318660736);
#353=DRAUGHTING_PRE_DEFINED_CURVE_FONT('continuous');
#354=COLOUR_RGB('',0.509803950786591,0.509803950786591,0.588235318660736);
#355=AXIS2_PLACEMENT_3D('',#491,#492,#493);
#356=PRE_DEFINED_MARKER('');
#357=COLOUR_RGB('',0.509803950786591,0.509803950786591,0.588235318660736);
#358=DRAUGHTING_PRE_DEFINED_CURVE_FONT('continuous');
#359=COLOUR_RGB('',0.509803950786591,0.509803950786591,0.588235318660736);
#360=AXIS2_PLACEMENT_3D('',#494,#495,#496);
#361=DRAUGHTING_PRE_DEFINED_CURVE_FONT('continuous');
#362=COLOUR_RGB('',0.509803950786591,0.509803950786591,0.588235318660736);
#363=AXIS2_PLACEMENT_3D('',#497,#498,#499);
#364=SURFACE_SIDE_STYLE('',(#500));
#365=EDGE_LOOP('',(#501,#502,#503,#504));
#366=AXIS2_PLACEMENT_3D('',#505,#506,#507);
#367=DRAUGHTING_PRE_DEFINED_CURVE_FONT('continuous');
#368=COLOUR_RGB('',0.509803950786591,0.509803950786591,0.588235318660736);
#369=CARTESIAN_POINT('',(15.5000000000001,1.25560240795623E-014,5.19999999999996));
#370=VECTOR('',#508,1.0);
#371=PRE_DEFINED_MARKER('');
#372=COLOUR_RGB('',0.509803950786591,0.509803950786591,0.588235318660736);
#373=DRAUGHTING_PRE_DEFINED_CURVE_FONT('continuous');
#374=COLOUR_RGB('',0.509803950786591,0.509803950786591,0.588235318660736);
#375=AXIS2_PLACEMENT_3D('',#509,#510,#511);
#376=PRE_DEFINED_MARKER('');
#377=COLOUR_RGB('',0.509803950786591,0.509803950786591,0.588235318660736);
#378=SURFACE_SIDE_STYLE('',(#512));
#379=EDGE_LOOP('',(#513,#514,#515,#516));
#380=AXIS2_PLACEMENT_3D('',#517,#518,#519);
#381=PRE_DEFINED_MARKER('');
#382=COLOUR_RGB('',0.509803950786591,0.509803950786591,0.588235318660736);
#383=DRAUGHTING_PRE_DEFINED_CURVE_FONT('continuous');
#384=COLOUR_RGB('',0.509803950786591,0.509803950786591,0.588235318660736);
#385=AXIS2_PLACEMENT_3D('',#520,#521,#522);
#386=PRE_DEFINED_MARKER('');
#387=COLOUR_RGB('',0.509803950786591,0.509803950786591,0.588235318660736);
#388=DRAUGHTING_PRE_DEFINED_CURVE_FONT('continuous');
#389=COLOUR_RGB('',0.509803950786591,0.509803950786591,0.588235318660736);
#390=CARTESIAN_POINT('',(-15.9,3.47782625385574E-015,10.8));
#391=VECTOR('',#523,1.0);
#392=SURFACE_SIDE_STYLE('',(#524));
#393=PRE_DEFINED_MARKER('');
#394=COLOUR_RGB('',0.509803950786591,0.509803950786591,0.588235318660736);
#396=CARTESIAN_POINT('',(2.8421709430404E-014,8.07474808279635E-015,-2.8421709430404E-014));
#397=DIRECTION('',(-0.0,0.0,-1.0));
#398=DIRECTION('',(-1.0,-1.66653945054278E-016,0.0));
#399=CARTESIAN_POINT('',(2.8421709430404E-014,8.07474808279635E-015,11.2));
#400=DIRECTION('',(-0.0,0.0,-1.0));
#401=DIRECTION('',(-1.0,-1.66653945054278E-016,0.0));
#402=SURFACE_STYLE_FILL_AREA(#525);
#403=ORIENTED_EDGE('',*,*,#99,.F.);
#404=ORIENTED_EDGE('',*,*,#121,.T.);
#405=ORIENTED_EDGE('',*,*,#81,.F.);
#406=ORIENTED_EDGE('',*,*,#93,.T.);
#407=CARTESIAN_POINT('',(2.8421709430404E-014,8.07474808279635E-015,5.59999999999997));
#408=DIRECTION('',(0.0,-0.0,1.0));
#409=DIRECTION('',(-1.0,-1.66653945054278E-016,0.0));
#410=DIRECTION('',(0.707106781186548,2.04434880366564E-016,0.707106781186547));
#411=DIRECTION('',(-0.0,-0.0,1.0));
#412=SURFACE_STYLE_FILL_AREA(#526);
#413=ORIENTED_EDGE('',*,*,#99,.T.);
#414=ORIENTED_EDGE('',*,*,#101,.T.);
#415=ORIENTED_EDGE('',*,*,#81,.T.);
#416=ORIENTED_EDGE('',*,*,#69,.T.);
#417=CARTESIAN_POINT('',(2.8421709430404E-014,8.07474808279635E-015,5.59999999999997));
#418=DIRECTION('',(0.0,-0.0,1.0));
#419=DIRECTION('',(-1.0,-1.66653945054278E-016,0.0));
#420=SURFACE_STYLE_FILL_AREA(#527);
#421=ORIENTED_EDGE('',*,*,#147,.F.);
#422=ORIENTED_EDGE('',*,*,#135,.F.);
#423=ORIENTED_EDGE('',*,*,#79,.F.);
#424=ORIENTED_EDGE('',*,*,#107,.T.);
#425=CARTESIAN_POINT('',(2.8421709430404E-014,8.07474808279635E-015,10.8));
#426=DIRECTION('',(0.0,-0.0,1.0));
#427=DIRECTION('',(-1.0,-1.66653945054278E-016,0.0));
#428=CARTESIAN_POINT('',(2.8421709430404E-014,8.07474808279635E-015,11.2));
#429=DIRECTION('',(-0.0,0.0,-1.0));
#430=DIRECTION('',(-1.0,-1.66653945054278E-016,0.0));
#431=SURFACE_STYLE_FILL_AREA(#528);
#432=ORIENTED_EDGE('',*,*,#121,.F.);
#433=ORIENTED_EDGE('',*,*,#69,.F.);
#434=ORIENTED_EDGE('',*,*,#89,.T.);
#435=ORIENTED_EDGE('',*,*,#135,.T.);
#436=CARTESIAN_POINT('',(-22.15,5.36224500907978E-015,11.2));
#437=DIRECTION('',(0.0,0.0,1.0));
#438=DIRECTION('',(-1.0,-1.22460635382238E-016,0.0));
#439=CARTESIAN_POINT('',(2.8421709430404E-014,8.07474808279635E-015,7.59999999999988));
#440=DIRECTION('',(0.0,0.0,1.0));
#441=DIRECTION('',(-1.0,-1.66653945054278E-016,0.0));
#442=CARTESIAN_POINT('',(2.8421709430404E-014,8.07474808279635E-015,10.3999999999999));
#443=DIRECTION('',(-0.0,0.0,-1.0));
#444=DIRECTION('',(-1.0,-1.66653945054278E-016,0.0));
#445=CARTESIAN_POINT('',(-4.2632564145606E-014,9.6881643984331E-015,-2.8421709430404E-014));
#446=DIRECTION('',(0.0,0.0,-1.0));
#447=DIRECTION('',(0.0,-1.0,0.0));
#448=DIRECTION('',(0.0,0.0,-1.0));
#449=CARTESIAN_POINT('',(2.8421709430404E-014,8.07474808279635E-015,7.59999999999988));
#450=DIRECTION('',(0.0,0.0,1.0));
#451=DIRECTION('',(-1.0,-1.66653945054278E-016,0.0));
#452=SURFACE_STYLE_FILL_AREA(#529);
#453=ORIENTED_EDGE('',*,*,#125,.T.);
#454=ORIENTED_EDGE('',*,*,#97,.T.);
#455=ORIENTED_EDGE('',*,*,#67,.F.);
#456=ORIENTED_EDGE('',*,*,#117,.F.);
#457=CARTESIAN_POINT('',(-21.75,4.72544970509214E-015,-2.8421709430404E-014));
#458=DIRECTION('',(0.0,0.0,-1.0));
#459=DIRECTION('',(1.0,1.22460635382238E-016,0.0));
#460=SURFACE_STYLE_FILL_AREA(#530);
#461=ORIENTED_EDGE('',*,*,#113,.F.);
#462=ORIENTED_EDGE('',*,*,#107,.F.);
#463=ORIENTED_EDGE('',*,*,#131,.F.);
#464=ORIENTED_EDGE('',*,*,#117,.T.);
#465=CARTESIAN_POINT('',(2.8421709430404E-014,8.07474808279635E-015,5.19999999999996));
#466=DIRECTION('',(0.0,-0.0,1.0));
#467=DIRECTION('',(-1.0,-1.66653945054278E-016,0.0));
#468=CARTESIAN_POINT('',(2.8421709430404E-014,8.07474808279635E-015,10.3999999999999));
#469=DIRECTION('',(-0.0,0.0,-1.0));
#470=DIRECTION('',(-1.0,-1.66653945054278E-016,0.0));
#471=SURFACE_STYLE_FILL_AREA(#531);
#472=ORIENTED_EDGE('',*,*,#143,.T.);
#473=ORIENTED_EDGE('',*,*,#101,.F.);
#474=ORIENTED_EDGE('',*,*,#127,.T.);
#475=ORIENTED_EDGE('',*,*,#97,.F.);
#476=CARTESIAN_POINT('',(-4.2632564145606E-014,9.6881643984331E-015,37.5499582637439));
#477=DIRECTION('',(0.0,0.0,-1.0));
#478=DIRECTION('',(1.0,1.22460635382238E-016,0.0));
#479=SURFACE_STYLE_FILL_AREA(#532);
#480=ORIENTED_EDGE('',*,*,#113,.T.);
#481=ORIENTED_EDGE('',*,*,#67,.T.);
#482=ORIENTED_EDGE('',*,*,#131,.T.);
#483=ORIENTED_EDGE('',*,*,#95,.F.);
#484=CARTESIAN_POINT('',(2.8421709430404E-014,8.07474808279635E-015,5.19999999999996));
#485=DIRECTION('',(0.0,-0.0,1.0));
#486=DIRECTION('',(-1.0,-1.66653945054278E-016,0.0));
#487=DIRECTION('',(0.0,0.0,-1.0));
#488=CARTESIAN_POINT('',(2.8421709430404E-014,8.07474808279635E-015,-2.8421709430404E-014));
#489=DIRECTION('',(-0.0,0.0,-1.0));
#490=DIRECTION('',(-1.0,-1.66653945054278E-016,0.0));
#491=CARTESIAN_POINT('',(2.8421709430404E-014,8.07474808279635E-015,11.2));
#492=DIRECTION('',(-0.0,0.0,-1.0));
#493=DIRECTION('',(-1.0,-1.66653945054278E-016,0.0));
#494=CARTESIAN_POINT('',(-4.2632564145606E-014,9.6881643984331E-015,-2.8421709430404E-014));
#495=DIRECTION('',(0.0,0.0,-1.0));
#496=DIRECTION('',(0.0,-1.0,0.0));
#497=CARTESIAN_POINT('',(-4.2632564145606E-014,9.6881643984331E-015,37.5499582637439));
#498=DIRECTION('',(2.44921270764475E-016,-1.0,0.0));
#499=DIRECTION('',(-0.0,0.0,1.0));
#500=SURFACE_STYLE_FILL_AREA(#533);
#501=ORIENTED_EDGE('',*,*,#147,.T.);
#502=ORIENTED_EDGE('',*,*,#95,.T.);
#503=ORIENTED_EDGE('',*,*,#79,.T.);
#504=ORIENTED_EDGE('',*,*,#89,.F.);
#505=CARTESIAN_POINT('',(2.8421709430404E-014,8.07474808279635E-015,10.8));
#506=DIRECTION('',(0.0,-0.0,1.0));
#507=DIRECTION('',(-1.0,-1.66653945054278E-016,0.0));
#508=DIRECTION('',(0.0,0.0,1.0));
#509=CARTESIAN_POINT('',(2.8421709430404E-014,8.07474808279635E-015,11.2));
#510=DIRECTION('',(-0.0,0.0,-1.0));
#511=DIRECTION('',(-1.0,-1.66653945054278E-016,0.0));
#512=SURFACE_STYLE_FILL_AREA(#534);
#513=ORIENTED_EDGE('',*,*,#143,.F.);
#514=ORIENTED_EDGE('',*,*,#125,.F.);
#515=ORIENTED_EDGE('',*,*,#127,.F.);
#516=ORIENTED_EDGE('',*,*,#93,.F.);
#517=CARTESIAN_POINT('',(-4.2632564145606E-014,9.6881643984331E-015,37.5499582637439));
#518=DIRECTION('',(0.0,0.0,-1.0));
#519=DIRECTION('',(1.0,1.22460635382238E-016,0.0));
#520=CARTESIAN_POINT('',(-4.2632564145606E-014,9.6881643984331E-015,37.5499582637439));
#521=DIRECTION('',(2.44921270764475E-016,-1.0,0.0));
#522=DIRECTION('',(-0.0,0.0,1.0));
#523=DIRECTION('',(0.707106781186548,2.04434880366564E-016,-0.707106781186547));
#524=SURFACE_STYLE_FILL_AREA(#535);
#525=FILL_AREA_STYLE('',(#536));
#526=FILL_AREA_STYLE('',(#537));
#527=FILL_AREA_STYLE('',(#538));
#528=FILL_AREA_STYLE('',(#539));
#529=FILL_AREA_STYLE('',(#540));
#530=FILL_AREA_STYLE('',(#541));
#531=FILL_AREA_STYLE('',(#542));
#532=FILL_AREA_STYLE('',(#543));
#533=FILL_AREA_STYLE('',(#544));
#534=FILL_AREA_STYLE('',(#545));
#535=FILL_AREA_STYLE('',(#546));
#536=FILL_AREA_STYLE_COLOUR('',#547);
#537=FILL_AREA_STYLE_COLOUR('',#548);
#538=FILL_AREA_STYLE_COLOUR('',#549);
#539=FILL_AREA_STYLE_COLOUR('',#550);
#540=FILL_AREA_STYLE_COLOUR('',#551);
#541=FILL_AREA_STYLE_COLOUR('',#552);
#542=FILL_AREA_STYLE_COLOUR('',#553);
#543=FILL_AREA_STYLE_COLOUR('',#554);
#544=FILL_AREA_STYLE_COLOUR('',#555);
#545=FILL_AREA_STYLE_COLOUR('',#556);
#546=FILL_AREA_STYLE_COLOUR('',#557);
#547=COLOUR_RGB('',0.509803950786591,0.509803950786591,0.588235318660736);
#548=COLOUR_RGB('',0.509803950786591,0.509803950786591,0.588235318660736);
#549=COLOUR_RGB('',0.509803950786591,0.509803950786591,0.588235318660736);
#550=COLOUR_RGB('',0.509803950786591,0.509803950786591,0.588235318660736);
#551=COLOUR_RGB('',0.509803950786591,0.509803950786591,0.588235318660736);
#552=COLOUR_RGB('',0.509803950786591,0.509803950786591,0.588235318660736);
#553=COLOUR_RGB('',0.509803950786591,0.509803950786591,0.588235318660736);
#554=COLOUR_RGB('',0.509803950786591,0.509803950786591,0.588235318660736);
#555=COLOUR_RGB('',0.509803950786591,0.509803950786591,0.588235318660736);
#556=COLOUR_RGB('',0.509803950786591,0.509803950786591,0.588235318660736);
#557=COLOUR_RGB('',0.509803950786591,0.509803950786591,0.588235318660736);
ENDSEC;
END-ISO-10303-21;
