ISO-10303-21;
HEADER;
FILE_DESCRIPTION(('STEP AP214'),'1');
FILE_NAME(' ','  ',('TraceParts'),('TraceParts S.A.'),'XStep 1.0',' ',' ');
FILE_SCHEMA(('automotive_design'));
ENDSEC;
DATA;
#1=MECHANICAL_DESIGN_GEOMETRIC_PRESENTATION_REPRESENTATION(' ',(#10,#11,#12,#13,#14,#15,#16,#17,#18,#19,#20,#21,#22,#23,#24,#25,#26,#27,#28,#29,#30,#31,#32,#33,#34,#35,#36,#37,#38,#39,#40,#41,#42,#43,#44,#45,#46,#47,#48,#49,#50,#51,#52),#6);
#2=PRODUCT_DEFINITION_CONTEXT('',#53,'design');
#3=APPLICATION_PROTOCOL_DEFINITION('INTERNATIONAL STANDARD','automotive_design',1994,#53);
#4=PRODUCT_CATEGORY_RELATIONSHIP('NONE','NONE',#54,#55);
#5=SHAPE_DEFINITION_REPRESENTATION(#56,#57);
#6= (GEOMETRIC_REPRESENTATION_CONTEXT(3)GLOBAL_UNCERTAINTY_ASSIGNED_CONTEXT((#60))GLOBAL_UNIT_ASSIGNED_CONTEXT((#62,#63,#64))REPRESENTATION_CONTEXT('NONE','WORKSPACE'));
#10=STYLED_ITEM('',(#66),#67);
#11=STYLED_ITEM('',(#68),#69);
#12=STYLED_ITEM('',(#70),#71);
#13=STYLED_ITEM('',(#72),#73);
#14=STYLED_ITEM('',(#74),#75);
#15=STYLED_ITEM('',(#76),#77);
#16=STYLED_ITEM('',(#78),#79);
#17=STYLED_ITEM('',(#80),#81);
#18=STYLED_ITEM('',(#82),#83);
#19=STYLED_ITEM('',(#84),#85);
#20=STYLED_ITEM('',(#86),#87);
#21=STYLED_ITEM('',(#88),#89);
#22=STYLED_ITEM('',(#90),#91);
#23=STYLED_ITEM('',(#92),#93);
#24=STYLED_ITEM('',(#94),#95);
#25=STYLED_ITEM('',(#96),#97);
#26=STYLED_ITEM('',(#98),#99);
#27=STYLED_ITEM('',(#100),#101);
#28=STYLED_ITEM('',(#102),#103);
#29=STYLED_ITEM('',(#104),#105);
#30=STYLED_ITEM('',(#106),#107);
#31=STYLED_ITEM('',(#108),#109);
#32=STYLED_ITEM('',(#110),#111);
#33=STYLED_ITEM('',(#112),#113);
#34=STYLED_ITEM('',(#114),#115);
#35=STYLED_ITEM('',(#116),#117);
#36=STYLED_ITEM('',(#118),#119);
#37=STYLED_ITEM('',(#120),#121);
#38=STYLED_ITEM('',(#122),#123);
#39=STYLED_ITEM('',(#124),#125);
#40=STYLED_ITEM('',(#126),#127);
#41=STYLED_ITEM('',(#128),#129);
#42=STYLED_ITEM('',(#130),#131);
#43=STYLED_ITEM('',(#132),#133);
#44=STYLED_ITEM('',(#134),#135);
#45=STYLED_ITEM('',(#136),#137);
#46=STYLED_ITEM('',(#138),#139);
#47=STYLED_ITEM('',(#140),#141);
#48=STYLED_ITEM('',(#142),#143);
#49=STYLED_ITEM('',(#144),#145);
#50=STYLED_ITEM('',(#146),#147);
#51=STYLED_ITEM('',(#148),#149);
#52=STYLED_ITEM('',(#150),#151);
#53=APPLICATION_CONTEXT(' ');
#54=PRODUCT_CATEGORY('part','NONE');
#55=PRODUCT_RELATED_PRODUCT_CATEGORY('detail',' ',(#152));
#56=PRODUCT_DEFINITION_SHAPE('NONE','NONE',#153);
#57=ADVANCED_BREP_SHAPE_REPRESENTATION('1',(#133,#154),#6);
#60=UNCERTAINTY_MEASURE_WITH_UNIT(LENGTH_MEASURE(1.0E-006),#62,'','');
#62= (CONVERSION_BASED_UNIT('MILLIMETRE',#157)LENGTH_UNIT()NAMED_UNIT(#160));
#63= (NAMED_UNIT(#162)PLANE_ANGLE_UNIT()SI_UNIT($,.RADIAN.));
#64= (NAMED_UNIT(#162)SOLID_ANGLE_UNIT()SI_UNIT($,.STERADIAN.));
#66=PRESENTATION_STYLE_ASSIGNMENT((#168));
#67=VERTEX_POINT('',#169);
#68=PRESENTATION_STYLE_ASSIGNMENT((#170));
#69=ADVANCED_FACE('',(#171),#172,.F.);
#70=PRESENTATION_STYLE_ASSIGNMENT((#173));
#71=VERTEX_POINT('',#174);
#72=PRESENTATION_STYLE_ASSIGNMENT((#175));
#73=VERTEX_POINT('',#176);
#74=PRESENTATION_STYLE_ASSIGNMENT((#177));
#75=EDGE_CURVE('',#99,#119,#178,.T.);
#76=PRESENTATION_STYLE_ASSIGNMENT((#179));
#77=VERTEX_POINT('',#180);
#78=PRESENTATION_STYLE_ASSIGNMENT((#181));
#79=EDGE_CURVE('',#77,#119,#182,.T.);
#80=PRESENTATION_STYLE_ASSIGNMENT((#183));
#81=EDGE_CURVE('',#115,#113,#184,.T.);
#82=PRESENTATION_STYLE_ASSIGNMENT((#185));
#83=ADVANCED_FACE('',(#186),#187,.T.);
#84=PRESENTATION_STYLE_ASSIGNMENT((#188));
#85=EDGE_CURVE('',#71,#67,#189,.T.);
#86=PRESENTATION_STYLE_ASSIGNMENT((#190));
#87=EDGE_CURVE('',#135,#77,#191,.T.);
#88=PRESENTATION_STYLE_ASSIGNMENT((#192));
#89=EDGE_CURVE('',#77,#135,#193,.T.);
#90=PRESENTATION_STYLE_ASSIGNMENT((#194));
#91=ADVANCED_FACE('',(#195),#196,.F.);
#92=PRESENTATION_STYLE_ASSIGNMENT((#197));
#93=ADVANCED_FACE('',(#198),#199,.T.);
#94=PRESENTATION_STYLE_ASSIGNMENT((#200));
#95=ADVANCED_FACE('',(#201,#202),#203,.T.);
#96=PRESENTATION_STYLE_ASSIGNMENT((#204));
#97=ADVANCED_FACE('',(#205),#206,.T.);
#98=PRESENTATION_STYLE_ASSIGNMENT((#207));
#99=VERTEX_POINT('',#208);
#100=PRESENTATION_STYLE_ASSIGNMENT((#209));
#101=EDGE_CURVE('',#147,#127,#210,.T.);
#102=PRESENTATION_STYLE_ASSIGNMENT((#211));
#103=EDGE_CURVE('',#119,#99,#212,.T.);
#104=PRESENTATION_STYLE_ASSIGNMENT((#213));
#105=ADVANCED_FACE('',(#214,#215),#216,.T.);
#106=PRESENTATION_STYLE_ASSIGNMENT((#217));
#107=EDGE_CURVE('',#73,#141,#218,.T.);
#108=PRESENTATION_STYLE_ASSIGNMENT((#219));
#109=EDGE_CURVE('',#73,#127,#220,.T.);
#110=PRESENTATION_STYLE_ASSIGNMENT((#221));
#111=EDGE_CURVE('',#119,#71,#222,.T.);
#112=PRESENTATION_STYLE_ASSIGNMENT((#223));
#113=VERTEX_POINT('',#224);
#114=PRESENTATION_STYLE_ASSIGNMENT((#225));
#115=VERTEX_POINT('',#226);
#116=PRESENTATION_STYLE_ASSIGNMENT((#227));
#117=EDGE_CURVE('',#127,#147,#228,.T.);
#118=PRESENTATION_STYLE_ASSIGNMENT((#229));
#119=VERTEX_POINT('',#230);
#120=PRESENTATION_STYLE_ASSIGNMENT((#231));
#121=EDGE_CURVE('',#113,#115,#232,.T.);
#122=PRESENTATION_STYLE_ASSIGNMENT((#233));
#123=EDGE_CURVE('',#113,#73,#234,.T.);
#124=PRESENTATION_STYLE_ASSIGNMENT((#235));
#125=EDGE_CURVE('',#141,#73,#236,.T.);
#126=PRESENTATION_STYLE_ASSIGNMENT((#237));
#127=VERTEX_POINT('',#238);
#128=PRESENTATION_STYLE_ASSIGNMENT((#239));
#129=ADVANCED_FACE('',(#240),#241,.F.);
#130=PRESENTATION_STYLE_ASSIGNMENT((#242));
#131=EDGE_CURVE('',#99,#135,#243,.T.);
#132=PRESENTATION_STYLE_ASSIGNMENT((#244));
#133=MANIFOLD_SOLID_BREP('1',#245);
#134=PRESENTATION_STYLE_ASSIGNMENT((#246));
#135=VERTEX_POINT('',#247);
#136=PRESENTATION_STYLE_ASSIGNMENT((#248));
#137=EDGE_CURVE('',#147,#141,#249,.T.);
#138=PRESENTATION_STYLE_ASSIGNMENT((#250));
#139=EDGE_CURVE('',#67,#71,#251,.T.);
#140=PRESENTATION_STYLE_ASSIGNMENT((#252));
#141=VERTEX_POINT('',#253);
#142=PRESENTATION_STYLE_ASSIGNMENT((#254));
#143=ADVANCED_FACE('',(#255),#256,.F.);
#144=PRESENTATION_STYLE_ASSIGNMENT((#257));
#145=ADVANCED_FACE('',(#258),#259,.T.);
#146=PRESENTATION_STYLE_ASSIGNMENT((#260));
#147=VERTEX_POINT('',#261);
#148=PRESENTATION_STYLE_ASSIGNMENT((#262));
#149=EDGE_CURVE('',#141,#115,#263,.T.);
#150=PRESENTATION_STYLE_ASSIGNMENT((#264));
#151=EDGE_CURVE('',#67,#99,#265,.T.);
#152=PRODUCT('1','1','PART-1-DESC',(#266));
#153=PRODUCT_DEFINITION('NONE','NONE',#267,#2);
#154=AXIS2_PLACEMENT_3D('',#268,#269,#270);
#157=LENGTH_MEASURE_WITH_UNIT(LENGTH_MEASURE(1.0),#271);
#160=DIMENSIONAL_EXPONENTS(1.0,0.0,0.0,0.0,0.0,0.0,0.0);
#162=DIMENSIONAL_EXPONENTS(0.0,0.0,0.0,0.0,0.0,0.0,0.0);
#168=POINT_STYLE(' ',#272,POSITIVE_LENGTH_MEASURE(1.0E-006),#273);
#169=CARTESIAN_POINT('',(4.20000000000002,6.91116870078003E-015,-2.8421709430404E-014));
#170=SURFACE_STYLE_USAGE(.BOTH.,#274);
#171=FACE_OUTER_BOUND('',#275,.T.);
#172=CYLINDRICAL_SURFACE('',#276,4.19999999999999);
#173=POINT_STYLE(' ',#277,POSITIVE_LENGTH_MEASURE(1.0E-006),#278);
#174=CARTESIAN_POINT('',(-4.19999999999996,4.97649400762573E-015,-2.8421709430404E-014));
#175=POINT_STYLE(' ',#279,POSITIVE_LENGTH_MEASURE(1.0E-006),#280);
#176=CARTESIAN_POINT('',(-8.49999999999994,4.60911210147902E-015,2.59999999999998));
#177=CURVE_STYLE('',#281,POSITIVE_LENGTH_MEASURE(1.0E-006),#282);
#178=CIRCLE('',#283,4.19999999999999);
#179=POINT_STYLE(' ',#284,POSITIVE_LENGTH_MEASURE(1.0E-006),#285);
#180=CARTESIAN_POINT('',(-4.69999999999996,5.1112007065462E-015,3.19999999999999));
#181=CURVE_STYLE('',#286,POSITIVE_LENGTH_MEASURE(1.0E-006),#287);
#182=LINE('',#288,#289);
#183=CURVE_STYLE('',#290,POSITIVE_LENGTH_MEASURE(1.0E-006),#291);
#184=CIRCLE('',#292,8.5);
#185=SURFACE_STYLE_USAGE(.BOTH.,#293);
#186=FACE_OUTER_BOUND('',#294,.T.);
#187=CYLINDRICAL_SURFACE('',#295,8.5);
#188=CURVE_STYLE('',#296,POSITIVE_LENGTH_MEASURE(1.0E-006),#297);
#189=CIRCLE('',#298,4.19999999999999);
#190=CURVE_STYLE('',#299,POSITIVE_LENGTH_MEASURE(1.0E-006),#300);
#191=CIRCLE('',#301,4.69999999999999);
#192=CURVE_STYLE('',#302,POSITIVE_LENGTH_MEASURE(1.0E-006),#303);
#193=CIRCLE('',#304,4.69999999999999);
#194=SURFACE_STYLE_USAGE(.BOTH.,#305);
#195=FACE_OUTER_BOUND('',#306,.T.);
#196=CONICAL_SURFACE('',#307,4.44999999999999,0.785398163397448);
#197=SURFACE_STYLE_USAGE(.BOTH.,#308);
#198=FACE_OUTER_BOUND('',#309,.T.);
#199=SPHERICAL_SURFACE('',#310,12.0);
#200=SURFACE_STYLE_USAGE(.BOTH.,#311);
#201=FACE_OUTER_BOUND('',#312,.T.);
#202=FACE_BOUND('',#313,.T.);
#203=PLANE('',#314);
#204=SURFACE_STYLE_USAGE(.BOTH.,#315);
#205=FACE_OUTER_BOUND('',#316,.T.);
#206=SPHERICAL_SURFACE('',#317,12.0);
#207=POINT_STYLE(' ',#318,POSITIVE_LENGTH_MEASURE(1.0E-006),#319);
#208=CARTESIAN_POINT('',(4.20000000000002,6.91116870078003E-015,2.69999999999999));
#209=CURVE_STYLE('',#320,POSITIVE_LENGTH_MEASURE(1.0E-006),#321);
#210=CIRCLE('',#322,4.63068101904531);
#211=CURVE_STYLE('',#323,POSITIVE_LENGTH_MEASURE(1.0E-006),#324);
#212=CIRCLE('',#325,4.19999999999999);
#213=SURFACE_STYLE_USAGE(.BOTH.,#326);
#214=FACE_OUTER_BOUND('',#327,.T.);
#215=FACE_BOUND('',#328,.T.);
#216=PLANE('',#329);
#217=CURVE_STYLE('',#330,POSITIVE_LENGTH_MEASURE(1.0E-006),#331);
#218=CIRCLE('',#332,8.5);
#219=CURVE_STYLE('',#333,POSITIVE_LENGTH_MEASURE(1.0E-006),#334);
#220=CIRCLE('',#335,12.0);
#221=CURVE_STYLE('',#336,POSITIVE_LENGTH_MEASURE(1.0E-006),#337);
#222=LINE('',#338,#339);
#223=POINT_STYLE(' ',#340,POSITIVE_LENGTH_MEASURE(1.0E-006),#341);
#224=CARTESIAN_POINT('',(-8.49999999999997,4.64585029209369E-015,3.19999999999999));
#225=POINT_STYLE(' ',#342,POSITIVE_LENGTH_MEASURE(1.0E-006),#343);
#226=CARTESIAN_POINT('',(8.50000000000003,8.1647241612873E-015,3.19999999999999));
#227=CURVE_STYLE('',#344,POSITIVE_LENGTH_MEASURE(1.0E-006),#345);
#228=CIRCLE('',#346,4.63068101904531);
#229=POINT_STYLE(' ',#347,POSITIVE_LENGTH_MEASURE(1.0E-006),#348);
#230=CARTESIAN_POINT('',(-4.19999999999996,5.14181586539176E-015,2.69999999999999));
#231=CURVE_STYLE('',#349,POSITIVE_LENGTH_MEASURE(1.0E-006),#350);
#232=CIRCLE('',#351,8.5);
#233=CURVE_STYLE('',#352,POSITIVE_LENGTH_MEASURE(1.0E-006),#353);
#234=LINE('',#354,#355);
#235=CURVE_STYLE('',#356,POSITIVE_LENGTH_MEASURE(1.0E-006),#357);
#236=CIRCLE('',#358,8.5);
#237=POINT_STYLE(' ',#359,POSITIVE_LENGTH_MEASURE(1.0E-006),#360);
#238=CARTESIAN_POINT('',(-4.63068101904527,4.92375253638638E-015,-1.59872115546023E-014));
#239=SURFACE_STYLE_USAGE(.BOTH.,#361);
#240=FACE_OUTER_BOUND('',#362,.T.);
#241=CONICAL_SURFACE('',#363,4.44999999999999,0.785398163397448);
#242=CURVE_STYLE('',#364,POSITIVE_LENGTH_MEASURE(1.0E-006),#365);
#243=LINE('',#366,#367);
#244=SURFACE_STYLE_USAGE(.BOTH.,#368);
#245=CLOSED_SHELL('',(#143,#83,#91,#93,#97,#129,#95,#145,#105,#69));
#246=POINT_STYLE(' ',#369,POSITIVE_LENGTH_MEASURE(1.0E-006),#370);
#247=CARTESIAN_POINT('',(4.70000000000002,7.05693096362971E-015,3.19999999999999));
#248=CURVE_STYLE('',#371,POSITIVE_LENGTH_MEASURE(1.0E-006),#372);
#249=CIRCLE('',#373,12.0);
#250=CURVE_STYLE('',#374,POSITIVE_LENGTH_MEASURE(1.0E-006),#375);
#251=CIRCLE('',#376,4.19999999999999);
#252=POINT_STYLE(' ',#377,POSITIVE_LENGTH_MEASURE(1.0E-006),#378);
#253=CARTESIAN_POINT('',(8.50000000000003,8.25051198584628E-015,2.60000000000001));
#254=SURFACE_STYLE_USAGE(.BOTH.,#379);
#255=FACE_OUTER_BOUND('',#380,.T.);
#256=CYLINDRICAL_SURFACE('',#381,4.19999999999999);
#257=SURFACE_STYLE_USAGE(.BOTH.,#382);
#258=FACE_OUTER_BOUND('',#383,.T.);
#259=CYLINDRICAL_SURFACE('',#384,8.5);
#260=POINT_STYLE(' ',#385,POSITIVE_LENGTH_MEASURE(1.0E-006),#386);
#261=CARTESIAN_POINT('',(4.63068101904534,7.30283346403776E-015,-1.4210854715202E-014));
#262=CURVE_STYLE('',#387,POSITIVE_LENGTH_MEASURE(1.0E-006),#388);
#263=LINE('',#389,#390);
#264=CURVE_STYLE('',#391,POSITIVE_LENGTH_MEASURE(1.0E-006),#392);
#265=LINE('',#393,#394);
#266=PRODUCT_CONTEXT('',#53,'mechanical');
#267=PRODUCT_DEFINITION_FORMATION_WITH_SPECIFIED_SOURCE(' ','NONE',#152,.NOT_KNOWN.);
#268=CARTESIAN_POINT('',(0.0,0.0,0.0));
#269=DIRECTION('',(0.0,0.0,1.0));
#270=DIRECTION('',(1.0,0.0,0.0));
#271= (NAMED_UNIT(#160)LENGTH_UNIT()SI_UNIT(.MILLI.,.METRE.));
#272=PRE_DEFINED_MARKER('');
#273=COLOUR_RGB('',0.509803950786591,0.509803950786591,0.588235318660736);
#274=SURFACE_SIDE_STYLE('',(#396));
#275=EDGE_LOOP('',(#397,#398,#399,#400));
#276=AXIS2_PLACEMENT_3D('',#401,#402,#403);
#277=PRE_DEFINED_MARKER('');
#278=COLOUR_RGB('',0.509803950786591,0.509803950786591,0.588235318660736);
#279=PRE_DEFINED_MARKER('');
#280=COLOUR_RGB('',0.509803950786591,0.509803950786591,0.588235318660736);
#281=DRAUGHTING_PRE_DEFINED_CURVE_FONT('continuous');
#282=COLOUR_RGB('',0.509803950786591,0.509803950786591,0.588235318660736);
#283=AXIS2_PLACEMENT_3D('',#404,#405,#406);
#284=PRE_DEFINED_MARKER('');
#285=COLOUR_RGB('',0.509803950786591,0.509803950786591,0.588235318660736);
#286=DRAUGHTING_PRE_DEFINED_CURVE_FONT('continuous');
#287=COLOUR_RGB('',0.509803950786591,0.509803950786591,0.588235318660736);
#288=CARTESIAN_POINT('',(-4.44999999999996,4.38948155348055E-015,2.94999999999999));
#289=VECTOR('',#407,1.0);
#290=DRAUGHTING_PRE_DEFINED_CURVE_FONT('continuous');
#291=COLOUR_RGB('',0.509803950786591,0.509803950786591,0.588235318660736);
#292=AXIS2_PLACEMENT_3D('',#408,#409,#410);
#293=SURFACE_SIDE_STYLE('',(#411));
#294=EDGE_LOOP('',(#412,#413,#414,#415));
#295=AXIS2_PLACEMENT_3D('',#416,#417,#418);
#296=DRAUGHTING_PRE_DEFINED_CURVE_FONT('continuous');
#297=COLOUR_RGB('',0.509803950786591,0.509803950786591,0.588235318660736);
#298=AXIS2_PLACEMENT_3D('',#419,#420,#421);
#299=DRAUGHTING_PRE_DEFINED_CURVE_FONT('continuous');
#300=COLOUR_RGB('',0.509803950786591,0.509803950786591,0.588235318660736);
#301=AXIS2_PLACEMENT_3D('',#422,#423,#424);
#302=DRAUGHTING_PRE_DEFINED_CURVE_FONT('continuous');
#303=COLOUR_RGB('',0.509803950786591,0.509803950786591,0.588235318660736);
#304=AXIS2_PLACEMENT_3D('',#425,#426,#427);
#305=SURFACE_SIDE_STYLE('',(#428));
#306=EDGE_LOOP('',(#429,#430,#431,#432));
#307=AXIS2_PLACEMENT_3D('',#433,#434,#435);
#308=SURFACE_SIDE_STYLE('',(#436));
#309=EDGE_LOOP('',(#437,#438,#439,#440));
#310=AXIS2_PLACEMENT_3D('',#441,#442,#443);
#311=SURFACE_SIDE_STYLE('',(#444));
#312=EDGE_LOOP('',(#445,#446));
#313=EDGE_LOOP('',(#447,#448));
#314=AXIS2_PLACEMENT_3D('',#449,#450,#451);
#315=SURFACE_SIDE_STYLE('',(#452));
#316=EDGE_LOOP('',(#453,#454,#455,#456));
#317=AXIS2_PLACEMENT_3D('',#457,#458,#459);
#318=PRE_DEFINED_MARKER('');
#319=COLOUR_RGB('',0.509803950786591,0.509803950786591,0.588235318660736);
#320=DRAUGHTING_PRE_DEFINED_CURVE_FONT('continuous');
#321=COLOUR_RGB('',0.509803950786591,0.509803950786591,0.588235318660736);
#322=AXIS2_PLACEMENT_3D('',#460,#461,#462);
#323=DRAUGHTING_PRE_DEFINED_CURVE_FONT('continuous');
#324=COLOUR_RGB('',0.509803950786591,0.509803950786591,0.588235318660736);
#325=AXIS2_PLACEMENT_3D('',#463,#464,#465);
#326=SURFACE_SIDE_STYLE('',(#466));
#327=EDGE_LOOP('',(#467,#468));
#328=EDGE_LOOP('',(#469,#470));
#329=AXIS2_PLACEMENT_3D('',#471,#472,#473);
#330=DRAUGHTING_PRE_DEFINED_CURVE_FONT('continuous');
#331=COLOUR_RGB('',0.509803950786591,0.509803950786591,0.588235318660736);
#332=AXIS2_PLACEMENT_3D('',#474,#475,#476);
#333=DRAUGHTING_PRE_DEFINED_CURVE_FONT('continuous');
#334=COLOUR_RGB('',0.509803950786591,0.509803950786591,0.588235318660736);
#335=AXIS2_PLACEMENT_3D('',#477,#478,#479);
#336=DRAUGHTING_PRE_DEFINED_CURVE_FONT('continuous');
#337=COLOUR_RGB('',0.509803950786591,0.509803950786591,0.588235318660736);
#338=CARTESIAN_POINT('',(-4.19999999999996,4.46236268490539E-015,1.34999999999998));
#339=VECTOR('',#480,1.0);
#340=PRE_DEFINED_MARKER('');
#341=COLOUR_RGB('',0.509803950786591,0.509803950786591,0.588235318660736);
#342=PRE_DEFINED_MARKER('');
#343=COLOUR_RGB('',0.509803950786591,0.509803950786591,0.588235318660736);
#344=DRAUGHTING_PRE_DEFINED_CURVE_FONT('continuous');
#345=COLOUR_RGB('',0.509803950786591,0.509803950786591,0.588235318660736);
#346=AXIS2_PLACEMENT_3D('',#481,#482,#483);
#347=PRE_DEFINED_MARKER('');
#348=COLOUR_RGB('',0.509803950786591,0.509803950786591,0.588235318660736);
#349=DRAUGHTING_PRE_DEFINED_CURVE_FONT('continuous');
#350=COLOUR_RGB('',0.509803950786591,0.509803950786591,0.588235318660736);
#351=AXIS2_PLACEMENT_3D('',#484,#485,#486);
#352=DRAUGHTING_PRE_DEFINED_CURVE_FONT('continuous');
#353=COLOUR_RGB('',0.509803950786591,0.509803950786591,0.588235318660736);
#354=CARTESIAN_POINT('',(-8.49999999999997,3.20880722439812E-015,2.89999999999998));
#355=VECTOR('',#487,1.0);
#356=DRAUGHTING_PRE_DEFINED_CURVE_FONT('continuous');
#357=COLOUR_RGB('',0.509803950786591,0.509803950786591,0.588235318660736);
#358=AXIS2_PLACEMENT_3D('',#488,#489,#490);
#359=PRE_DEFINED_MARKER('');
#360=COLOUR_RGB('',0.509803950786591,0.509803950786591,0.588235318660736);
#361=SURFACE_SIDE_STYLE('',(#491));
#362=EDGE_LOOP('',(#492,#493,#494,#495));
#363=AXIS2_PLACEMENT_3D('',#496,#497,#498);
#364=DRAUGHTING_PRE_DEFINED_CURVE_FONT('continuous');
#365=COLOUR_RGB('',0.509803950786591,0.509803950786591,0.588235318660736);
#366=CARTESIAN_POINT('',(4.45000000000002,6.98404983220487E-015,2.94999999999999));
#367=VECTOR('',#499,1.0);
#368=SURFACE_SIDE_STYLE('',(#500));
#369=PRE_DEFINED_MARKER('');
#370=COLOUR_RGB('',0.509803950786591,0.509803950786591,0.588235318660736);
#371=DRAUGHTING_PRE_DEFINED_CURVE_FONT('continuous');
#372=COLOUR_RGB('',0.509803950786591,0.509803950786591,0.588235318660736);
#373=AXIS2_PLACEMENT_3D('',#501,#502,#503);
#374=DRAUGHTING_PRE_DEFINED_CURVE_FONT('continuous');
#375=COLOUR_RGB('',0.509803950786591,0.509803950786591,0.588235318660736);
#376=AXIS2_PLACEMENT_3D('',#504,#505,#506);
#377=PRE_DEFINED_MARKER('');
#378=COLOUR_RGB('',0.509803950786591,0.509803950786591,0.588235318660736);
#379=SURFACE_SIDE_STYLE('',(#507));
#380=EDGE_LOOP('',(#508,#509,#510,#511));
#381=AXIS2_PLACEMENT_3D('',#512,#513,#514);
#382=SURFACE_SIDE_STYLE('',(#515));
#383=EDGE_LOOP('',(#516,#517,#518,#519));
#384=AXIS2_PLACEMENT_3D('',#520,#521,#522);
#385=PRE_DEFINED_MARKER('');
#386=COLOUR_RGB('',0.509803950786591,0.509803950786591,0.588235318660736);
#387=DRAUGHTING_PRE_DEFINED_CURVE_FONT('continuous');
#388=COLOUR_RGB('',0.509803950786591,0.509803950786591,0.588235318660736);
#389=CARTESIAN_POINT('',(8.50000000000003,8.1647241612873E-015,2.89999999999998));
#390=VECTOR('',#523,1.0);
#391=DRAUGHTING_PRE_DEFINED_CURVE_FONT('continuous');
#392=COLOUR_RGB('',0.509803950786591,0.509803950786591,0.588235318660736);
#393=CARTESIAN_POINT('',(4.20000000000002,6.91116870078003E-015,1.34999999999998));
#394=VECTOR('',#524,1.0);
#396=SURFACE_STYLE_FILL_AREA(#525);
#397=ORIENTED_EDGE('',*,*,#111,.T.);
#398=ORIENTED_EDGE('',*,*,#85,.T.);
#399=ORIENTED_EDGE('',*,*,#151,.T.);
#400=ORIENTED_EDGE('',*,*,#103,.F.);
#401=CARTESIAN_POINT('',(2.8421709430404E-014,5.68676569284271E-015,1.34999999999998));
#402=DIRECTION('',(0.0,-0.0,1.0));
#403=DIRECTION('',(-1.0,-1.69063890317125E-016,0.0));
#404=CARTESIAN_POINT('',(2.8421709430404E-014,5.68676569284271E-015,2.69999999999999));
#405=DIRECTION('',(-0.0,0.0,-1.0));
#406=DIRECTION('',(-1.0,-1.69063890317125E-016,0.0));
#407=DIRECTION('',(0.707106781186548,2.06138969004212E-016,-0.707106781186547));
#408=CARTESIAN_POINT('',(2.8421709430404E-014,5.68676569284271E-015,3.19999999999999));
#409=DIRECTION('',(-0.0,0.0,-1.0));
#410=DIRECTION('',(-1.0,-1.69063890317125E-016,0.0));
#411=SURFACE_STYLE_FILL_AREA(#526);
#412=ORIENTED_EDGE('',*,*,#123,.F.);
#413=ORIENTED_EDGE('',*,*,#121,.T.);
#414=ORIENTED_EDGE('',*,*,#149,.F.);
#415=ORIENTED_EDGE('',*,*,#125,.T.);
#416=CARTESIAN_POINT('',(2.8421709430404E-014,5.68676569284271E-015,1.59999999999999));
#417=DIRECTION('',(0.0,-0.0,1.0));
#418=DIRECTION('',(-1.0,-1.69063890317125E-016,0.0));
#419=CARTESIAN_POINT('',(2.8421709430404E-014,5.68676569284271E-015,-2.8421709430404E-014));
#420=DIRECTION('',(-0.0,0.0,-1.0));
#421=DIRECTION('',(-1.0,-1.69063890317125E-016,0.0));
#422=CARTESIAN_POINT('',(2.8421709430404E-014,5.68676569284271E-015,3.19999999999999));
#423=DIRECTION('',(-0.0,0.0,-1.0));
#424=DIRECTION('',(-1.0,-1.69063890317125E-016,0.0));
#425=CARTESIAN_POINT('',(2.8421709430404E-014,5.68676569284271E-015,3.19999999999999));
#426=DIRECTION('',(-0.0,0.0,-1.0));
#427=DIRECTION('',(-1.0,-1.69063890317125E-016,0.0));
#428=SURFACE_STYLE_FILL_AREA(#527);
#429=ORIENTED_EDGE('',*,*,#79,.F.);
#430=ORIENTED_EDGE('',*,*,#87,.F.);
#431=ORIENTED_EDGE('',*,*,#131,.F.);
#432=ORIENTED_EDGE('',*,*,#75,.T.);
#433=CARTESIAN_POINT('',(2.8421709430404E-014,5.68676569284271E-015,2.94999999999999));
#434=DIRECTION('',(0.0,-0.0,1.0));
#435=DIRECTION('',(-1.0,-1.69063890317125E-016,0.0));
#436=SURFACE_STYLE_FILL_AREA(#528);
#437=ORIENTED_EDGE('',*,*,#137,.F.);
#438=ORIENTED_EDGE('',*,*,#117,.F.);
#439=ORIENTED_EDGE('',*,*,#109,.F.);
#440=ORIENTED_EDGE('',*,*,#125,.F.);
#441=CARTESIAN_POINT('',(3.01980662698043E-014,6.16868118434824E-015,11.0705371730487));
#442=DIRECTION('',(0.0,0.0,-1.0));
#443=DIRECTION('',(1.0,1.22460635382238E-016,0.0));
#444=SURFACE_STYLE_FILL_AREA(#529);
#445=ORIENTED_EDGE('',*,*,#121,.F.);
#446=ORIENTED_EDGE('',*,*,#81,.F.);
#447=ORIENTED_EDGE('',*,*,#89,.T.);
#448=ORIENTED_EDGE('',*,*,#87,.T.);
#449=CARTESIAN_POINT('',(-6.59999999999997,4.87852549931994E-015,3.19999999999999));
#450=DIRECTION('',(0.0,0.0,1.0));
#451=DIRECTION('',(-1.0,-1.22460635382238E-016,0.0));
#452=SURFACE_STYLE_FILL_AREA(#530);
#453=ORIENTED_EDGE('',*,*,#137,.T.);
#454=ORIENTED_EDGE('',*,*,#107,.F.);
#455=ORIENTED_EDGE('',*,*,#109,.T.);
#456=ORIENTED_EDGE('',*,*,#101,.F.);
#457=CARTESIAN_POINT('',(3.01980662698043E-014,6.16868118434824E-015,11.0705371730487));
#458=DIRECTION('',(0.0,0.0,-1.0));
#459=DIRECTION('',(1.0,1.22460635382238E-016,0.0));
#460=CARTESIAN_POINT('',(3.01980662698043E-014,6.16868118434824E-015,-1.4210854715202E-014));
#461=DIRECTION('',(0.0,0.0,-1.0));
#462=DIRECTION('',(0.0,-1.0,0.0));
#463=CARTESIAN_POINT('',(2.8421709430404E-014,5.68676569284271E-015,2.69999999999999));
#464=DIRECTION('',(-0.0,0.0,-1.0));
#465=DIRECTION('',(-1.0,-1.69063890317125E-016,0.0));
#466=SURFACE_STYLE_FILL_AREA(#531);
#467=ORIENTED_EDGE('',*,*,#117,.T.);
#468=ORIENTED_EDGE('',*,*,#101,.T.);
#469=ORIENTED_EDGE('',*,*,#85,.F.);
#470=ORIENTED_EDGE('',*,*,#139,.F.);
#471=CARTESIAN_POINT('',(-6.34999999999997,4.71320364155392E-015,-1.4210854715202E-014));
#472=DIRECTION('',(0.0,0.0,-1.0));
#473=DIRECTION('',(1.0,1.22460635382238E-016,0.0));
#474=CARTESIAN_POINT('',(2.8421709430404E-014,5.68676569284271E-015,2.60000000000001));
#475=DIRECTION('',(0.0,0.0,1.0));
#476=DIRECTION('',(-1.0,-1.69063890317125E-016,0.0));
#477=CARTESIAN_POINT('',(3.01980662698043E-014,6.16868118434824E-015,11.0705371730487));
#478=DIRECTION('',(2.44921270764475E-016,-1.0,0.0));
#479=DIRECTION('',(-0.0,0.0,1.0));
#480=DIRECTION('',(0.0,0.0,-1.0));
#481=CARTESIAN_POINT('',(3.01980662698043E-014,6.16868118434824E-015,-1.4210854715202E-014));
#482=DIRECTION('',(0.0,0.0,-1.0));
#483=DIRECTION('',(0.0,-1.0,0.0));
#484=CARTESIAN_POINT('',(2.8421709430404E-014,5.68676569284271E-015,3.19999999999999));
#485=DIRECTION('',(-0.0,0.0,-1.0));
#486=DIRECTION('',(-1.0,-1.69063890317125E-016,0.0));
#487=DIRECTION('',(0.0,0.0,-1.0));
#488=CARTESIAN_POINT('',(2.8421709430404E-014,5.68676569284271E-015,2.60000000000001));
#489=DIRECTION('',(0.0,0.0,1.0));
#490=DIRECTION('',(-1.0,-1.69063890317125E-016,0.0));
#491=SURFACE_STYLE_FILL_AREA(#532);
#492=ORIENTED_EDGE('',*,*,#79,.T.);
#493=ORIENTED_EDGE('',*,*,#103,.T.);
#494=ORIENTED_EDGE('',*,*,#131,.T.);
#495=ORIENTED_EDGE('',*,*,#89,.F.);
#496=CARTESIAN_POINT('',(2.8421709430404E-014,5.68676569284271E-015,2.94999999999999));
#497=DIRECTION('',(0.0,-0.0,1.0));
#498=DIRECTION('',(-1.0,-1.69063890317125E-016,0.0));
#499=DIRECTION('',(0.707106781186548,2.06138969004212E-016,0.707106781186547));
#500=SURFACE_STYLE_FILL_AREA(#533);
#501=CARTESIAN_POINT('',(3.01980662698043E-014,6.16868118434824E-015,11.0705371730487));
#502=DIRECTION('',(2.44921270764475E-016,-1.0,0.0));
#503=DIRECTION('',(-0.0,0.0,1.0));
#504=CARTESIAN_POINT('',(2.8421709430404E-014,5.68676569284271E-015,-2.8421709430404E-014));
#505=DIRECTION('',(-0.0,0.0,-1.0));
#506=DIRECTION('',(-1.0,-1.69063890317125E-016,0.0));
#507=SURFACE_STYLE_FILL_AREA(#534);
#508=ORIENTED_EDGE('',*,*,#111,.F.);
#509=ORIENTED_EDGE('',*,*,#75,.F.);
#510=ORIENTED_EDGE('',*,*,#151,.F.);
#511=ORIENTED_EDGE('',*,*,#139,.T.);
#512=CARTESIAN_POINT('',(2.8421709430404E-014,5.68676569284271E-015,1.34999999999998));
#513=DIRECTION('',(0.0,-0.0,1.0));
#514=DIRECTION('',(-1.0,-1.69063890317125E-016,0.0));
#515=SURFACE_STYLE_FILL_AREA(#535);
#516=ORIENTED_EDGE('',*,*,#123,.T.);
#517=ORIENTED_EDGE('',*,*,#107,.T.);
#518=ORIENTED_EDGE('',*,*,#149,.T.);
#519=ORIENTED_EDGE('',*,*,#81,.T.);
#520=CARTESIAN_POINT('',(2.8421709430404E-014,5.68676569284271E-015,1.59999999999999));
#521=DIRECTION('',(0.0,-0.0,1.0));
#522=DIRECTION('',(-1.0,-1.69063890317125E-016,0.0));
#523=DIRECTION('',(-0.0,-0.0,1.0));
#524=DIRECTION('',(0.0,0.0,1.0));
#525=FILL_AREA_STYLE('',(#536));
#526=FILL_AREA_STYLE('',(#537));
#527=FILL_AREA_STYLE('',(#538));
#528=FILL_AREA_STYLE('',(#539));
#529=FILL_AREA_STYLE('',(#540));
#530=FILL_AREA_STYLE('',(#541));
#531=FILL_AREA_STYLE('',(#542));
#532=FILL_AREA_STYLE('',(#543));
#533=FILL_AREA_STYLE('',(#544));
#534=FILL_AREA_STYLE('',(#545));
#535=FILL_AREA_STYLE('',(#546));
#536=FILL_AREA_STYLE_COLOUR('',#547);
#537=FILL_AREA_STYLE_COLOUR('',#548);
#538=FILL_AREA_STYLE_COLOUR('',#549);
#539=FILL_AREA_STYLE_COLOUR('',#550);
#540=FILL_AREA_STYLE_COLOUR('',#551);
#541=FILL_AREA_STYLE_COLOUR('',#552);
#542=FILL_AREA_STYLE_COLOUR('',#553);
#543=FILL_AREA_STYLE_COLOUR('',#554);
#544=FILL_AREA_STYLE_COLOUR('',#555);
#545=FILL_AREA_STYLE_COLOUR('',#556);
#546=FILL_AREA_STYLE_COLOUR('',#557);
#547=COLOUR_RGB('',0.509803950786591,0.509803950786591,0.588235318660736);
#548=COLOUR_RGB('',0.509803950786591,0.509803950786591,0.588235318660736);
#549=COLOUR_RGB('',0.509803950786591,0.509803950786591,0.588235318660736);
#550=COLOUR_RGB('',0.509803950786591,0.509803950786591,0.588235318660736);
#551=COLOUR_RGB('',0.509803950786591,0.509803950786591,0.588235318660736);
#552=COLOUR_RGB('',0.509803950786591,0.509803950786591,0.588235318660736);
#553=COLOUR_RGB('',0.509803950786591,0.509803950786591,0.588235318660736);
#554=COLOUR_RGB('',0.509803950786591,0.509803950786591,0.588235318660736);
#555=COLOUR_RGB('',0.509803950786591,0.509803950786591,0.588235318660736);
#556=COLOUR_RGB('',0.509803950786591,0.509803950786591,0.588235318660736);
#557=COLOUR_RGB('',0.509803950786591,0.509803950786591,0.588235318660736);
ENDSEC;
END-ISO-10303-21;
