ISO-10303-21;
HEADER;
FILE_DESCRIPTION(('STEP AP214'),'1');
FILE_NAME(' ','  ',('TraceParts'),('TraceParts S.A.'),'XStep 1.0',' ',' ');
FILE_SCHEMA(('automotive_design'));
ENDSEC;
DATA;
#1=MECHANICAL_DESIGN_GEOMETRIC_PRESENTATION_REPRESENTATION(' ',(#10,#11,#12,#13,#14,#15,#16,#17,#18,#19,#20,#21,#22,#23,#24,#25,#26,#27,#28,#29,#30,#31,#32,#33,#34,#35,#36,#37,#38,#39,#40,#41,#42,#43,#44,#45,#46,#47,#48,#49,#50,#51,#52),#6);
#2=PRODUCT_DEFINITION_CONTEXT('',#53,'design');
#3=APPLICATION_PROTOCOL_DEFINITION('INTERNATIONAL STANDARD','automotive_design',1994,#53);
#4=PRODUCT_CATEGORY_RELATIONSHIP('NONE','NONE',#54,#55);
#5=SHAPE_DEFINITION_REPRESENTATION(#56,#57);
#6= (GEOMETRIC_REPRESENTATION_CONTEXT(3)GLOBAL_UNCERTAINTY_ASSIGNED_CONTEXT((#60))GLOBAL_UNIT_ASSIGNED_CONTEXT((#62,#63,#64))REPRESENTATION_CONTEXT('NONE','WORKSPACE'));
#10=STYLED_ITEM('',(#66),#67);
#11=STYLED_ITEM('',(#68),#69);
#12=STYLED_ITEM('',(#70),#71);
#13=STYLED_ITEM('',(#72),#73);
#14=STYLED_ITEM('',(#74),#75);
#15=STYLED_ITEM('',(#76),#77);
#16=STYLED_ITEM('',(#78),#79);
#17=STYLED_ITEM('',(#80),#81);
#18=STYLED_ITEM('',(#82),#83);
#19=STYLED_ITEM('',(#84),#85);
#20=STYLED_ITEM('',(#86),#87);
#21=STYLED_ITEM('',(#88),#89);
#22=STYLED_ITEM('',(#90),#91);
#23=STYLED_ITEM('',(#92),#93);
#24=STYLED_ITEM('',(#94),#95);
#25=STYLED_ITEM('',(#96),#97);
#26=STYLED_ITEM('',(#98),#99);
#27=STYLED_ITEM('',(#100),#101);
#28=STYLED_ITEM('',(#102),#103);
#29=STYLED_ITEM('',(#104),#105);
#30=STYLED_ITEM('',(#106),#107);
#31=STYLED_ITEM('',(#108),#109);
#32=STYLED_ITEM('',(#110),#111);
#33=STYLED_ITEM('',(#112),#113);
#34=STYLED_ITEM('',(#114),#115);
#35=STYLED_ITEM('',(#116),#117);
#36=STYLED_ITEM('',(#118),#119);
#37=STYLED_ITEM('',(#120),#121);
#38=STYLED_ITEM('',(#122),#123);
#39=STYLED_ITEM('',(#124),#125);
#40=STYLED_ITEM('',(#126),#127);
#41=STYLED_ITEM('',(#128),#129);
#42=STYLED_ITEM('',(#130),#131);
#43=STYLED_ITEM('',(#132),#133);
#44=STYLED_ITEM('',(#134),#135);
#45=STYLED_ITEM('',(#136),#137);
#46=STYLED_ITEM('',(#138),#139);
#47=STYLED_ITEM('',(#140),#141);
#48=STYLED_ITEM('',(#142),#143);
#49=STYLED_ITEM('',(#144),#145);
#50=STYLED_ITEM('',(#146),#147);
#51=STYLED_ITEM('',(#148),#149);
#52=STYLED_ITEM('',(#150),#151);
#53=APPLICATION_CONTEXT(' ');
#54=PRODUCT_CATEGORY('part','NONE');
#55=PRODUCT_RELATED_PRODUCT_CATEGORY('detail',' ',(#152));
#56=PRODUCT_DEFINITION_SHAPE('NONE','NONE',#153);
#57=ADVANCED_BREP_SHAPE_REPRESENTATION('1',(#79,#154),#6);
#60=UNCERTAINTY_MEASURE_WITH_UNIT(LENGTH_MEASURE(1.0E-006),#62,'','');
#62= (CONVERSION_BASED_UNIT('MILLIMETRE',#157)LENGTH_UNIT()NAMED_UNIT(#160));
#63= (NAMED_UNIT(#162)PLANE_ANGLE_UNIT()SI_UNIT($,.RADIAN.));
#64= (NAMED_UNIT(#162)SOLID_ANGLE_UNIT()SI_UNIT($,.STERADIAN.));
#66=PRESENTATION_STYLE_ASSIGNMENT((#168));
#67=VERTEX_POINT('',#169);
#68=PRESENTATION_STYLE_ASSIGNMENT((#170));
#69=VERTEX_POINT('',#171);
#70=PRESENTATION_STYLE_ASSIGNMENT((#172));
#71=EDGE_CURVE('',#151,#149,#173,.T.);
#72=PRESENTATION_STYLE_ASSIGNMENT((#174));
#73=VERTEX_POINT('',#175);
#74=PRESENTATION_STYLE_ASSIGNMENT((#176));
#75=ADVANCED_FACE('',(#177),#178,.T.);
#76=PRESENTATION_STYLE_ASSIGNMENT((#179));
#77=ADVANCED_FACE('',(#180,#181),#182,.T.);
#78=PRESENTATION_STYLE_ASSIGNMENT((#183));
#79=MANIFOLD_SOLID_BREP('1',#184);
#80=PRESENTATION_STYLE_ASSIGNMENT((#185));
#81=EDGE_CURVE('',#69,#123,#186,.T.);
#82=PRESENTATION_STYLE_ASSIGNMENT((#187));
#83=EDGE_CURVE('',#149,#141,#188,.T.);
#84=PRESENTATION_STYLE_ASSIGNMENT((#189));
#85=EDGE_CURVE('',#73,#109,#190,.T.);
#86=PRESENTATION_STYLE_ASSIGNMENT((#191));
#87=EDGE_CURVE('',#139,#109,#192,.T.);
#88=PRESENTATION_STYLE_ASSIGNMENT((#193));
#89=EDGE_CURVE('',#149,#151,#194,.T.);
#90=PRESENTATION_STYLE_ASSIGNMENT((#195));
#91=ADVANCED_FACE('',(#196),#197,.F.);
#92=PRESENTATION_STYLE_ASSIGNMENT((#198));
#93=EDGE_CURVE('',#115,#151,#199,.T.);
#94=PRESENTATION_STYLE_ASSIGNMENT((#200));
#95=ADVANCED_FACE('',(#201),#202,.F.);
#96=PRESENTATION_STYLE_ASSIGNMENT((#203));
#97=ADVANCED_FACE('',(#204),#205,.F.);
#98=PRESENTATION_STYLE_ASSIGNMENT((#206));
#99=EDGE_CURVE('',#69,#73,#207,.T.);
#100=PRESENTATION_STYLE_ASSIGNMENT((#208));
#101=EDGE_CURVE('',#147,#137,#209,.T.);
#102=PRESENTATION_STYLE_ASSIGNMENT((#210));
#103=EDGE_CURVE('',#67,#123,#211,.T.);
#104=PRESENTATION_STYLE_ASSIGNMENT((#212));
#105=EDGE_CURVE('',#141,#115,#213,.T.);
#106=PRESENTATION_STYLE_ASSIGNMENT((#214));
#107=EDGE_CURVE('',#67,#73,#215,.T.);
#108=PRESENTATION_STYLE_ASSIGNMENT((#216));
#109=VERTEX_POINT('',#217);
#110=PRESENTATION_STYLE_ASSIGNMENT((#218));
#111=EDGE_CURVE('',#73,#67,#219,.T.);
#112=PRESENTATION_STYLE_ASSIGNMENT((#220));
#113=EDGE_CURVE('',#115,#141,#221,.T.);
#114=PRESENTATION_STYLE_ASSIGNMENT((#222));
#115=VERTEX_POINT('',#223);
#116=PRESENTATION_STYLE_ASSIGNMENT((#224));
#117=ADVANCED_FACE('',(#225,#226),#227,.T.);
#118=PRESENTATION_STYLE_ASSIGNMENT((#228));
#119=ADVANCED_FACE('',(#229),#230,.F.);
#120=PRESENTATION_STYLE_ASSIGNMENT((#231));
#121=ADVANCED_FACE('',(#232),#233,.T.);
#122=PRESENTATION_STYLE_ASSIGNMENT((#234));
#123=VERTEX_POINT('',#235);
#124=PRESENTATION_STYLE_ASSIGNMENT((#236));
#125=EDGE_CURVE('',#141,#137,#237,.T.);
#126=PRESENTATION_STYLE_ASSIGNMENT((#238));
#127=EDGE_CURVE('',#109,#139,#239,.T.);
#128=PRESENTATION_STYLE_ASSIGNMENT((#240));
#129=EDGE_CURVE('',#139,#67,#241,.T.);
#130=PRESENTATION_STYLE_ASSIGNMENT((#242));
#131=ADVANCED_FACE('',(#243),#244,.T.);
#132=PRESENTATION_STYLE_ASSIGNMENT((#245));
#133=EDGE_CURVE('',#137,#147,#246,.T.);
#134=PRESENTATION_STYLE_ASSIGNMENT((#247));
#135=EDGE_CURVE('',#123,#69,#248,.T.);
#136=PRESENTATION_STYLE_ASSIGNMENT((#249));
#137=VERTEX_POINT('',#250);
#138=PRESENTATION_STYLE_ASSIGNMENT((#251));
#139=VERTEX_POINT('',#252);
#140=PRESENTATION_STYLE_ASSIGNMENT((#253));
#141=VERTEX_POINT('',#254);
#142=PRESENTATION_STYLE_ASSIGNMENT((#255));
#143=EDGE_CURVE('',#147,#115,#256,.T.);
#144=PRESENTATION_STYLE_ASSIGNMENT((#257));
#145=ADVANCED_FACE('',(#258),#259,.T.);
#146=PRESENTATION_STYLE_ASSIGNMENT((#260));
#147=VERTEX_POINT('',#261);
#148=PRESENTATION_STYLE_ASSIGNMENT((#262));
#149=VERTEX_POINT('',#263);
#150=PRESENTATION_STYLE_ASSIGNMENT((#264));
#151=VERTEX_POINT('',#265);
#152=PRODUCT('1','1','PART-1-DESC',(#266));
#153=PRODUCT_DEFINITION('NONE','NONE',#267,#2);
#154=AXIS2_PLACEMENT_3D('',#268,#269,#270);
#157=LENGTH_MEASURE_WITH_UNIT(LENGTH_MEASURE(1.0),#271);
#160=DIMENSIONAL_EXPONENTS(1.0,0.0,0.0,0.0,0.0,0.0,0.0);
#162=DIMENSIONAL_EXPONENTS(0.0,0.0,0.0,0.0,0.0,0.0,0.0);
#168=POINT_STYLE(' ',#272,POSITIVE_LENGTH_MEASURE(1.0E-006),#273);
#169=CARTESIAN_POINT('',(3.20000000000002,6.30504127494149E-015,1.99999999999997));
#170=POINT_STYLE(' ',#274,POSITIVE_LENGTH_MEASURE(1.0E-006),#275);
#171=CARTESIAN_POINT('',(-3.49999999999997,4.95200188054929E-015,2.29999999999998));
#172=CURVE_STYLE('',#276,POSITIVE_LENGTH_MEASURE(1.0E-006),#277);
#173=CIRCLE('',#278,6.0);
#174=POINT_STYLE(' ',#279,POSITIVE_LENGTH_MEASURE(1.0E-006),#280);
#175=CARTESIAN_POINT('',(-3.19999999999996,4.97037097585662E-015,1.99999999999997));
#176=SURFACE_STYLE_USAGE(.BOTH.,#281);
#177=FACE_OUTER_BOUND('',#282,.T.);
#178=CYLINDRICAL_SURFACE('',#283,6.0);
#179=SURFACE_STYLE_USAGE(.BOTH.,#284);
#180=FACE_OUTER_BOUND('',#285,.T.);
#181=FACE_BOUND('',#286,.T.);
#182=PLANE('',#287);
#183=SURFACE_STYLE_USAGE(.BOTH.,#288);
#184=CLOSED_SHELL('',(#91,#75,#119,#131,#145,#95,#117,#121,#77,#97));
#185=CURVE_STYLE('',#289,POSITIVE_LENGTH_MEASURE(1.0E-006),#290);
#186=CIRCLE('',#291,3.5);
#187=CURVE_STYLE('',#292,POSITIVE_LENGTH_MEASURE(1.0E-006),#293);
#188=LINE('',#294,#295);
#189=CURVE_STYLE('',#296,POSITIVE_LENGTH_MEASURE(1.0E-006),#297);
#190=LINE('',#298,#299);
#191=CURVE_STYLE('',#300,POSITIVE_LENGTH_MEASURE(1.0E-006),#301);
#192=CIRCLE('',#302,3.19999999999999);
#193=CURVE_STYLE('',#303,POSITIVE_LENGTH_MEASURE(1.0E-006),#304);
#194=CIRCLE('',#305,6.0);
#195=SURFACE_STYLE_USAGE(.BOTH.,#306);
#196=FACE_OUTER_BOUND('',#307,.T.);
#197=CYLINDRICAL_SURFACE('',#308,3.19999999999999);
#198=CURVE_STYLE('',#309,POSITIVE_LENGTH_MEASURE(1.0E-006),#310);
#199=LINE('',#311,#312);
#200=SURFACE_STYLE_USAGE(.BOTH.,#313);
#201=FACE_OUTER_BOUND('',#314,.T.);
#202=CONICAL_SURFACE('',#315,3.34999999999999,0.785398163397448);
#203=SURFACE_STYLE_USAGE(.BOTH.,#316);
#204=FACE_OUTER_BOUND('',#317,.T.);
#205=CYLINDRICAL_SURFACE('',#318,3.19999999999999);
#206=CURVE_STYLE('',#319,POSITIVE_LENGTH_MEASURE(1.0E-006),#320);
#207=LINE('',#321,#322);
#208=CURVE_STYLE('',#323,POSITIVE_LENGTH_MEASURE(1.0E-006),#324);
#209=CIRCLE('',#325,3.46031030631661);
#210=CURVE_STYLE('',#326,POSITIVE_LENGTH_MEASURE(1.0E-006),#327);
#211=LINE('',#328,#329);
#212=CURVE_STYLE('',#330,POSITIVE_LENGTH_MEASURE(1.0E-006),#331);
#213=CIRCLE('',#332,6.0);
#214=CURVE_STYLE('',#333,POSITIVE_LENGTH_MEASURE(1.0E-006),#334);
#215=CIRCLE('',#335,3.19999999999999);
#216=POINT_STYLE(' ',#336,POSITIVE_LENGTH_MEASURE(1.0E-006),#337);
#217=CARTESIAN_POINT('',(-3.19999999999996,4.84791034047438E-015,-2.8421709430404E-014));
#218=CURVE_STYLE('',#338,POSITIVE_LENGTH_MEASURE(1.0E-006),#339);
#219=CIRCLE('',#340,3.19999999999999);
#220=CURVE_STYLE('',#341,POSITIVE_LENGTH_MEASURE(1.0E-006),#342);
#221=CIRCLE('',#343,6.0);
#222=POINT_STYLE(' ',#344,POSITIVE_LENGTH_MEASURE(1.0E-006),#345);
#223=CARTESIAN_POINT('',(6.00000000000003,7.21802596451394E-015,1.60000000000005));
#224=SURFACE_STYLE_USAGE(.BOTH.,#346);
#225=FACE_OUTER_BOUND('',#347,.T.);
#226=FACE_BOUND('',#348,.T.);
#227=PLANE('',#349);
#228=SURFACE_STYLE_USAGE(.BOTH.,#350);
#229=FACE_OUTER_BOUND('',#351,.T.);
#230=CONICAL_SURFACE('',#352,3.34999999999999,0.785398163397448);
#231=SURFACE_STYLE_USAGE(.BOTH.,#353);
#232=FACE_OUTER_BOUND('',#354,.T.);
#233=CYLINDRICAL_SURFACE('',#355,6.0);
#234=POINT_STYLE(' ',#356,POSITIVE_LENGTH_MEASURE(1.0E-006),#357);
#235=CARTESIAN_POINT('',(3.50000000000003,6.39170632218097E-015,2.29999999999998));
#236=CURVE_STYLE('',#358,POSITIVE_LENGTH_MEASURE(1.0E-006),#359);
#237=CIRCLE('',#360,8.99999999999999);
#238=CURVE_STYLE('',#361,POSITIVE_LENGTH_MEASURE(1.0E-006),#362);
#239=CIRCLE('',#363,3.19999999999999);
#240=CURVE_STYLE('',#364,POSITIVE_LENGTH_MEASURE(1.0E-006),#365);
#241=LINE('',#366,#367);
#242=SURFACE_STYLE_USAGE(.BOTH.,#368);
#243=FACE_OUTER_BOUND('',#369,.T.);
#244=SPHERICAL_SURFACE('',#370,8.99999999999999);
#245=CURVE_STYLE('',#371,POSITIVE_LENGTH_MEASURE(1.0E-006),#372);
#246=CIRCLE('',#373,3.46031030631661);
#247=CURVE_STYLE('',#374,POSITIVE_LENGTH_MEASURE(1.0E-006),#375);
#248=CIRCLE('',#376,3.5);
#249=POINT_STYLE(' ',#377,POSITIVE_LENGTH_MEASURE(1.0E-006),#378);
#250=CARTESIAN_POINT('',(-3.46031030631653,4.81603257496631E-015,-3.01980662698043E-014));
#251=POINT_STYLE(' ',#379,POSITIVE_LENGTH_MEASURE(1.0E-006),#380);
#252=CARTESIAN_POINT('',(3.20000000000002,6.30504127494149E-015,-2.8421709430404E-014));
#253=POINT_STYLE(' ',#381,POSITIVE_LENGTH_MEASURE(1.0E-006),#382);
#254=CARTESIAN_POINT('',(-6.0,4.60298906970991E-015,1.60000000000009));
#255=CURVE_STYLE('',#383,POSITIVE_LENGTH_MEASURE(1.0E-006),#384);
#256=CIRCLE('',#385,8.99999999999999);
#257=SURFACE_STYLE_USAGE(.BOTH.,#386);
#258=FACE_OUTER_BOUND('',#387,.T.);
#259=SPHERICAL_SURFACE('',#388,8.99999999999999);
#260=POINT_STYLE(' ',#389,POSITIVE_LENGTH_MEASURE(1.0E-006),#390);
#261=CARTESIAN_POINT('',(3.46031030631665,6.59600193738956E-015,-2.8421709430404E-014));
#262=POINT_STYLE(' ',#391,POSITIVE_LENGTH_MEASURE(1.0E-006),#392);
#263=CARTESIAN_POINT('',(-5.99999999999997,4.64585029209369E-015,2.29999999999998));
#264=POINT_STYLE(' ',#393,POSITIVE_LENGTH_MEASURE(1.0E-006),#394);
#265=CARTESIAN_POINT('',(6.00000000000003,7.11391504917657E-015,2.29999999999998));
#266=PRODUCT_CONTEXT('',#53,'mechanical');
#267=PRODUCT_DEFINITION_FORMATION_WITH_SPECIFIED_SOURCE(' ','NONE',#152,.NOT_KNOWN.);
#268=CARTESIAN_POINT('',(0.0,0.0,0.0));
#269=DIRECTION('',(0.0,0.0,1.0));
#270=DIRECTION('',(1.0,0.0,0.0));
#271= (NAMED_UNIT(#160)LENGTH_UNIT()SI_UNIT(.MILLI.,.METRE.));
#272=PRE_DEFINED_MARKER('');
#273=COLOUR_RGB('',0.509803950786591,0.509803950786591,0.588235318660736);
#274=PRE_DEFINED_MARKER('');
#275=COLOUR_RGB('',0.509803950786591,0.509803950786591,0.588235318660736);
#276=DRAUGHTING_PRE_DEFINED_CURVE_FONT('continuous');
#277=COLOUR_RGB('',0.509803950786591,0.509803950786591,0.588235318660736);
#278=AXIS2_PLACEMENT_3D('',#396,#397,#398);
#279=PRE_DEFINED_MARKER('');
#280=COLOUR_RGB('',0.509803950786591,0.509803950786591,0.588235318660736);
#281=SURFACE_SIDE_STYLE('',(#399));
#282=EDGE_LOOP('',(#400,#401,#402,#403));
#283=AXIS2_PLACEMENT_3D('',#404,#405,#406);
#284=SURFACE_SIDE_STYLE('',(#407));
#285=EDGE_LOOP('',(#408,#409));
#286=EDGE_LOOP('',(#410,#411));
#287=AXIS2_PLACEMENT_3D('',#412,#413,#414);
#288=SURFACE_SIDE_STYLE('',(#415));
#289=DRAUGHTING_PRE_DEFINED_CURVE_FONT('continuous');
#290=COLOUR_RGB('',0.509803950786591,0.509803950786591,0.588235318660736);
#291=AXIS2_PLACEMENT_3D('',#416,#417,#418);
#292=DRAUGHTING_PRE_DEFINED_CURVE_FONT('continuous');
#293=COLOUR_RGB('',0.509803950786591,0.509803950786591,0.588235318660736);
#294=CARTESIAN_POINT('',(-5.99999999999997,3.64731315959766E-015,1.95000000000002));
#295=VECTOR('',#419,1.0);
#296=DRAUGHTING_PRE_DEFINED_CURVE_FONT('continuous');
#297=COLOUR_RGB('',0.509803950786591,0.509803950786591,0.588235318660736);
#298=CARTESIAN_POINT('',(-3.19999999999996,4.45618693383275E-015,0.999999999999972));
#299=VECTOR('',#420,1.0);
#300=DRAUGHTING_PRE_DEFINED_CURVE_FONT('continuous');
#301=COLOUR_RGB('',0.509803950786591,0.509803950786591,0.588235318660736);
#302=AXIS2_PLACEMENT_3D('',#421,#422,#423);
#303=DRAUGHTING_PRE_DEFINED_CURVE_FONT('continuous');
#304=COLOUR_RGB('',0.509803950786591,0.509803950786591,0.588235318660736);
#305=AXIS2_PLACEMENT_3D('',#424,#425,#426);
#306=SURFACE_SIDE_STYLE('',(#427));
#307=EDGE_LOOP('',(#428,#429,#430,#431));
#308=AXIS2_PLACEMENT_3D('',#432,#433,#434);
#309=DRAUGHTING_PRE_DEFINED_CURVE_FONT('continuous');
#310=COLOUR_RGB('',0.509803950786591,0.509803950786591,0.588235318660736);
#311=CARTESIAN_POINT('',(6.00000000000003,7.11391504917657E-015,1.95000000000002));
#312=VECTOR('',#435,1.0);
#313=SURFACE_SIDE_STYLE('',(#436));
#314=EDGE_LOOP('',(#437,#438,#439,#440));
#315=AXIS2_PLACEMENT_3D('',#441,#442,#443);
#316=SURFACE_SIDE_STYLE('',(#444));
#317=EDGE_LOOP('',(#445,#446,#447,#448));
#318=AXIS2_PLACEMENT_3D('',#449,#450,#451);
#319=DRAUGHTING_PRE_DEFINED_CURVE_FONT('continuous');
#320=COLOUR_RGB('',0.509803950786591,0.509803950786591,0.588235318660736);
#321=CARTESIAN_POINT('',(-3.34999999999997,4.41285441021301E-015,2.14999999999998));
#322=VECTOR('',#452,1.0);
#323=DRAUGHTING_PRE_DEFINED_CURVE_FONT('continuous');
#324=COLOUR_RGB('',0.509803950786591,0.509803950786591,0.588235318660736);
#325=AXIS2_PLACEMENT_3D('',#453,#454,#455);
#326=DRAUGHTING_PRE_DEFINED_CURVE_FONT('continuous');
#327=COLOUR_RGB('',0.509803950786591,0.509803950786591,0.588235318660736);
#328=CARTESIAN_POINT('',(3.35000000000002,6.34837379856123E-015,2.14999999999998));
#329=VECTOR('',#456,1.0);
#330=DRAUGHTING_PRE_DEFINED_CURVE_FONT('continuous');
#331=COLOUR_RGB('',0.509803950786591,0.509803950786591,0.588235318660736);
#332=AXIS2_PLACEMENT_3D('',#457,#458,#459);
#333=DRAUGHTING_PRE_DEFINED_CURVE_FONT('continuous');
#334=COLOUR_RGB('',0.509803950786591,0.509803950786591,0.588235318660736);
#335=AXIS2_PLACEMENT_3D('',#460,#461,#462);
#336=PRE_DEFINED_MARKER('');
#337=COLOUR_RGB('',0.509803950786591,0.509803950786591,0.588235318660736);
#338=DRAUGHTING_PRE_DEFINED_CURVE_FONT('continuous');
#339=COLOUR_RGB('',0.509803950786591,0.509803950786591,0.588235318660736);
#340=AXIS2_PLACEMENT_3D('',#463,#464,#465);
#341=DRAUGHTING_PRE_DEFINED_CURVE_FONT('continuous');
#342=COLOUR_RGB('',0.509803950786591,0.509803950786591,0.588235318660736);
#343=AXIS2_PLACEMENT_3D('',#466,#467,#468);
#344=PRE_DEFINED_MARKER('');
#345=COLOUR_RGB('',0.509803950786591,0.509803950786591,0.588235318660736);
#346=SURFACE_SIDE_STYLE('',(#469));
#347=EDGE_LOOP('',(#470,#471));
#348=EDGE_LOOP('',(#472,#473));
#349=AXIS2_PLACEMENT_3D('',#474,#475,#476);
#350=SURFACE_SIDE_STYLE('',(#477));
#351=EDGE_LOOP('',(#478,#479,#480,#481));
#352=AXIS2_PLACEMENT_3D('',#482,#483,#484);
#353=SURFACE_SIDE_STYLE('',(#485));
#354=EDGE_LOOP('',(#486,#487,#488,#489));
#355=AXIS2_PLACEMENT_3D('',#490,#491,#492);
#356=PRE_DEFINED_MARKER('');
#357=COLOUR_RGB('',0.509803950786591,0.509803950786591,0.588235318660736);
#358=DRAUGHTING_PRE_DEFINED_CURVE_FONT('continuous');
#359=COLOUR_RGB('',0.509803950786591,0.509803950786591,0.588235318660736);
#360=AXIS2_PLACEMENT_3D('',#493,#494,#495);
#361=DRAUGHTING_PRE_DEFINED_CURVE_FONT('continuous');
#362=COLOUR_RGB('',0.509803950786591,0.509803950786591,0.588235318660736);
#363=AXIS2_PLACEMENT_3D('',#496,#497,#498);
#364=DRAUGHTING_PRE_DEFINED_CURVE_FONT('continuous');
#365=COLOUR_RGB('',0.509803950786591,0.509803950786591,0.588235318660736);
#366=CARTESIAN_POINT('',(3.20000000000002,6.30504127494149E-015,0.999999999999972));
#367=VECTOR('',#499,1.0);
#368=SURFACE_SIDE_STYLE('',(#500));
#369=EDGE_LOOP('',(#501,#502,#503,#504));
#370=AXIS2_PLACEMENT_3D('',#505,#506,#507);
#371=DRAUGHTING_PRE_DEFINED_CURVE_FONT('continuous');
#372=COLOUR_RGB('',0.509803950786591,0.509803950786591,0.588235318660736);
#373=AXIS2_PLACEMENT_3D('',#508,#509,#510);
#374=DRAUGHTING_PRE_DEFINED_CURVE_FONT('continuous');
#375=COLOUR_RGB('',0.509803950786591,0.509803950786591,0.588235318660736);
#376=AXIS2_PLACEMENT_3D('',#511,#512,#513);
#377=PRE_DEFINED_MARKER('');
#378=COLOUR_RGB('',0.509803950786591,0.509803950786591,0.588235318660736);
#379=PRE_DEFINED_MARKER('');
#380=COLOUR_RGB('',0.509803950786591,0.509803950786591,0.588235318660736);
#381=PRE_DEFINED_MARKER('');
#382=COLOUR_RGB('',0.509803950786591,0.509803950786591,0.588235318660736);
#383=DRAUGHTING_PRE_DEFINED_CURVE_FONT('continuous');
#384=COLOUR_RGB('',0.509803950786591,0.509803950786591,0.588235318660736);
#385=AXIS2_PLACEMENT_3D('',#514,#515,#516);
#386=SURFACE_SIDE_STYLE('',(#517));
#387=EDGE_LOOP('',(#518,#519,#520,#521));
#388=AXIS2_PLACEMENT_3D('',#522,#523,#524);
#389=PRE_DEFINED_MARKER('');
#390=COLOUR_RGB('',0.509803950786591,0.509803950786591,0.588235318660736);
#391=PRE_DEFINED_MARKER('');
#392=COLOUR_RGB('',0.509803950786591,0.509803950786591,0.588235318660736);
#393=PRE_DEFINED_MARKER('');
#394=COLOUR_RGB('',0.509803950786591,0.509803950786591,0.588235318660736);
#396=CARTESIAN_POINT('',(2.8421709430404E-014,5.38061410438712E-015,2.29999999999998));
#397=DIRECTION('',(-0.0,0.0,-1.0));
#398=DIRECTION('',(-1.0,-1.66422855416005E-016,0.0));
#399=SURFACE_STYLE_FILL_AREA(#525);
#400=ORIENTED_EDGE('',*,*,#83,.F.);
#401=ORIENTED_EDGE('',*,*,#89,.T.);
#402=ORIENTED_EDGE('',*,*,#93,.F.);
#403=ORIENTED_EDGE('',*,*,#113,.T.);
#404=CARTESIAN_POINT('',(2.8421709430404E-014,5.38061410438712E-015,1.14999999999998));
#405=DIRECTION('',(0.0,-0.0,1.0));
#406=DIRECTION('',(-1.0,-1.66422855416005E-016,0.0));
#407=SURFACE_STYLE_FILL_AREA(#526);
#408=ORIENTED_EDGE('',*,*,#133,.T.);
#409=ORIENTED_EDGE('',*,*,#101,.T.);
#410=ORIENTED_EDGE('',*,*,#127,.F.);
#411=ORIENTED_EDGE('',*,*,#87,.F.);
#412=CARTESIAN_POINT('',(-4.59999999999997,4.67646545093925E-015,-2.8421709430404E-014));
#413=DIRECTION('',(0.0,0.0,-1.0));
#414=DIRECTION('',(1.0,1.22460635382238E-016,0.0));
#415=SURFACE_STYLE_FILL_AREA(#527);
#416=CARTESIAN_POINT('',(2.8421709430404E-014,5.38061410438712E-015,2.29999999999998));
#417=DIRECTION('',(-0.0,0.0,-1.0));
#418=DIRECTION('',(-1.0,-1.66422855416005E-016,0.0));
#419=DIRECTION('',(0.0,0.0,-1.0));
#420=DIRECTION('',(0.0,0.0,-1.0));
#421=CARTESIAN_POINT('',(2.8421709430404E-014,5.38061410438712E-015,-2.8421709430404E-014));
#422=DIRECTION('',(-0.0,0.0,-1.0));
#423=DIRECTION('',(-1.0,-1.66422855416005E-016,0.0));
#424=CARTESIAN_POINT('',(2.8421709430404E-014,5.38061410438712E-015,2.29999999999998));
#425=DIRECTION('',(-0.0,0.0,-1.0));
#426=DIRECTION('',(-1.0,-1.66422855416005E-016,0.0));
#427=SURFACE_STYLE_FILL_AREA(#528);
#428=ORIENTED_EDGE('',*,*,#85,.F.);
#429=ORIENTED_EDGE('',*,*,#107,.F.);
#430=ORIENTED_EDGE('',*,*,#129,.F.);
#431=ORIENTED_EDGE('',*,*,#87,.T.);
#432=CARTESIAN_POINT('',(2.8421709430404E-014,5.38061410438712E-015,0.999999999999972));
#433=DIRECTION('',(0.0,-0.0,1.0));
#434=DIRECTION('',(-1.0,-1.66422855416005E-016,0.0));
#435=DIRECTION('',(-0.0,-0.0,1.0));
#436=SURFACE_STYLE_FILL_AREA(#529);
#437=ORIENTED_EDGE('',*,*,#99,.T.);
#438=ORIENTED_EDGE('',*,*,#111,.T.);
#439=ORIENTED_EDGE('',*,*,#103,.T.);
#440=ORIENTED_EDGE('',*,*,#81,.F.);
#441=CARTESIAN_POINT('',(2.8421709430404E-014,5.38061410438712E-015,2.14999999999998));
#442=DIRECTION('',(0.0,-0.0,1.0));
#443=DIRECTION('',(-1.0,-1.66422855416005E-016,0.0));
#444=SURFACE_STYLE_FILL_AREA(#530);
#445=ORIENTED_EDGE('',*,*,#85,.T.);
#446=ORIENTED_EDGE('',*,*,#127,.T.);
#447=ORIENTED_EDGE('',*,*,#129,.T.);
#448=ORIENTED_EDGE('',*,*,#111,.F.);
#449=CARTESIAN_POINT('',(2.8421709430404E-014,5.38061410438712E-015,0.999999999999972));
#450=DIRECTION('',(0.0,-0.0,1.0));
#451=DIRECTION('',(-1.0,-1.66422855416005E-016,0.0));
#452=DIRECTION('',(0.707106781186548,2.04271475316279E-016,-0.707106781186548));
#453=CARTESIAN_POINT('',(4.17443857259059E-014,5.74849833992709E-015,-2.8421709430404E-014));
#454=DIRECTION('',(0.0,0.0,-1.0));
#455=DIRECTION('',(0.0,-1.0,0.0));
#456=DIRECTION('',(0.707106781186548,2.04271475316279E-016,0.707106781186548));
#457=CARTESIAN_POINT('',(2.8421709430404E-014,5.38061410438712E-015,1.60000000000005));
#458=DIRECTION('',(0.0,0.0,1.0));
#459=DIRECTION('',(-1.0,-1.66422855416005E-016,0.0));
#460=CARTESIAN_POINT('',(2.8421709430404E-014,5.38061410438712E-015,1.99999999999997));
#461=DIRECTION('',(-0.0,0.0,-1.0));
#462=DIRECTION('',(-1.0,-1.66422855416005E-016,0.0));
#463=CARTESIAN_POINT('',(2.8421709430404E-014,5.38061410438712E-015,1.99999999999997));
#464=DIRECTION('',(-0.0,0.0,-1.0));
#465=DIRECTION('',(-1.0,-1.66422855416005E-016,0.0));
#466=CARTESIAN_POINT('',(2.8421709430404E-014,5.38061410438712E-015,1.60000000000005));
#467=DIRECTION('',(0.0,0.0,1.0));
#468=DIRECTION('',(-1.0,-1.66422855416005E-016,0.0));
#469=SURFACE_STYLE_FILL_AREA(#531);
#470=ORIENTED_EDGE('',*,*,#89,.F.);
#471=ORIENTED_EDGE('',*,*,#71,.F.);
#472=ORIENTED_EDGE('',*,*,#81,.T.);
#473=ORIENTED_EDGE('',*,*,#135,.T.);
#474=CARTESIAN_POINT('',(-4.74999999999997,4.79892608632149E-015,2.29999999999998));
#475=DIRECTION('',(0.0,0.0,1.0));
#476=DIRECTION('',(-1.0,-1.22460635382238E-016,0.0));
#477=SURFACE_STYLE_FILL_AREA(#532);
#478=ORIENTED_EDGE('',*,*,#99,.F.);
#479=ORIENTED_EDGE('',*,*,#135,.F.);
#480=ORIENTED_EDGE('',*,*,#103,.F.);
#481=ORIENTED_EDGE('',*,*,#107,.T.);
#482=CARTESIAN_POINT('',(2.8421709430404E-014,5.38061410438712E-015,2.14999999999998));
#483=DIRECTION('',(0.0,-0.0,1.0));
#484=DIRECTION('',(-1.0,-1.66422855416005E-016,0.0));
#485=SURFACE_STYLE_FILL_AREA(#533);
#486=ORIENTED_EDGE('',*,*,#83,.T.);
#487=ORIENTED_EDGE('',*,*,#105,.T.);
#488=ORIENTED_EDGE('',*,*,#93,.T.);
#489=ORIENTED_EDGE('',*,*,#71,.T.);
#490=CARTESIAN_POINT('',(2.8421709430404E-014,5.38061410438712E-015,1.14999999999998));
#491=DIRECTION('',(0.0,-0.0,1.0));
#492=DIRECTION('',(-1.0,-1.66422855416005E-016,0.0));
#493=CARTESIAN_POINT('',(4.17443857259059E-014,5.74849833992709E-015,8.3082039324994));
#494=DIRECTION('',(2.44921270764476E-016,-1.0,0.0));
#495=DIRECTION('',(-0.0,0.0,1.0));
#496=CARTESIAN_POINT('',(2.8421709430404E-014,5.38061410438712E-015,-2.8421709430404E-014));
#497=DIRECTION('',(-0.0,0.0,-1.0));
#498=DIRECTION('',(-1.0,-1.66422855416005E-016,0.0));
#499=DIRECTION('',(0.0,0.0,1.0));
#500=SURFACE_STYLE_FILL_AREA(#534);
#501=ORIENTED_EDGE('',*,*,#143,.F.);
#502=ORIENTED_EDGE('',*,*,#133,.F.);
#503=ORIENTED_EDGE('',*,*,#125,.F.);
#504=ORIENTED_EDGE('',*,*,#113,.F.);
#505=CARTESIAN_POINT('',(4.17443857259059E-014,5.74849833992709E-015,8.3082039324994));
#506=DIRECTION('',(0.0,0.0,-1.0));
#507=DIRECTION('',(1.0,1.22460635382238E-016,0.0));
#508=CARTESIAN_POINT('',(4.17443857259059E-014,5.74849833992709E-015,-2.8421709430404E-014));
#509=DIRECTION('',(0.0,0.0,-1.0));
#510=DIRECTION('',(0.0,-1.0,0.0));
#511=CARTESIAN_POINT('',(2.8421709430404E-014,5.38061410438712E-015,2.29999999999998));
#512=DIRECTION('',(-0.0,0.0,-1.0));
#513=DIRECTION('',(-1.0,-1.66422855416005E-016,0.0));
#514=CARTESIAN_POINT('',(4.17443857259059E-014,5.74849833992709E-015,8.3082039324994));
#515=DIRECTION('',(2.44921270764476E-016,-1.0,0.0));
#516=DIRECTION('',(-0.0,0.0,1.0));
#517=SURFACE_STYLE_FILL_AREA(#535);
#518=ORIENTED_EDGE('',*,*,#143,.T.);
#519=ORIENTED_EDGE('',*,*,#105,.F.);
#520=ORIENTED_EDGE('',*,*,#125,.T.);
#521=ORIENTED_EDGE('',*,*,#101,.F.);
#522=CARTESIAN_POINT('',(4.17443857259059E-014,5.74849833992709E-015,8.3082039324994));
#523=DIRECTION('',(0.0,0.0,-1.0));
#524=DIRECTION('',(1.0,1.22460635382238E-016,0.0));
#525=FILL_AREA_STYLE('',(#536));
#526=FILL_AREA_STYLE('',(#537));
#527=FILL_AREA_STYLE('',(#538));
#528=FILL_AREA_STYLE('',(#539));
#529=FILL_AREA_STYLE('',(#540));
#530=FILL_AREA_STYLE('',(#541));
#531=FILL_AREA_STYLE('',(#542));
#532=FILL_AREA_STYLE('',(#543));
#533=FILL_AREA_STYLE('',(#544));
#534=FILL_AREA_STYLE('',(#545));
#535=FILL_AREA_STYLE('',(#546));
#536=FILL_AREA_STYLE_COLOUR('',#547);
#537=FILL_AREA_STYLE_COLOUR('',#548);
#538=FILL_AREA_STYLE_COLOUR('',#549);
#539=FILL_AREA_STYLE_COLOUR('',#550);
#540=FILL_AREA_STYLE_COLOUR('',#551);
#541=FILL_AREA_STYLE_COLOUR('',#552);
#542=FILL_AREA_STYLE_COLOUR('',#553);
#543=FILL_AREA_STYLE_COLOUR('',#554);
#544=FILL_AREA_STYLE_COLOUR('',#555);
#545=FILL_AREA_STYLE_COLOUR('',#556);
#546=FILL_AREA_STYLE_COLOUR('',#557);
#547=COLOUR_RGB('',0.509803950786591,0.509803950786591,0.588235318660736);
#548=COLOUR_RGB('',0.509803950786591,0.509803950786591,0.588235318660736);
#549=COLOUR_RGB('',0.509803950786591,0.509803950786591,0.588235318660736);
#550=COLOUR_RGB('',0.509803950786591,0.509803950786591,0.588235318660736);
#551=COLOUR_RGB('',0.509803950786591,0.509803950786591,0.588235318660736);
#552=COLOUR_RGB('',0.509803950786591,0.509803950786591,0.588235318660736);
#553=COLOUR_RGB('',0.509803950786591,0.509803950786591,0.588235318660736);
#554=COLOUR_RGB('',0.509803950786591,0.509803950786591,0.588235318660736);
#555=COLOUR_RGB('',0.509803950786591,0.509803950786591,0.588235318660736);
#556=COLOUR_RGB('',0.509803950786591,0.509803950786591,0.588235318660736);
#557=COLOUR_RGB('',0.509803950786591,0.509803950786591,0.588235318660736);
ENDSEC;
END-ISO-10303-21;
