ISO-10303-21;
HEADER;
FILE_DESCRIPTION(('STEP AP214'),'1');
FILE_NAME(' ','  ',('TraceParts'),('TraceParts S.A.'),'XStep 1.0',' ',' ');
FILE_SCHEMA(('automotive_design'));
ENDSEC;
DATA;
#1=MECHANICAL_DESIGN_GEOMETRIC_PRESENTATION_REPRESENTATION(' ',(#10,#11,#12,#13,#14,#15,#16,#17,#18,#19,#20,#21,#22,#23,#24,#25,#26,#27,#28,#29,#30,#31,#32,#33,#34,#35,#36,#37,#38,#39,#40,#41,#42,#43,#44),#6);
#2=PRODUCT_DEFINITION_CONTEXT('',#45,'design');
#3=APPLICATION_PROTOCOL_DEFINITION('INTERNATIONAL STANDARD','automotive_design',1994,#45);
#4=PRODUCT_CATEGORY_RELATIONSHIP('NONE','NONE',#46,#47);
#5=SHAPE_DEFINITION_REPRESENTATION(#48,#49);
#6= (GEOMETRIC_REPRESENTATION_CONTEXT(3)GLOBAL_UNCERTAINTY_ASSIGNED_CONTEXT((#52))GLOBAL_UNIT_ASSIGNED_CONTEXT((#54,#55,#56))REPRESENTATION_CONTEXT('NONE','WORKSPACE'));
#10=STYLED_ITEM('',(#58),#59);
#11=STYLED_ITEM('',(#60),#61);
#12=STYLED_ITEM('',(#62),#63);
#13=STYLED_ITEM('',(#64),#65);
#14=STYLED_ITEM('',(#66),#67);
#15=STYLED_ITEM('',(#68),#69);
#16=STYLED_ITEM('',(#70),#71);
#17=STYLED_ITEM('',(#72),#73);
#18=STYLED_ITEM('',(#74),#75);
#19=STYLED_ITEM('',(#76),#77);
#20=STYLED_ITEM('',(#78),#79);
#21=STYLED_ITEM('',(#80),#81);
#22=STYLED_ITEM('',(#82),#83);
#23=STYLED_ITEM('',(#84),#85);
#24=STYLED_ITEM('',(#86),#87);
#25=STYLED_ITEM('',(#88),#89);
#26=STYLED_ITEM('',(#90),#91);
#27=STYLED_ITEM('',(#92),#93);
#28=STYLED_ITEM('',(#94),#95);
#29=STYLED_ITEM('',(#96),#97);
#30=STYLED_ITEM('',(#98),#99);
#31=STYLED_ITEM('',(#100),#101);
#32=STYLED_ITEM('',(#102),#103);
#33=STYLED_ITEM('',(#104),#105);
#34=STYLED_ITEM('',(#106),#107);
#35=STYLED_ITEM('',(#108),#109);
#36=STYLED_ITEM('',(#110),#111);
#37=STYLED_ITEM('',(#112),#113);
#38=STYLED_ITEM('',(#114),#115);
#39=STYLED_ITEM('',(#116),#117);
#40=STYLED_ITEM('',(#118),#119);
#41=STYLED_ITEM('',(#120),#121);
#42=STYLED_ITEM('',(#122),#123);
#43=STYLED_ITEM('',(#124),#125);
#44=STYLED_ITEM('',(#126),#127);
#45=APPLICATION_CONTEXT(' ');
#46=PRODUCT_CATEGORY('part','NONE');
#47=PRODUCT_RELATED_PRODUCT_CATEGORY('detail',' ',(#128));
#48=PRODUCT_DEFINITION_SHAPE('NONE','NONE',#129);
#49=ADVANCED_BREP_SHAPE_REPRESENTATION('1',(#77,#130),#6);
#52=UNCERTAINTY_MEASURE_WITH_UNIT(LENGTH_MEASURE(1.0E-006),#54,'','');
#54= (CONVERSION_BASED_UNIT('MILLIMETRE',#133)LENGTH_UNIT()NAMED_UNIT(#136));
#55= (NAMED_UNIT(#138)PLANE_ANGLE_UNIT()SI_UNIT($,.RADIAN.));
#56= (NAMED_UNIT(#138)SOLID_ANGLE_UNIT()SI_UNIT($,.STERADIAN.));
#58=PRESENTATION_STYLE_ASSIGNMENT((#144));
#59=EDGE_CURVE('',#87,#65,#145,.T.);
#60=PRESENTATION_STYLE_ASSIGNMENT((#146));
#61=ADVANCED_FACE('',(#147,#148),#149,.T.);
#62=PRESENTATION_STYLE_ASSIGNMENT((#150));
#63=ADVANCED_FACE('',(#151),#152,.F.);
#64=PRESENTATION_STYLE_ASSIGNMENT((#153));
#65=VERTEX_POINT('',#154);
#66=PRESENTATION_STYLE_ASSIGNMENT((#155));
#67=EDGE_CURVE('',#109,#85,#156,.T.);
#68=PRESENTATION_STYLE_ASSIGNMENT((#157));
#69=EDGE_CURVE('',#81,#87,#158,.T.);
#70=PRESENTATION_STYLE_ASSIGNMENT((#159));
#71=ADVANCED_FACE('',(#160),#161,.T.);
#72=PRESENTATION_STYLE_ASSIGNMENT((#162));
#73=EDGE_CURVE('',#107,#89,#163,.T.);
#74=PRESENTATION_STYLE_ASSIGNMENT((#164));
#75=ADVANCED_FACE('',(#165),#166,.F.);
#76=PRESENTATION_STYLE_ASSIGNMENT((#167));
#77=MANIFOLD_SOLID_BREP('1',#168);
#78=PRESENTATION_STYLE_ASSIGNMENT((#169));
#79=EDGE_CURVE('',#127,#115,#170,.T.);
#80=PRESENTATION_STYLE_ASSIGNMENT((#171));
#81=VERTEX_POINT('',#172);
#82=PRESENTATION_STYLE_ASSIGNMENT((#173));
#83=EDGE_CURVE('',#81,#93,#174,.T.);
#84=PRESENTATION_STYLE_ASSIGNMENT((#175));
#85=VERTEX_POINT('',#176);
#86=PRESENTATION_STYLE_ASSIGNMENT((#177));
#87=VERTEX_POINT('',#178);
#88=PRESENTATION_STYLE_ASSIGNMENT((#179));
#89=VERTEX_POINT('',#180);
#90=PRESENTATION_STYLE_ASSIGNMENT((#181));
#91=ADVANCED_FACE('',(#182),#183,.T.);
#92=PRESENTATION_STYLE_ASSIGNMENT((#184));
#93=VERTEX_POINT('',#185);
#94=PRESENTATION_STYLE_ASSIGNMENT((#186));
#95=EDGE_CURVE('',#109,#107,#187,.T.);
#96=PRESENTATION_STYLE_ASSIGNMENT((#188));
#97=EDGE_CURVE('',#93,#115,#189,.T.);
#98=PRESENTATION_STYLE_ASSIGNMENT((#190));
#99=EDGE_CURVE('',#115,#127,#191,.T.);
#100=PRESENTATION_STYLE_ASSIGNMENT((#192));
#101=EDGE_CURVE('',#65,#87,#193,.T.);
#102=PRESENTATION_STYLE_ASSIGNMENT((#194));
#103=ADVANCED_FACE('',(#195),#196,.F.);
#104=PRESENTATION_STYLE_ASSIGNMENT((#197));
#105=EDGE_CURVE('',#65,#93,#198,.T.);
#106=PRESENTATION_STYLE_ASSIGNMENT((#199));
#107=VERTEX_POINT('',#200);
#108=PRESENTATION_STYLE_ASSIGNMENT((#201));
#109=VERTEX_POINT('',#202);
#110=PRESENTATION_STYLE_ASSIGNMENT((#203));
#111=ADVANCED_FACE('',(#204),#205,.F.);
#112=PRESENTATION_STYLE_ASSIGNMENT((#206));
#113=EDGE_CURVE('',#89,#85,#207,.T.);
#114=PRESENTATION_STYLE_ASSIGNMENT((#208));
#115=VERTEX_POINT('',#209);
#116=PRESENTATION_STYLE_ASSIGNMENT((#210));
#117=ADVANCED_FACE('',(#211,#212),#213,.T.);
#118=PRESENTATION_STYLE_ASSIGNMENT((#214));
#119=EDGE_CURVE('',#93,#81,#215,.T.);
#120=PRESENTATION_STYLE_ASSIGNMENT((#216));
#121=EDGE_CURVE('',#85,#109,#217,.T.);
#122=PRESENTATION_STYLE_ASSIGNMENT((#218));
#123=EDGE_CURVE('',#127,#81,#219,.T.);
#124=PRESENTATION_STYLE_ASSIGNMENT((#220));
#125=EDGE_CURVE('',#89,#107,#221,.T.);
#126=PRESENTATION_STYLE_ASSIGNMENT((#222));
#127=VERTEX_POINT('',#223);
#128=PRODUCT('1','1','PART-1-DESC',(#224));
#129=PRODUCT_DEFINITION('NONE','NONE',#225,#2);
#130=AXIS2_PLACEMENT_3D('',#226,#227,#228);
#133=LENGTH_MEASURE_WITH_UNIT(LENGTH_MEASURE(1.0),#229);
#136=DIMENSIONAL_EXPONENTS(1.0,0.0,0.0,0.0,0.0,0.0,0.0);
#138=DIMENSIONAL_EXPONENTS(0.0,0.0,0.0,0.0,0.0,0.0,0.0);
#144=CURVE_STYLE('',#230,POSITIVE_LENGTH_MEASURE(1.0E-006),#231);
#145=CIRCLE('',#232,11.6000000000001);
#146=SURFACE_STYLE_USAGE(.BOTH.,#233);
#147=FACE_OUTER_BOUND('',#234,.T.);
#148=FACE_BOUND('',#235,.T.);
#149=PLANE('',#236);
#150=SURFACE_STYLE_USAGE(.BOTH.,#237);
#151=FACE_OUTER_BOUND('',#238,.T.);
#152=CYLINDRICAL_SURFACE('',#239,11.6000000000001);
#153=POINT_STYLE(' ',#240,POSITIVE_LENGTH_MEASURE(1.0E-006),#241);
#154=CARTESIAN_POINT('',(11.6000000000001,1.57748718070688E-014,-2.8421709430404E-014));
#155=CURVE_STYLE('',#242,POSITIVE_LENGTH_MEASURE(1.0E-006),#243);
#156=CIRCLE('',#244,25.0);
#157=CURVE_STYLE('',#245,POSITIVE_LENGTH_MEASURE(1.0E-006),#246);
#158=LINE('',#247,#248);
#159=SURFACE_STYLE_USAGE(.BOTH.,#249);
#160=FACE_OUTER_BOUND('',#250,.T.);
#161=CYLINDRICAL_SURFACE('',#251,25.0);
#162=CURVE_STYLE('',#252,POSITIVE_LENGTH_MEASURE(1.0E-006),#253);
#163=CIRCLE('',#254,25.0);
#164=SURFACE_STYLE_USAGE(.BOTH.,#255);
#165=FACE_OUTER_BOUND('',#256,.T.);
#166=CYLINDRICAL_SURFACE('',#257,11.6000000000001);
#167=SURFACE_STYLE_USAGE(.BOTH.,#258);
#168=CLOSED_SHELL('',(#75,#91,#111,#103,#61,#71,#117,#63));
#169=CURVE_STYLE('',#259,POSITIVE_LENGTH_MEASURE(1.0E-006),#260);
#170=CIRCLE('',#261,15.5);
#171=POINT_STYLE(' ',#262,POSITIVE_LENGTH_MEASURE(1.0E-006),#263);
#172=CARTESIAN_POINT('',(-11.6,1.08859618526182E-014,5.74833395016046));
#173=CURVE_STYLE('',#264,POSITIVE_LENGTH_MEASURE(1.0E-006),#265);
#174=CIRCLE('',#266,11.6000000000001);
#175=POINT_STYLE(' ',#267,POSITIVE_LENGTH_MEASURE(1.0E-006),#268);
#176=CARTESIAN_POINT('',(-24.9999999999999,8.89301702453324E-015,-2.8421709430404E-014));
#177=POINT_STYLE(' ',#269,POSITIVE_LENGTH_MEASURE(1.0E-006),#270);
#178=CARTESIAN_POINT('',(-11.6,1.05339895386552E-014,-2.8421709430404E-014));
#179=POINT_STYLE(' ',#271,POSITIVE_LENGTH_MEASURE(1.0E-006),#272);
#180=CARTESIAN_POINT('',(-24.9999999999999,9.38285956606219E-015,7.99999999999997));
#181=SURFACE_STYLE_USAGE(.BOTH.,#273);
#182=FACE_OUTER_BOUND('',#274,.T.);
#183=CYLINDRICAL_SURFACE('',#275,25.0);
#184=POINT_STYLE(' ',#276,POSITIVE_LENGTH_MEASURE(1.0E-006),#277);
#185=CARTESIAN_POINT('',(11.6000000000001,1.57748718070688E-014,5.74833395016046));
#186=CURVE_STYLE('',#278,POSITIVE_LENGTH_MEASURE(1.0E-006),#279);
#187=LINE('',#280,#281);
#188=CURVE_STYLE('',#282,POSITIVE_LENGTH_MEASURE(1.0E-006),#283);
#189=LINE('',#284,#285);
#190=CURVE_STYLE('',#286,POSITIVE_LENGTH_MEASURE(1.0E-006),#287);
#191=CIRCLE('',#288,15.5);
#192=CURVE_STYLE('',#289,POSITIVE_LENGTH_MEASURE(1.0E-006),#290);
#193=CIRCLE('',#291,11.6000000000001);
#194=SURFACE_STYLE_USAGE(.BOTH.,#292);
#195=FACE_OUTER_BOUND('',#293,.T.);
#196=CONICAL_SURFACE('',#294,13.55,1.04719755119659);
#197=CURVE_STYLE('',#295,POSITIVE_LENGTH_MEASURE(1.0E-006),#296);
#198=LINE('',#297,#298);
#199=POINT_STYLE(' ',#299,POSITIVE_LENGTH_MEASURE(1.0E-006),#300);
#200=CARTESIAN_POINT('',(25.0000000000001,1.96221693222791E-014,7.99999999999997));
#201=POINT_STYLE(' ',#301,POSITIVE_LENGTH_MEASURE(1.0E-006),#302);
#202=CARTESIAN_POINT('',(25.0000000000001,1.96221693222791E-014,-2.8421709430404E-014));
#203=SURFACE_STYLE_USAGE(.BOTH.,#303);
#204=FACE_OUTER_BOUND('',#304,.T.);
#205=CONICAL_SURFACE('',#305,13.55,1.04719755119659);
#206=CURVE_STYLE('',#306,POSITIVE_LENGTH_MEASURE(1.0E-006),#307);
#207=LINE('',#308,#309);
#208=POINT_STYLE(' ',#310,POSITIVE_LENGTH_MEASURE(1.0E-006),#311);
#209=CARTESIAN_POINT('',(15.5000000000001,1.68946076510479E-014,7.99999999999997));
#210=SURFACE_STYLE_USAGE(.BOTH.,#312);
#211=FACE_BOUND('',#313,.T.);
#212=FACE_OUTER_BOUND('',#314,.T.);
#213=PLANE('',#315);
#214=CURVE_STYLE('',#316,POSITIVE_LENGTH_MEASURE(1.0E-006),#317);
#215=CIRCLE('',#318,11.6000000000001);
#216=CURVE_STYLE('',#319,POSITIVE_LENGTH_MEASURE(1.0E-006),#320);
#217=CIRCLE('',#321,25.0);
#218=CURVE_STYLE('',#322,POSITIVE_LENGTH_MEASURE(1.0E-006),#323);
#219=LINE('',#324,#325);
#220=CURVE_STYLE('',#326,POSITIVE_LENGTH_MEASURE(1.0E-006),#327);
#221=CIRCLE('',#328,25.0);
#222=POINT_STYLE(' ',#329,POSITIVE_LENGTH_MEASURE(1.0E-006),#330);
#223=CARTESIAN_POINT('',(-15.4999999999999,1.05462356021935E-014,7.99999999999997));
#224=PRODUCT_CONTEXT('',#45,'mechanical');
#225=PRODUCT_DEFINITION_FORMATION_WITH_SPECIFIED_SOURCE(' ','NONE',#128,.NOT_KNOWN.);
#226=CARTESIAN_POINT('',(0.0,0.0,0.0));
#227=DIRECTION('',(0.0,0.0,1.0));
#228=DIRECTION('',(1.0,0.0,0.0));
#229= (NAMED_UNIT(#136)LENGTH_UNIT()SI_UNIT(.MILLI.,.METRE.));
#230=DRAUGHTING_PRE_DEFINED_CURVE_FONT('continuous');
#231=COLOUR_RGB('',0.509803950786591,0.509803950786591,0.588235318660736);
#232=AXIS2_PLACEMENT_3D('',#332,#333,#334);
#233=SURFACE_SIDE_STYLE('',(#335));
#234=EDGE_LOOP('',(#336,#337));
#235=EDGE_LOOP('',(#338,#339));
#236=AXIS2_PLACEMENT_3D('',#340,#341,#342);
#237=SURFACE_SIDE_STYLE('',(#343));
#238=EDGE_LOOP('',(#344,#345,#346,#347));
#239=AXIS2_PLACEMENT_3D('',#348,#349,#350);
#240=PRE_DEFINED_MARKER('');
#241=COLOUR_RGB('',0.509803950786591,0.509803950786591,0.588235318660736);
#242=DRAUGHTING_PRE_DEFINED_CURVE_FONT('continuous');
#243=COLOUR_RGB('',0.509803950786591,0.509803950786591,0.588235318660736);
#244=AXIS2_PLACEMENT_3D('',#351,#352,#353);
#245=DRAUGHTING_PRE_DEFINED_CURVE_FONT('continuous');
#246=COLOUR_RGB('',0.509803950786591,0.509803950786591,0.588235318660736);
#247=CARTESIAN_POINT('',(-11.6,9.11387909416743E-015,2.87416697508021));
#248=VECTOR('',#354,1.0);
#249=SURFACE_SIDE_STYLE('',(#355));
#250=EDGE_LOOP('',(#356,#357,#358,#359));
#251=AXIS2_PLACEMENT_3D('',#360,#361,#362);
#252=DRAUGHTING_PRE_DEFINED_CURVE_FONT('continuous');
#253=COLOUR_RGB('',0.509803950786591,0.509803950786591,0.588235318660736);
#254=AXIS2_PLACEMENT_3D('',#363,#364,#365);
#255=SURFACE_SIDE_STYLE('',(#366));
#256=EDGE_LOOP('',(#367,#368,#369,#370));
#257=AXIS2_PLACEMENT_3D('',#371,#372,#373);
#258=SURFACE_SIDE_STYLE('',(#374));
#259=DRAUGHTING_PRE_DEFINED_CURVE_FONT('continuous');
#260=COLOUR_RGB('',0.509803950786591,0.509803950786591,0.588235318660736);
#261=AXIS2_PLACEMENT_3D('',#375,#376,#377);
#262=PRE_DEFINED_MARKER('');
#263=COLOUR_RGB('',0.509803950786591,0.509803950786591,0.588235318660736);
#264=DRAUGHTING_PRE_DEFINED_CURVE_FONT('continuous');
#265=COLOUR_RGB('',0.509803950786591,0.509803950786591,0.588235318660736);
#266=AXIS2_PLACEMENT_3D('',#378,#379,#380);
#267=PRE_DEFINED_MARKER('');
#268=COLOUR_RGB('',0.509803950786591,0.509803950786591,0.588235318660736);
#269=PRE_DEFINED_MARKER('');
#270=COLOUR_RGB('',0.509803950786591,0.509803950786591,0.588235318660736);
#271=PRE_DEFINED_MARKER('');
#272=COLOUR_RGB('',0.509803950786591,0.509803950786591,0.588235318660736);
#273=SURFACE_SIDE_STYLE('',(#381));
#274=EDGE_LOOP('',(#382,#383,#384,#385));
#275=AXIS2_PLACEMENT_3D('',#386,#387,#388);
#276=PRE_DEFINED_MARKER('');
#277=COLOUR_RGB('',0.509803950786591,0.509803950786591,0.588235318660736);
#278=DRAUGHTING_PRE_DEFINED_CURVE_FONT('continuous');
#279=COLOUR_RGB('',0.509803950786591,0.509803950786591,0.588235318660736);
#280=CARTESIAN_POINT('',(25.0000000000001,1.96221693222791E-014,3.99999999999997));
#281=VECTOR('',#389,1.0);
#282=DRAUGHTING_PRE_DEFINED_CURVE_FONT('continuous');
#283=COLOUR_RGB('',0.509803950786591,0.509803950786591,0.588235318660736);
#284=CARTESIAN_POINT('',(13.5500000000001,1.63347397290584E-014,6.87416697508021));
#285=VECTOR('',#390,1.0);
#286=DRAUGHTING_PRE_DEFINED_CURVE_FONT('continuous');
#287=COLOUR_RGB('',0.509803950786591,0.509803950786591,0.588235318660736);
#288=AXIS2_PLACEMENT_3D('',#391,#392,#393);
#289=DRAUGHTING_PRE_DEFINED_CURVE_FONT('continuous');
#290=COLOUR_RGB('',0.509803950786591,0.509803950786591,0.588235318660736);
#291=AXIS2_PLACEMENT_3D('',#394,#395,#396);
#292=SURFACE_SIDE_STYLE('',(#397));
#293=EDGE_LOOP('',(#398,#399,#400,#401));
#294=AXIS2_PLACEMENT_3D('',#402,#403,#404);
#295=DRAUGHTING_PRE_DEFINED_CURVE_FONT('continuous');
#296=COLOUR_RGB('',0.509803950786591,0.509803950786591,0.588235318660736);
#297=CARTESIAN_POINT('',(11.6000000000001,1.57748718070688E-014,2.87416697508021));
#298=VECTOR('',#405,1.0);
#299=PRE_DEFINED_MARKER('');
#300=COLOUR_RGB('',0.509803950786591,0.509803950786591,0.588235318660736);
#301=PRE_DEFINED_MARKER('');
#302=COLOUR_RGB('',0.509803950786591,0.509803950786591,0.588235318660736);
#303=SURFACE_SIDE_STYLE('',(#406));
#304=EDGE_LOOP('',(#407,#408,#409,#410));
#305=AXIS2_PLACEMENT_3D('',#411,#412,#413);
#306=DRAUGHTING_PRE_DEFINED_CURVE_FONT('continuous');
#307=COLOUR_RGB('',0.509803950786591,0.509803950786591,0.588235318660736);
#308=CARTESIAN_POINT('',(-24.9999999999999,5.26658157895717E-015,3.99999999999997));
#309=VECTOR('',#414,1.0);
#310=PRE_DEFINED_MARKER('');
#311=COLOUR_RGB('',0.509803950786591,0.509803950786591,0.588235318660736);
#312=SURFACE_SIDE_STYLE('',(#415));
#313=EDGE_LOOP('',(#416,#417));
#314=EDGE_LOOP('',(#418,#419));
#315=AXIS2_PLACEMENT_3D('',#420,#421,#422);
#316=DRAUGHTING_PRE_DEFINED_CURVE_FONT('continuous');
#317=COLOUR_RGB('',0.509803950786591,0.509803950786591,0.588235318660736);
#318=AXIS2_PLACEMENT_3D('',#423,#424,#425);
#319=DRAUGHTING_PRE_DEFINED_CURVE_FONT('continuous');
#320=COLOUR_RGB('',0.509803950786591,0.509803950786591,0.588235318660736);
#321=AXIS2_PLACEMENT_3D('',#426,#427,#428);
#322=DRAUGHTING_PRE_DEFINED_CURVE_FONT('continuous');
#323=COLOUR_RGB('',0.509803950786591,0.509803950786591,0.588235318660736);
#324=CARTESIAN_POINT('',(-13.55,8.55401117217788E-015,6.87416697508021));
#325=VECTOR('',#429,1.0);
#326=DRAUGHTING_PRE_DEFINED_CURVE_FONT('continuous');
#327=COLOUR_RGB('',0.509803950786591,0.509803950786591,0.588235318660736);
#328=AXIS2_PLACEMENT_3D('',#430,#431,#432);
#329=PRE_DEFINED_MARKER('');
#330=COLOUR_RGB('',0.509803950786591,0.509803950786591,0.588235318660736);
#332=CARTESIAN_POINT('',(5.6843418860808E-014,1.24443754506181E-014,-2.8421709430404E-014));
#333=DIRECTION('',(-0.0,0.0,-1.0));
#334=DIRECTION('',(-1.0,-1.64651119484201E-016,0.0));
#335=SURFACE_STYLE_FILL_AREA(#433);
#336=ORIENTED_EDGE('',*,*,#125,.F.);
#337=ORIENTED_EDGE('',*,*,#73,.F.);
#338=ORIENTED_EDGE('',*,*,#79,.T.);
#339=ORIENTED_EDGE('',*,*,#99,.T.);
#340=CARTESIAN_POINT('',(-20.2499999999999,9.96454758412782E-015,7.99999999999997));
#341=DIRECTION('',(0.0,0.0,1.0));
#342=DIRECTION('',(-1.0,-1.22460635382238E-016,0.0));
#343=SURFACE_STYLE_FILL_AREA(#434);
#344=ORIENTED_EDGE('',*,*,#69,.T.);
#345=ORIENTED_EDGE('',*,*,#59,.T.);
#346=ORIENTED_EDGE('',*,*,#105,.T.);
#347=ORIENTED_EDGE('',*,*,#83,.F.);
#348=CARTESIAN_POINT('',(5.6843418860808E-014,1.24443754506181E-014,2.87416697508021));
#349=DIRECTION('',(0.0,-0.0,1.0));
#350=DIRECTION('',(-1.0,-1.64651119484201E-016,0.0));
#351=CARTESIAN_POINT('',(5.6843418860808E-014,1.24443754506181E-014,-2.8421709430404E-014));
#352=DIRECTION('',(-0.0,0.0,-1.0));
#353=DIRECTION('',(-1.0,-1.64651119484201E-016,0.0));
#354=DIRECTION('',(0.0,0.0,-1.0));
#355=SURFACE_STYLE_FILL_AREA(#435);
#356=ORIENTED_EDGE('',*,*,#113,.T.);
#357=ORIENTED_EDGE('',*,*,#67,.F.);
#358=ORIENTED_EDGE('',*,*,#95,.T.);
#359=ORIENTED_EDGE('',*,*,#73,.T.);
#360=CARTESIAN_POINT('',(5.6843418860808E-014,1.24443754506181E-014,3.99999999999997));
#361=DIRECTION('',(0.0,-0.0,1.0));
#362=DIRECTION('',(-1.0,-1.64651119484201E-016,0.0));
#363=CARTESIAN_POINT('',(5.6843418860808E-014,1.24443754506181E-014,7.99999999999997));
#364=DIRECTION('',(-0.0,0.0,-1.0));
#365=DIRECTION('',(-1.0,-1.64651119484201E-016,0.0));
#366=SURFACE_STYLE_FILL_AREA(#436);
#367=ORIENTED_EDGE('',*,*,#69,.F.);
#368=ORIENTED_EDGE('',*,*,#119,.F.);
#369=ORIENTED_EDGE('',*,*,#105,.F.);
#370=ORIENTED_EDGE('',*,*,#101,.T.);
#371=CARTESIAN_POINT('',(5.6843418860808E-014,1.24443754506181E-014,2.87416697508021));
#372=DIRECTION('',(0.0,-0.0,1.0));
#373=DIRECTION('',(-1.0,-1.64651119484201E-016,0.0));
#374=SURFACE_STYLE_FILL_AREA(#437);
#375=CARTESIAN_POINT('',(5.6843418860808E-014,1.24443754506181E-014,7.99999999999997));
#376=DIRECTION('',(-0.0,0.0,-1.0));
#377=DIRECTION('',(-1.0,-1.64651119484201E-016,0.0));
#378=CARTESIAN_POINT('',(5.6843418860808E-014,1.24443754506181E-014,5.74833395016046));
#379=DIRECTION('',(-0.0,0.0,-1.0));
#380=DIRECTION('',(-1.0,-1.64651119484201E-016,0.0));
#381=SURFACE_STYLE_FILL_AREA(#438);
#382=ORIENTED_EDGE('',*,*,#113,.F.);
#383=ORIENTED_EDGE('',*,*,#125,.T.);
#384=ORIENTED_EDGE('',*,*,#95,.F.);
#385=ORIENTED_EDGE('',*,*,#121,.F.);
#386=CARTESIAN_POINT('',(5.6843418860808E-014,1.24443754506181E-014,3.99999999999997));
#387=DIRECTION('',(0.0,-0.0,1.0));
#388=DIRECTION('',(-1.0,-1.64651119484201E-016,0.0));
#389=DIRECTION('',(-0.0,-0.0,1.0));
#390=DIRECTION('',(0.866025403784437,2.48646073439466E-016,0.500000000000003));
#391=CARTESIAN_POINT('',(5.6843418860808E-014,1.24443754506181E-014,7.99999999999997));
#392=DIRECTION('',(-0.0,0.0,-1.0));
#393=DIRECTION('',(-1.0,-1.64651119484201E-016,0.0));
#394=CARTESIAN_POINT('',(5.6843418860808E-014,1.24443754506181E-014,-2.8421709430404E-014));
#395=DIRECTION('',(-0.0,0.0,-1.0));
#396=DIRECTION('',(-1.0,-1.64651119484201E-016,0.0));
#397=SURFACE_STYLE_FILL_AREA(#439);
#398=ORIENTED_EDGE('',*,*,#123,.T.);
#399=ORIENTED_EDGE('',*,*,#83,.T.);
#400=ORIENTED_EDGE('',*,*,#97,.T.);
#401=ORIENTED_EDGE('',*,*,#79,.F.);
#402=CARTESIAN_POINT('',(5.6843418860808E-014,1.24443754506181E-014,6.87416697508021));
#403=DIRECTION('',(0.0,-0.0,1.0));
#404=DIRECTION('',(-1.0,-1.64651119484201E-016,0.0));
#405=DIRECTION('',(0.0,0.0,1.0));
#406=SURFACE_STYLE_FILL_AREA(#440);
#407=ORIENTED_EDGE('',*,*,#123,.F.);
#408=ORIENTED_EDGE('',*,*,#99,.F.);
#409=ORIENTED_EDGE('',*,*,#97,.F.);
#410=ORIENTED_EDGE('',*,*,#119,.T.);
#411=CARTESIAN_POINT('',(5.6843418860808E-014,1.24443754506181E-014,6.87416697508021));
#412=DIRECTION('',(0.0,-0.0,1.0));
#413=DIRECTION('',(-1.0,-1.64651119484201E-016,0.0));
#414=DIRECTION('',(0.0,0.0,-1.0));
#415=SURFACE_STYLE_FILL_AREA(#441);
#416=ORIENTED_EDGE('',*,*,#59,.F.);
#417=ORIENTED_EDGE('',*,*,#101,.F.);
#418=ORIENTED_EDGE('',*,*,#121,.T.);
#419=ORIENTED_EDGE('',*,*,#67,.T.);
#420=CARTESIAN_POINT('',(-18.3,9.71350328159423E-015,-2.8421709430404E-014));
#421=DIRECTION('',(0.0,0.0,-1.0));
#422=DIRECTION('',(1.0,1.22460635382238E-016,0.0));
#423=CARTESIAN_POINT('',(5.6843418860808E-014,1.24443754506181E-014,5.74833395016046));
#424=DIRECTION('',(-0.0,0.0,-1.0));
#425=DIRECTION('',(-1.0,-1.64651119484201E-016,0.0));
#426=CARTESIAN_POINT('',(5.6843418860808E-014,1.24443754506181E-014,-2.8421709430404E-014));
#427=DIRECTION('',(-0.0,0.0,-1.0));
#428=DIRECTION('',(-1.0,-1.64651119484201E-016,0.0));
#429=DIRECTION('',(0.866025403784437,2.48646073439466E-016,-0.500000000000003));
#430=CARTESIAN_POINT('',(5.6843418860808E-014,1.24443754506181E-014,7.99999999999997));
#431=DIRECTION('',(-0.0,0.0,-1.0));
#432=DIRECTION('',(-1.0,-1.64651119484201E-016,0.0));
#433=FILL_AREA_STYLE('',(#442));
#434=FILL_AREA_STYLE('',(#443));
#435=FILL_AREA_STYLE('',(#444));
#436=FILL_AREA_STYLE('',(#445));
#437=FILL_AREA_STYLE('',(#446));
#438=FILL_AREA_STYLE('',(#447));
#439=FILL_AREA_STYLE('',(#448));
#440=FILL_AREA_STYLE('',(#449));
#441=FILL_AREA_STYLE('',(#450));
#442=FILL_AREA_STYLE_COLOUR('',#451);
#443=FILL_AREA_STYLE_COLOUR('',#452);
#444=FILL_AREA_STYLE_COLOUR('',#453);
#445=FILL_AREA_STYLE_COLOUR('',#454);
#446=FILL_AREA_STYLE_COLOUR('',#455);
#447=FILL_AREA_STYLE_COLOUR('',#456);
#448=FILL_AREA_STYLE_COLOUR('',#457);
#449=FILL_AREA_STYLE_COLOUR('',#458);
#450=FILL_AREA_STYLE_COLOUR('',#459);
#451=COLOUR_RGB('',0.509803950786591,0.509803950786591,0.588235318660736);
#452=COLOUR_RGB('',0.509803950786591,0.509803950786591,0.588235318660736);
#453=COLOUR_RGB('',0.509803950786591,0.509803950786591,0.588235318660736);
#454=COLOUR_RGB('',0.509803950786591,0.509803950786591,0.588235318660736);
#455=COLOUR_RGB('',0.509803950786591,0.509803950786591,0.588235318660736);
#456=COLOUR_RGB('',0.509803950786591,0.509803950786591,0.588235318660736);
#457=COLOUR_RGB('',0.509803950786591,0.509803950786591,0.588235318660736);
#458=COLOUR_RGB('',0.509803950786591,0.509803950786591,0.588235318660736);
#459=COLOUR_RGB('',0.509803950786591,0.509803950786591,0.588235318660736);
ENDSEC;
END-ISO-10303-21;
