ISO-10303-21;
HEADER;
FILE_DESCRIPTION(('STEP AP214'),'1');
FILE_NAME(' ','  ',('TraceParts'),('TraceParts S.A.'),'XStep 1.0',' ',' ');
FILE_SCHEMA(('automotive_design'));
ENDSEC;
DATA;
#1=MECHANICAL_DESIGN_GEOMETRIC_PRESENTATION_REPRESENTATION(' ',(#10,#11,#12,#13,#14,#15,#16,#17,#18,#19,#20,#21,#22,#23,#24,#25,#26,#27,#28,#29,#30,#31,#32,#33,#34,#35,#36,#37,#38,#39,#40,#41,#42,#43,#44),#6);
#2=PRODUCT_DEFINITION_CONTEXT('',#45,'design');
#3=APPLICATION_PROTOCOL_DEFINITION('INTERNATIONAL STANDARD','automotive_design',1994,#45);
#4=PRODUCT_CATEGORY_RELATIONSHIP('NONE','NONE',#46,#47);
#5=SHAPE_DEFINITION_REPRESENTATION(#48,#49);
#6= (GEOMETRIC_REPRESENTATION_CONTEXT(3)GLOBAL_UNCERTAINTY_ASSIGNED_CONTEXT((#52))GLOBAL_UNIT_ASSIGNED_CONTEXT((#54,#55,#56))REPRESENTATION_CONTEXT('NONE','WORKSPACE'));
#10=STYLED_ITEM('',(#58),#59);
#11=STYLED_ITEM('',(#60),#61);
#12=STYLED_ITEM('',(#62),#63);
#13=STYLED_ITEM('',(#64),#65);
#14=STYLED_ITEM('',(#66),#67);
#15=STYLED_ITEM('',(#68),#69);
#16=STYLED_ITEM('',(#70),#71);
#17=STYLED_ITEM('',(#72),#73);
#18=STYLED_ITEM('',(#74),#75);
#19=STYLED_ITEM('',(#76),#77);
#20=STYLED_ITEM('',(#78),#79);
#21=STYLED_ITEM('',(#80),#81);
#22=STYLED_ITEM('',(#82),#83);
#23=STYLED_ITEM('',(#84),#85);
#24=STYLED_ITEM('',(#86),#87);
#25=STYLED_ITEM('',(#88),#89);
#26=STYLED_ITEM('',(#90),#91);
#27=STYLED_ITEM('',(#92),#93);
#28=STYLED_ITEM('',(#94),#95);
#29=STYLED_ITEM('',(#96),#97);
#30=STYLED_ITEM('',(#98),#99);
#31=STYLED_ITEM('',(#100),#101);
#32=STYLED_ITEM('',(#102),#103);
#33=STYLED_ITEM('',(#104),#105);
#34=STYLED_ITEM('',(#106),#107);
#35=STYLED_ITEM('',(#108),#109);
#36=STYLED_ITEM('',(#110),#111);
#37=STYLED_ITEM('',(#112),#113);
#38=STYLED_ITEM('',(#114),#115);
#39=STYLED_ITEM('',(#116),#117);
#40=STYLED_ITEM('',(#118),#119);
#41=STYLED_ITEM('',(#120),#121);
#42=STYLED_ITEM('',(#122),#123);
#43=STYLED_ITEM('',(#124),#125);
#44=STYLED_ITEM('',(#126),#127);
#45=APPLICATION_CONTEXT(' ');
#46=PRODUCT_CATEGORY('part','NONE');
#47=PRODUCT_RELATED_PRODUCT_CATEGORY('detail',' ',(#128));
#48=PRODUCT_DEFINITION_SHAPE('NONE','NONE',#129);
#49=ADVANCED_BREP_SHAPE_REPRESENTATION('1',(#59,#130),#6);
#52=UNCERTAINTY_MEASURE_WITH_UNIT(LENGTH_MEASURE(1.0E-006),#54,'','');
#54= (CONVERSION_BASED_UNIT('MILLIMETRE',#133)LENGTH_UNIT()NAMED_UNIT(#136));
#55= (NAMED_UNIT(#138)PLANE_ANGLE_UNIT()SI_UNIT($,.RADIAN.));
#56= (NAMED_UNIT(#138)SOLID_ANGLE_UNIT()SI_UNIT($,.STERADIAN.));
#58=PRESENTATION_STYLE_ASSIGNMENT((#144));
#59=MANIFOLD_SOLID_BREP('1',#145);
#60=PRESENTATION_STYLE_ASSIGNMENT((#146));
#61=VERTEX_POINT('',#147);
#62=PRESENTATION_STYLE_ASSIGNMENT((#148));
#63=EDGE_CURVE('',#77,#109,#149,.T.);
#64=PRESENTATION_STYLE_ASSIGNMENT((#150));
#65=ADVANCED_FACE('',(#151),#152,.F.);
#66=PRESENTATION_STYLE_ASSIGNMENT((#153));
#67=VERTEX_POINT('',#154);
#68=PRESENTATION_STYLE_ASSIGNMENT((#155));
#69=ADVANCED_FACE('',(#156),#157,.F.);
#70=PRESENTATION_STYLE_ASSIGNMENT((#158));
#71=ADVANCED_FACE('',(#159,#160),#161,.T.);
#72=PRESENTATION_STYLE_ASSIGNMENT((#162));
#73=ADVANCED_FACE('',(#163,#164),#165,.T.);
#74=PRESENTATION_STYLE_ASSIGNMENT((#166));
#75=ADVANCED_FACE('',(#167),#168,.F.);
#76=PRESENTATION_STYLE_ASSIGNMENT((#169));
#77=VERTEX_POINT('',#170);
#78=PRESENTATION_STYLE_ASSIGNMENT((#171));
#79=EDGE_CURVE('',#91,#99,#172,.T.);
#80=PRESENTATION_STYLE_ASSIGNMENT((#173));
#81=VERTEX_POINT('',#174);
#82=PRESENTATION_STYLE_ASSIGNMENT((#175));
#83=EDGE_CURVE('',#113,#81,#176,.T.);
#84=PRESENTATION_STYLE_ASSIGNMENT((#177));
#85=ADVANCED_FACE('',(#178),#179,.T.);
#86=PRESENTATION_STYLE_ASSIGNMENT((#180));
#87=EDGE_CURVE('',#127,#67,#181,.T.);
#88=PRESENTATION_STYLE_ASSIGNMENT((#182));
#89=EDGE_CURVE('',#61,#119,#183,.T.);
#90=PRESENTATION_STYLE_ASSIGNMENT((#184));
#91=VERTEX_POINT('',#185);
#92=PRESENTATION_STYLE_ASSIGNMENT((#186));
#93=EDGE_CURVE('',#109,#77,#187,.T.);
#94=PRESENTATION_STYLE_ASSIGNMENT((#188));
#95=ADVANCED_FACE('',(#189),#190,.T.);
#96=PRESENTATION_STYLE_ASSIGNMENT((#191));
#97=EDGE_CURVE('',#99,#91,#192,.T.);
#98=PRESENTATION_STYLE_ASSIGNMENT((#193));
#99=VERTEX_POINT('',#194);
#100=PRESENTATION_STYLE_ASSIGNMENT((#195));
#101=EDGE_CURVE('',#91,#119,#196,.T.);
#102=PRESENTATION_STYLE_ASSIGNMENT((#197));
#103=EDGE_CURVE('',#81,#113,#198,.T.);
#104=PRESENTATION_STYLE_ASSIGNMENT((#199));
#105=EDGE_CURVE('',#99,#77,#200,.T.);
#106=PRESENTATION_STYLE_ASSIGNMENT((#201));
#107=ADVANCED_FACE('',(#202),#203,.F.);
#108=PRESENTATION_STYLE_ASSIGNMENT((#204));
#109=VERTEX_POINT('',#205);
#110=PRESENTATION_STYLE_ASSIGNMENT((#206));
#111=EDGE_CURVE('',#119,#61,#207,.T.);
#112=PRESENTATION_STYLE_ASSIGNMENT((#208));
#113=VERTEX_POINT('',#209);
#114=PRESENTATION_STYLE_ASSIGNMENT((#210));
#115=EDGE_CURVE('',#67,#81,#211,.T.);
#116=PRESENTATION_STYLE_ASSIGNMENT((#212));
#117=EDGE_CURVE('',#67,#127,#213,.T.);
#118=PRESENTATION_STYLE_ASSIGNMENT((#214));
#119=VERTEX_POINT('',#215);
#120=PRESENTATION_STYLE_ASSIGNMENT((#216));
#121=EDGE_CURVE('',#109,#91,#217,.T.);
#122=PRESENTATION_STYLE_ASSIGNMENT((#218));
#123=EDGE_CURVE('',#61,#99,#219,.T.);
#124=PRESENTATION_STYLE_ASSIGNMENT((#220));
#125=EDGE_CURVE('',#113,#127,#221,.T.);
#126=PRESENTATION_STYLE_ASSIGNMENT((#222));
#127=VERTEX_POINT('',#223);
#128=PRODUCT('1','1','PART-1-DESC',(#224));
#129=PRODUCT_DEFINITION('NONE','NONE',#225,#2);
#130=AXIS2_PLACEMENT_3D('',#226,#227,#228);
#133=LENGTH_MEASURE_WITH_UNIT(LENGTH_MEASURE(1.0),#229);
#136=DIMENSIONAL_EXPONENTS(1.0,0.0,0.0,0.0,0.0,0.0,0.0);
#138=DIMENSIONAL_EXPONENTS(0.0,0.0,0.0,0.0,0.0,0.0,0.0);
#144=SURFACE_STYLE_USAGE(.BOTH.,#230);
#145=CLOSED_SHELL('',(#69,#85,#107,#65,#73,#95,#71,#75));
#146=POINT_STYLE(' ',#231,POSITIVE_LENGTH_MEASURE(1.0E-006),#232);
#147=CARTESIAN_POINT('',(-13.0,9.99086118305649E-015,6.19999999999996));
#148=CURVE_STYLE('',#233,POSITIVE_LENGTH_MEASURE(1.0E-006),#234);
#149=CIRCLE('',#235,9.5);
#150=SURFACE_STYLE_USAGE(.BOTH.,#236);
#151=FACE_OUTER_BOUND('',#237,.T.);
#152=CONICAL_SURFACE('',#238,11.25,1.04719755119659);
#153=POINT_STYLE(' ',#239,POSITIVE_LENGTH_MEASURE(1.0E-006),#240);
#154=CARTESIAN_POINT('',(-15.0,9.74593991229201E-015,6.19999999999996));
#155=SURFACE_STYLE_USAGE(.BOTH.,#241);
#156=FACE_OUTER_BOUND('',#242,.T.);
#157=CYLINDRICAL_SURFACE('',#243,9.5);
#158=SURFACE_STYLE_USAGE(.BOTH.,#244);
#159=FACE_BOUND('',#245,.T.);
#160=FACE_OUTER_BOUND('',#246,.T.);
#161=PLANE('',#247);
#162=SURFACE_STYLE_USAGE(.BOTH.,#248);
#163=FACE_OUTER_BOUND('',#249,.T.);
#164=FACE_BOUND('',#250,.T.);
#165=PLANE('',#251);
#166=SURFACE_STYLE_USAGE(.BOTH.,#252);
#167=FACE_OUTER_BOUND('',#253,.T.);
#168=CYLINDRICAL_SURFACE('',#254,9.5);
#169=POINT_STYLE(' ',#255,POSITIVE_LENGTH_MEASURE(1.0E-006),#256);
#170=CARTESIAN_POINT('',(-9.5,1.00398454372094E-014,-2.8421709430404E-014));
#171=CURVE_STYLE('',#257,POSITIVE_LENGTH_MEASURE(1.0E-006),#258);
#172=CIRCLE('',#259,9.5);
#173=POINT_STYLE(' ',#260,POSITIVE_LENGTH_MEASURE(1.0E-006),#261);
#174=CARTESIAN_POINT('',(-15.0,9.36631194260708E-015,-2.8421709430404E-014));
#175=CURVE_STYLE('',#262,POSITIVE_LENGTH_MEASURE(1.0E-006),#263);
#176=CIRCLE('',#264,15.0);
#177=SURFACE_STYLE_USAGE(.BOTH.,#265);
#178=FACE_OUTER_BOUND('',#266,.T.);
#179=CYLINDRICAL_SURFACE('',#267,15.0);
#180=CURVE_STYLE('',#268,POSITIVE_LENGTH_MEASURE(1.0E-006),#269);
#181=CIRCLE('',#270,15.0);
#182=CURVE_STYLE('',#271,POSITIVE_LENGTH_MEASURE(1.0E-006),#272);
#183=CIRCLE('',#273,13.0);
#184=POINT_STYLE(' ',#274,POSITIVE_LENGTH_MEASURE(1.0E-006),#275);
#185=CARTESIAN_POINT('',(9.5,1.42889147300908E-014,4.17927405783621));
#186=CURVE_STYLE('',#276,POSITIVE_LENGTH_MEASURE(1.0E-006),#277);
#187=CIRCLE('',#278,9.5);
#188=SURFACE_STYLE_USAGE(.BOTH.,#279);
#189=FACE_OUTER_BOUND('',#280,.T.);
#190=CYLINDRICAL_SURFACE('',#281,15.0);
#191=CURVE_STYLE('',#282,POSITIVE_LENGTH_MEASURE(1.0E-006),#283);
#192=CIRCLE('',#284,9.5);
#193=POINT_STYLE(' ',#285,POSITIVE_LENGTH_MEASURE(1.0E-006),#286);
#194=CARTESIAN_POINT('',(-9.5,1.0295743715489E-014,4.17927405783621));
#195=CURVE_STYLE('',#287,POSITIVE_LENGTH_MEASURE(1.0E-006),#288);
#196=LINE('',#289,#290);
#197=CURVE_STYLE('',#291,POSITIVE_LENGTH_MEASURE(1.0E-006),#292);
#198=CIRCLE('',#293,15.0);
#199=CURVE_STYLE('',#294,POSITIVE_LENGTH_MEASURE(1.0E-006),#295);
#200=LINE('',#296,#297);
#201=SURFACE_STYLE_USAGE(.BOTH.,#298);
#202=FACE_OUTER_BOUND('',#299,.T.);
#203=CONICAL_SURFACE('',#300,11.25,1.04719755119659);
#204=POINT_STYLE(' ',#301,POSITIVE_LENGTH_MEASURE(1.0E-006),#302);
#205=CARTESIAN_POINT('',(9.5,1.42889147300908E-014,-2.8421709430404E-014));
#206=CURVE_STYLE('',#303,POSITIVE_LENGTH_MEASURE(1.0E-006),#304);
#207=CIRCLE('',#305,13.0);
#208=POINT_STYLE(' ',#306,POSITIVE_LENGTH_MEASURE(1.0E-006),#307);
#209=CARTESIAN_POINT('',(15.0,1.58555841068127E-014,-2.8421709430404E-014));
#210=CURVE_STYLE('',#308,POSITIVE_LENGTH_MEASURE(1.0E-006),#309);
#211=LINE('',#310,#311);
#212=CURVE_STYLE('',#312,POSITIVE_LENGTH_MEASURE(1.0E-006),#313);
#213=CIRCLE('',#314,15.0);
#214=POINT_STYLE(' ',#315,POSITIVE_LENGTH_MEASURE(1.0E-006),#316);
#215=CARTESIAN_POINT('',(13.0,1.52858861516411E-014,6.19999999999996));
#216=CURVE_STYLE('',#317,POSITIVE_LENGTH_MEASURE(1.0E-006),#318);
#217=LINE('',#319,#320);
#218=CURVE_STYLE('',#321,POSITIVE_LENGTH_MEASURE(1.0E-006),#322);
#219=LINE('',#323,#324);
#220=CURVE_STYLE('',#325,POSITIVE_LENGTH_MEASURE(1.0E-006),#326);
#221=LINE('',#327,#328);
#222=POINT_STYLE(' ',#329,POSITIVE_LENGTH_MEASURE(1.0E-006),#330);
#223=CARTESIAN_POINT('',(15.0,1.58555841068127E-014,6.19999999999996));
#224=PRODUCT_CONTEXT('',#45,'mechanical');
#225=PRODUCT_DEFINITION_FORMATION_WITH_SPECIFIED_SOURCE(' ','NONE',#128,.NOT_KNOWN.);
#226=CARTESIAN_POINT('',(0.0,0.0,0.0));
#227=DIRECTION('',(0.0,0.0,1.0));
#228=DIRECTION('',(1.0,0.0,0.0));
#229= (NAMED_UNIT(#136)LENGTH_UNIT()SI_UNIT(.MILLI.,.METRE.));
#230=SURFACE_SIDE_STYLE('',(#332));
#231=PRE_DEFINED_MARKER('');
#232=COLOUR_RGB('',0.509803950786591,0.509803950786591,0.588235318660736);
#233=DRAUGHTING_PRE_DEFINED_CURVE_FONT('continuous');
#234=COLOUR_RGB('',0.509803950786591,0.509803950786591,0.588235318660736);
#235=AXIS2_PLACEMENT_3D('',#333,#334,#335);
#236=SURFACE_SIDE_STYLE('',(#336));
#237=EDGE_LOOP('',(#337,#338,#339,#340));
#238=AXIS2_PLACEMENT_3D('',#341,#342,#343);
#239=PRE_DEFINED_MARKER('');
#240=COLOUR_RGB('',0.509803950786591,0.509803950786591,0.588235318660736);
#241=SURFACE_SIDE_STYLE('',(#344));
#242=EDGE_LOOP('',(#345,#346,#347,#348));
#243=AXIS2_PLACEMENT_3D('',#349,#350,#351);
#244=SURFACE_SIDE_STYLE('',(#352));
#245=EDGE_LOOP('',(#353,#354));
#246=EDGE_LOOP('',(#355,#356));
#247=AXIS2_PLACEMENT_3D('',#357,#358,#359);
#248=SURFACE_SIDE_STYLE('',(#360));
#249=EDGE_LOOP('',(#361,#362));
#250=EDGE_LOOP('',(#363,#364));
#251=AXIS2_PLACEMENT_3D('',#365,#366,#367);
#252=SURFACE_SIDE_STYLE('',(#368));
#253=EDGE_LOOP('',(#369,#370,#371,#372));
#254=AXIS2_PLACEMENT_3D('',#373,#374,#375);
#255=PRE_DEFINED_MARKER('');
#256=COLOUR_RGB('',0.509803950786591,0.509803950786591,0.588235318660736);
#257=DRAUGHTING_PRE_DEFINED_CURVE_FONT('continuous');
#258=COLOUR_RGB('',0.509803950786591,0.509803950786591,0.588235318660736);
#259=AXIS2_PLACEMENT_3D('',#376,#377,#378);
#260=PRE_DEFINED_MARKER('');
#261=COLOUR_RGB('',0.509803950786591,0.509803950786591,0.588235318660736);
#262=DRAUGHTING_PRE_DEFINED_CURVE_FONT('continuous');
#263=COLOUR_RGB('',0.509803950786591,0.509803950786591,0.588235318660736);
#264=AXIS2_PLACEMENT_3D('',#379,#380,#381);
#265=SURFACE_SIDE_STYLE('',(#382));
#266=EDGE_LOOP('',(#383,#384,#385,#386));
#267=AXIS2_PLACEMENT_3D('',#387,#388,#389);
#268=DRAUGHTING_PRE_DEFINED_CURVE_FONT('continuous');
#269=COLOUR_RGB('',0.509803950786591,0.509803950786591,0.588235318660736);
#270=AXIS2_PLACEMENT_3D('',#390,#391,#392);
#271=DRAUGHTING_PRE_DEFINED_CURVE_FONT('continuous');
#272=COLOUR_RGB('',0.509803950786591,0.509803950786591,0.588235318660736);
#273=AXIS2_PLACEMENT_3D('',#393,#394,#395);
#274=PRE_DEFINED_MARKER('');
#275=COLOUR_RGB('',0.509803950786591,0.509803950786591,0.588235318660736);
#276=DRAUGHTING_PRE_DEFINED_CURVE_FONT('continuous');
#277=COLOUR_RGB('',0.509803950786591,0.509803950786591,0.588235318660736);
#278=AXIS2_PLACEMENT_3D('',#396,#397,#398);
#279=SURFACE_SIDE_STYLE('',(#399));
#280=EDGE_LOOP('',(#400,#401,#402,#403));
#281=AXIS2_PLACEMENT_3D('',#404,#405,#406);
#282=DRAUGHTING_PRE_DEFINED_CURVE_FONT('continuous');
#283=COLOUR_RGB('',0.509803950786591,0.509803950786591,0.588235318660736);
#284=AXIS2_PLACEMENT_3D('',#407,#408,#409);
#285=PRE_DEFINED_MARKER('');
#286=COLOUR_RGB('',0.509803950786591,0.509803950786591,0.588235318660736);
#287=DRAUGHTING_PRE_DEFINED_CURVE_FONT('continuous');
#288=COLOUR_RGB('',0.509803950786591,0.509803950786591,0.588235318660736);
#289=CARTESIAN_POINT('',(11.25,1.47874004408659E-014,5.18963702891809));
#290=VECTOR('',#410,1.0);
#291=DRAUGHTING_PRE_DEFINED_CURVE_FONT('continuous');
#292=COLOUR_RGB('',0.509803950786591,0.509803950786591,0.588235318660736);
#293=AXIS2_PLACEMENT_3D('',#411,#412,#413);
#294=DRAUGHTING_PRE_DEFINED_CURVE_FONT('continuous');
#295=COLOUR_RGB('',0.509803950786591,0.509803950786591,0.588235318660736);
#296=CARTESIAN_POINT('',(-9.5,8.87678415596041E-015,2.08963702891809));
#297=VECTOR('',#414,1.0);
#298=SURFACE_SIDE_STYLE('',(#415));
#299=EDGE_LOOP('',(#416,#417,#418,#419));
#300=AXIS2_PLACEMENT_3D('',#420,#421,#422);
#301=PRE_DEFINED_MARKER('');
#302=COLOUR_RGB('',0.509803950786591,0.509803950786591,0.588235318660736);
#303=DRAUGHTING_PRE_DEFINED_CURVE_FONT('continuous');
#304=COLOUR_RGB('',0.509803950786591,0.509803950786591,0.588235318660736);
#305=AXIS2_PLACEMENT_3D('',#423,#424,#425);
#306=PRE_DEFINED_MARKER('');
#307=COLOUR_RGB('',0.509803950786591,0.509803950786591,0.588235318660736);
#308=DRAUGHTING_PRE_DEFINED_CURVE_FONT('continuous');
#309=COLOUR_RGB('',0.509803950786591,0.509803950786591,0.588235318660736);
#310=CARTESIAN_POINT('',(-15.0,7.31011477923846E-015,3.09999999999997));
#311=VECTOR('',#426,1.0);
#312=DRAUGHTING_PRE_DEFINED_CURVE_FONT('continuous');
#313=COLOUR_RGB('',0.509803950786591,0.509803950786591,0.588235318660736);
#314=AXIS2_PLACEMENT_3D('',#427,#428,#429);
#315=PRE_DEFINED_MARKER('');
#316=COLOUR_RGB('',0.509803950786591,0.509803950786591,0.588235318660736);
#317=DRAUGHTING_PRE_DEFINED_CURVE_FONT('continuous');
#318=COLOUR_RGB('',0.509803950786591,0.509803950786591,0.588235318660736);
#319=CARTESIAN_POINT('',(9.5,1.42889147300908E-014,2.08963702891809));
#320=VECTOR('',#430,1.0);
#321=DRAUGHTING_PRE_DEFINED_CURVE_FONT('continuous');
#322=COLOUR_RGB('',0.509803950786591,0.509803950786591,0.588235318660736);
#323=CARTESIAN_POINT('',(-11.25,8.37829844518525E-015,5.18963702891809));
#324=VECTOR('',#431,1.0);
#325=DRAUGHTING_PRE_DEFINED_CURVE_FONT('continuous');
#326=COLOUR_RGB('',0.509803950786591,0.509803950786591,0.588235318660736);
#327=CARTESIAN_POINT('',(15.0,1.58555841068127E-014,3.09999999999997));
#328=VECTOR('',#432,1.0);
#329=PRE_DEFINED_MARKER('');
#330=COLOUR_RGB('',0.509803950786591,0.509803950786591,0.588235318660736);
#332=SURFACE_STYLE_FILL_AREA(#433);
#333=CARTESIAN_POINT('',(0.0,1.15828494430256E-014,-2.8421709430404E-014));
#334=DIRECTION('',(-0.0,0.0,-1.0));
#335=DIRECTION('',(-1.0,-1.6238834220357E-016,0.0));
#336=SURFACE_STYLE_FILL_AREA(#434);
#337=ORIENTED_EDGE('',*,*,#123,.T.);
#338=ORIENTED_EDGE('',*,*,#97,.T.);
#339=ORIENTED_EDGE('',*,*,#101,.T.);
#340=ORIENTED_EDGE('',*,*,#89,.F.);
#341=CARTESIAN_POINT('',(0.0,1.15828494430256E-014,5.18963702891809));
#342=DIRECTION('',(0.0,-0.0,1.0));
#343=DIRECTION('',(-1.0,-1.6238834220357E-016,0.0));
#344=SURFACE_STYLE_FILL_AREA(#435);
#345=ORIENTED_EDGE('',*,*,#105,.F.);
#346=ORIENTED_EDGE('',*,*,#79,.F.);
#347=ORIENTED_EDGE('',*,*,#121,.F.);
#348=ORIENTED_EDGE('',*,*,#93,.T.);
#349=CARTESIAN_POINT('',(0.0,1.15828494430256E-014,2.08963702891809));
#350=DIRECTION('',(0.0,-0.0,1.0));
#351=DIRECTION('',(-1.0,-1.6238834220357E-016,0.0));
#352=SURFACE_STYLE_FILL_AREA(#436);
#353=ORIENTED_EDGE('',*,*,#63,.F.);
#354=ORIENTED_EDGE('',*,*,#93,.F.);
#355=ORIENTED_EDGE('',*,*,#103,.T.);
#356=ORIENTED_EDGE('',*,*,#83,.T.);
#357=CARTESIAN_POINT('',(-12.25,9.70307868990823E-015,-2.8421709430404E-014));
#358=DIRECTION('',(0.0,0.0,-1.0));
#359=DIRECTION('',(1.0,1.22460635382238E-016,0.0));
#360=SURFACE_STYLE_FILL_AREA(#437);
#361=ORIENTED_EDGE('',*,*,#117,.F.);
#362=ORIENTED_EDGE('',*,*,#87,.F.);
#363=ORIENTED_EDGE('',*,*,#89,.T.);
#364=ORIENTED_EDGE('',*,*,#111,.T.);
#365=CARTESIAN_POINT('',(-14.0,9.86840054767425E-015,6.19999999999996));
#366=DIRECTION('',(0.0,0.0,1.0));
#367=DIRECTION('',(-1.0,-1.22460635382238E-016,0.0));
#368=SURFACE_STYLE_FILL_AREA(#438);
#369=ORIENTED_EDGE('',*,*,#105,.T.);
#370=ORIENTED_EDGE('',*,*,#63,.T.);
#371=ORIENTED_EDGE('',*,*,#121,.T.);
#372=ORIENTED_EDGE('',*,*,#97,.F.);
#373=CARTESIAN_POINT('',(0.0,1.15828494430256E-014,2.08963702891809));
#374=DIRECTION('',(0.0,-0.0,1.0));
#375=DIRECTION('',(-1.0,-1.6238834220357E-016,0.0));
#376=CARTESIAN_POINT('',(0.0,1.15828494430256E-014,4.17927405783621));
#377=DIRECTION('',(-0.0,0.0,-1.0));
#378=DIRECTION('',(-1.0,-1.6238834220357E-016,0.0));
#379=CARTESIAN_POINT('',(0.0,1.15828494430256E-014,-2.8421709430404E-014));
#380=DIRECTION('',(-0.0,0.0,-1.0));
#381=DIRECTION('',(-1.0,-1.6238834220357E-016,0.0));
#382=SURFACE_STYLE_FILL_AREA(#439);
#383=ORIENTED_EDGE('',*,*,#115,.F.);
#384=ORIENTED_EDGE('',*,*,#117,.T.);
#385=ORIENTED_EDGE('',*,*,#125,.F.);
#386=ORIENTED_EDGE('',*,*,#103,.F.);
#387=CARTESIAN_POINT('',(0.0,1.15828494430256E-014,3.09999999999997));
#388=DIRECTION('',(0.0,-0.0,1.0));
#389=DIRECTION('',(-1.0,-1.6238834220357E-016,0.0));
#390=CARTESIAN_POINT('',(0.0,1.15828494430256E-014,6.19999999999996));
#391=DIRECTION('',(-0.0,0.0,-1.0));
#392=DIRECTION('',(-1.0,-1.6238834220357E-016,0.0));
#393=CARTESIAN_POINT('',(0.0,1.15828494430256E-014,6.19999999999996));
#394=DIRECTION('',(-0.0,0.0,-1.0));
#395=DIRECTION('',(-1.0,-1.6238834220357E-016,0.0));
#396=CARTESIAN_POINT('',(0.0,1.15828494430256E-014,-2.8421709430404E-014));
#397=DIRECTION('',(-0.0,0.0,-1.0));
#398=DIRECTION('',(-1.0,-1.6238834220357E-016,0.0));
#399=SURFACE_STYLE_FILL_AREA(#440);
#400=ORIENTED_EDGE('',*,*,#115,.T.);
#401=ORIENTED_EDGE('',*,*,#83,.F.);
#402=ORIENTED_EDGE('',*,*,#125,.T.);
#403=ORIENTED_EDGE('',*,*,#87,.T.);
#404=CARTESIAN_POINT('',(0.0,1.15828494430256E-014,3.09999999999997));
#405=DIRECTION('',(0.0,-0.0,1.0));
#406=DIRECTION('',(-1.0,-1.6238834220357E-016,0.0));
#407=CARTESIAN_POINT('',(0.0,1.15828494430256E-014,4.17927405783621));
#408=DIRECTION('',(-0.0,0.0,-1.0));
#409=DIRECTION('',(-1.0,-1.6238834220357E-016,0.0));
#410=DIRECTION('',(0.866025403784434,2.46686450831332E-016,0.500000000000008));
#411=CARTESIAN_POINT('',(0.0,1.15828494430256E-014,-2.8421709430404E-014));
#412=DIRECTION('',(-0.0,0.0,-1.0));
#413=DIRECTION('',(-1.0,-1.6238834220357E-016,0.0));
#414=DIRECTION('',(0.0,0.0,-1.0));
#415=SURFACE_STYLE_FILL_AREA(#441);
#416=ORIENTED_EDGE('',*,*,#123,.F.);
#417=ORIENTED_EDGE('',*,*,#111,.F.);
#418=ORIENTED_EDGE('',*,*,#101,.F.);
#419=ORIENTED_EDGE('',*,*,#79,.T.);
#420=CARTESIAN_POINT('',(0.0,1.15828494430256E-014,5.18963702891809));
#421=DIRECTION('',(0.0,-0.0,1.0));
#422=DIRECTION('',(-1.0,-1.6238834220357E-016,0.0));
#423=CARTESIAN_POINT('',(0.0,1.15828494430256E-014,6.19999999999996));
#424=DIRECTION('',(-0.0,0.0,-1.0));
#425=DIRECTION('',(-1.0,-1.6238834220357E-016,0.0));
#426=DIRECTION('',(0.0,0.0,-1.0));
#427=CARTESIAN_POINT('',(0.0,1.15828494430256E-014,6.19999999999996));
#428=DIRECTION('',(-0.0,0.0,-1.0));
#429=DIRECTION('',(-1.0,-1.6238834220357E-016,0.0));
#430=DIRECTION('',(0.0,0.0,1.0));
#431=DIRECTION('',(0.866025403784434,2.46686450831332E-016,-0.500000000000008));
#432=DIRECTION('',(-0.0,-0.0,1.0));
#433=FILL_AREA_STYLE('',(#442));
#434=FILL_AREA_STYLE('',(#443));
#435=FILL_AREA_STYLE('',(#444));
#436=FILL_AREA_STYLE('',(#445));
#437=FILL_AREA_STYLE('',(#446));
#438=FILL_AREA_STYLE('',(#447));
#439=FILL_AREA_STYLE('',(#448));
#440=FILL_AREA_STYLE('',(#449));
#441=FILL_AREA_STYLE('',(#450));
#442=FILL_AREA_STYLE_COLOUR('',#451);
#443=FILL_AREA_STYLE_COLOUR('',#452);
#444=FILL_AREA_STYLE_COLOUR('',#453);
#445=FILL_AREA_STYLE_COLOUR('',#454);
#446=FILL_AREA_STYLE_COLOUR('',#455);
#447=FILL_AREA_STYLE_COLOUR('',#456);
#448=FILL_AREA_STYLE_COLOUR('',#457);
#449=FILL_AREA_STYLE_COLOUR('',#458);
#450=FILL_AREA_STYLE_COLOUR('',#459);
#451=COLOUR_RGB('',0.509803950786591,0.509803950786591,0.588235318660736);
#452=COLOUR_RGB('',0.509803950786591,0.509803950786591,0.588235318660736);
#453=COLOUR_RGB('',0.509803950786591,0.509803950786591,0.588235318660736);
#454=COLOUR_RGB('',0.509803950786591,0.509803950786591,0.588235318660736);
#455=COLOUR_RGB('',0.509803950786591,0.509803950786591,0.588235318660736);
#456=COLOUR_RGB('',0.509803950786591,0.509803950786591,0.588235318660736);
#457=COLOUR_RGB('',0.509803950786591,0.509803950786591,0.588235318660736);
#458=COLOUR_RGB('',0.509803950786591,0.509803950786591,0.588235318660736);
#459=COLOUR_RGB('',0.509803950786591,0.509803950786591,0.588235318660736);
ENDSEC;
END-ISO-10303-21;
