ISO-10303-21;
HEADER;
FILE_DESCRIPTION(('STEP AP214'),'1');
FILE_NAME(' ','  ',('TraceParts'),('TraceParts S.A.'),'XStep 1.0',' ',' ');
FILE_SCHEMA(('automotive_design'));
ENDSEC;
DATA;
#1=MECHANICAL_DESIGN_GEOMETRIC_PRESENTATION_REPRESENTATION(' ',(#10,#11,#12,#13,#14,#15,#16,#17,#18,#19,#20,#21,#22,#23,#24,#25,#26,#27,#28,#29,#30,#31,#32,#33,#34,#35,#36,#37,#38,#39,#40,#41,#42,#43,#44),#6);
#2=PRODUCT_DEFINITION_CONTEXT('',#45,'design');
#3=APPLICATION_PROTOCOL_DEFINITION('INTERNATIONAL STANDARD','automotive_design',1994,#45);
#4=PRODUCT_CATEGORY_RELATIONSHIP('NONE','NONE',#46,#47);
#5=SHAPE_DEFINITION_REPRESENTATION(#48,#49);
#6= (GEOMETRIC_REPRESENTATION_CONTEXT(3)GLOBAL_UNCERTAINTY_ASSIGNED_CONTEXT((#52))GLOBAL_UNIT_ASSIGNED_CONTEXT((#54,#55,#56))REPRESENTATION_CONTEXT('NONE','WORKSPACE'));
#10=STYLED_ITEM('',(#58),#59);
#11=STYLED_ITEM('',(#60),#61);
#12=STYLED_ITEM('',(#62),#63);
#13=STYLED_ITEM('',(#64),#65);
#14=STYLED_ITEM('',(#66),#67);
#15=STYLED_ITEM('',(#68),#69);
#16=STYLED_ITEM('',(#70),#71);
#17=STYLED_ITEM('',(#72),#73);
#18=STYLED_ITEM('',(#74),#75);
#19=STYLED_ITEM('',(#76),#77);
#20=STYLED_ITEM('',(#78),#79);
#21=STYLED_ITEM('',(#80),#81);
#22=STYLED_ITEM('',(#82),#83);
#23=STYLED_ITEM('',(#84),#85);
#24=STYLED_ITEM('',(#86),#87);
#25=STYLED_ITEM('',(#88),#89);
#26=STYLED_ITEM('',(#90),#91);
#27=STYLED_ITEM('',(#92),#93);
#28=STYLED_ITEM('',(#94),#95);
#29=STYLED_ITEM('',(#96),#97);
#30=STYLED_ITEM('',(#98),#99);
#31=STYLED_ITEM('',(#100),#101);
#32=STYLED_ITEM('',(#102),#103);
#33=STYLED_ITEM('',(#104),#105);
#34=STYLED_ITEM('',(#106),#107);
#35=STYLED_ITEM('',(#108),#109);
#36=STYLED_ITEM('',(#110),#111);
#37=STYLED_ITEM('',(#112),#113);
#38=STYLED_ITEM('',(#114),#115);
#39=STYLED_ITEM('',(#116),#117);
#40=STYLED_ITEM('',(#118),#119);
#41=STYLED_ITEM('',(#120),#121);
#42=STYLED_ITEM('',(#122),#123);
#43=STYLED_ITEM('',(#124),#125);
#44=STYLED_ITEM('',(#126),#127);
#45=APPLICATION_CONTEXT(' ');
#46=PRODUCT_CATEGORY('part','NONE');
#47=PRODUCT_RELATED_PRODUCT_CATEGORY('detail',' ',(#128));
#48=PRODUCT_DEFINITION_SHAPE('NONE','NONE',#129);
#49=ADVANCED_BREP_SHAPE_REPRESENTATION('1',(#127,#130),#6);
#52=UNCERTAINTY_MEASURE_WITH_UNIT(LENGTH_MEASURE(1.0E-006),#54,'','');
#54= (CONVERSION_BASED_UNIT('MILLIMETRE',#133)LENGTH_UNIT()NAMED_UNIT(#136));
#55= (NAMED_UNIT(#138)PLANE_ANGLE_UNIT()SI_UNIT($,.RADIAN.));
#56= (NAMED_UNIT(#138)SOLID_ANGLE_UNIT()SI_UNIT($,.STERADIAN.));
#58=PRESENTATION_STYLE_ASSIGNMENT((#144));
#59=ADVANCED_FACE('',(#145),#146,.F.);
#60=PRESENTATION_STYLE_ASSIGNMENT((#147));
#61=ADVANCED_FACE('',(#148),#149,.F.);
#62=PRESENTATION_STYLE_ASSIGNMENT((#150));
#63=ADVANCED_FACE('',(#151,#152),#153,.T.);
#64=PRESENTATION_STYLE_ASSIGNMENT((#154));
#65=VERTEX_POINT('',#155);
#66=PRESENTATION_STYLE_ASSIGNMENT((#156));
#67=VERTEX_POINT('',#157);
#68=PRESENTATION_STYLE_ASSIGNMENT((#158));
#69=VERTEX_POINT('',#159);
#70=PRESENTATION_STYLE_ASSIGNMENT((#160));
#71=ADVANCED_FACE('',(#161),#162,.F.);
#72=PRESENTATION_STYLE_ASSIGNMENT((#163));
#73=VERTEX_POINT('',#164);
#74=PRESENTATION_STYLE_ASSIGNMENT((#165));
#75=EDGE_CURVE('',#93,#69,#166,.T.);
#76=PRESENTATION_STYLE_ASSIGNMENT((#167));
#77=EDGE_CURVE('',#73,#65,#168,.T.);
#78=PRESENTATION_STYLE_ASSIGNMENT((#169));
#79=VERTEX_POINT('',#170);
#80=PRESENTATION_STYLE_ASSIGNMENT((#171));
#81=EDGE_CURVE('',#69,#121,#172,.T.);
#82=PRESENTATION_STYLE_ASSIGNMENT((#173));
#83=EDGE_CURVE('',#93,#85,#174,.T.);
#84=PRESENTATION_STYLE_ASSIGNMENT((#175));
#85=VERTEX_POINT('',#176);
#86=PRESENTATION_STYLE_ASSIGNMENT((#177));
#87=EDGE_CURVE('',#67,#79,#178,.T.);
#88=PRESENTATION_STYLE_ASSIGNMENT((#179));
#89=EDGE_CURVE('',#67,#115,#180,.T.);
#90=PRESENTATION_STYLE_ASSIGNMENT((#181));
#91=EDGE_CURVE('',#85,#93,#182,.T.);
#92=PRESENTATION_STYLE_ASSIGNMENT((#183));
#93=VERTEX_POINT('',#184);
#94=PRESENTATION_STYLE_ASSIGNMENT((#185));
#95=ADVANCED_FACE('',(#186,#187),#188,.T.);
#96=PRESENTATION_STYLE_ASSIGNMENT((#189));
#97=EDGE_CURVE('',#121,#69,#190,.T.);
#98=PRESENTATION_STYLE_ASSIGNMENT((#191));
#99=EDGE_CURVE('',#121,#85,#192,.T.);
#100=PRESENTATION_STYLE_ASSIGNMENT((#193));
#101=EDGE_CURVE('',#113,#115,#194,.T.);
#102=PRESENTATION_STYLE_ASSIGNMENT((#195));
#103=ADVANCED_FACE('',(#196),#197,.T.);
#104=PRESENTATION_STYLE_ASSIGNMENT((#198));
#105=EDGE_CURVE('',#115,#67,#199,.T.);
#106=PRESENTATION_STYLE_ASSIGNMENT((#200));
#107=EDGE_CURVE('',#65,#73,#201,.T.);
#108=PRESENTATION_STYLE_ASSIGNMENT((#202));
#109=EDGE_CURVE('',#79,#65,#203,.T.);
#110=PRESENTATION_STYLE_ASSIGNMENT((#204));
#111=ADVANCED_FACE('',(#205),#206,.T.);
#112=PRESENTATION_STYLE_ASSIGNMENT((#207));
#113=VERTEX_POINT('',#208);
#114=PRESENTATION_STYLE_ASSIGNMENT((#209));
#115=VERTEX_POINT('',#210);
#116=PRESENTATION_STYLE_ASSIGNMENT((#211));
#117=EDGE_CURVE('',#113,#79,#212,.T.);
#118=PRESENTATION_STYLE_ASSIGNMENT((#213));
#119=EDGE_CURVE('',#79,#113,#214,.T.);
#120=PRESENTATION_STYLE_ASSIGNMENT((#215));
#121=VERTEX_POINT('',#216);
#122=PRESENTATION_STYLE_ASSIGNMENT((#217));
#123=ADVANCED_FACE('',(#218),#219,.F.);
#124=PRESENTATION_STYLE_ASSIGNMENT((#220));
#125=EDGE_CURVE('',#73,#113,#221,.T.);
#126=PRESENTATION_STYLE_ASSIGNMENT((#222));
#127=MANIFOLD_SOLID_BREP('1',#223);
#128=PRODUCT('1','1','PART-1-DESC',(#224));
#129=PRODUCT_DEFINITION('NONE','NONE',#225,#2);
#130=AXIS2_PLACEMENT_3D('',#226,#227,#228);
#133=LENGTH_MEASURE_WITH_UNIT(LENGTH_MEASURE(1.0),#229);
#136=DIMENSIONAL_EXPONENTS(1.0,0.0,0.0,0.0,0.0,0.0,0.0);
#138=DIMENSIONAL_EXPONENTS(0.0,0.0,0.0,0.0,0.0,0.0,0.0);
#144=SURFACE_STYLE_USAGE(.BOTH.,#230);
#145=FACE_OUTER_BOUND('',#231,.T.);
#146=CYLINDRICAL_SURFACE('',#232,3.54999999999998);
#147=SURFACE_STYLE_USAGE(.BOTH.,#233);
#148=FACE_OUTER_BOUND('',#234,.T.);
#149=CONICAL_SURFACE('',#235,4.52499999999998,1.04719755119659);
#150=SURFACE_STYLE_USAGE(.BOTH.,#236);
#151=FACE_OUTER_BOUND('',#237,.T.);
#152=FACE_BOUND('',#238,.T.);
#153=PLANE('',#239);
#154=POINT_STYLE(' ',#240,POSITIVE_LENGTH_MEASURE(1.0E-006),#241);
#155=CARTESIAN_POINT('',(-3.54999999999995,1.0290889739743E-014,-2.8421709430404E-014));
#156=POINT_STYLE(' ',#242,POSITIVE_LENGTH_MEASURE(1.0E-006),#243);
#157=CARTESIAN_POINT('',(-5.49999999999994,1.02235363902827E-014,2.79999999999998));
#158=POINT_STYLE(' ',#244,POSITIVE_LENGTH_MEASURE(1.0E-006),#245);
#159=CARTESIAN_POINT('',(-5.99999999999994,9.99086118305649E-015,-2.8421709430404E-014));
#160=SURFACE_STYLE_USAGE(.BOTH.,#246);
#161=FACE_OUTER_BOUND('',#247,.T.);
#162=CYLINDRICAL_SURFACE('',#248,3.54999999999998);
#163=POINT_STYLE(' ',#249,POSITIVE_LENGTH_MEASURE(1.0E-006),#250);
#164=CARTESIAN_POINT('',(3.55000000000001,1.19378591986099E-014,-2.8421709430404E-014));
#165=CURVE_STYLE('',#251,POSITIVE_LENGTH_MEASURE(1.0E-006),#252);
#166=LINE('',#253,#254);
#167=CURVE_STYLE('',#255,POSITIVE_LENGTH_MEASURE(1.0E-006),#256);
#168=CIRCLE('',#257,3.54999999999998);
#169=POINT_STYLE(' ',#258,POSITIVE_LENGTH_MEASURE(1.0E-006),#259);
#170=CARTESIAN_POINT('',(-3.54999999999995,1.03933995154951E-014,1.6741669750802));
#171=CURVE_STYLE('',#260,POSITIVE_LENGTH_MEASURE(1.0E-006),#261);
#172=CIRCLE('',#262,5.99999999999997);
#173=CURVE_STYLE('',#263,POSITIVE_LENGTH_MEASURE(1.0E-006),#264);
#174=CIRCLE('',#265,5.99999999999997);
#175=POINT_STYLE(' ',#266,POSITIVE_LENGTH_MEASURE(1.0E-006),#267);
#176=CARTESIAN_POINT('',(6.0,1.26561504151242E-014,2.79999999999998));
#177=CURVE_STYLE('',#268,POSITIVE_LENGTH_MEASURE(1.0E-006),#269);
#178=LINE('',#270,#271);
#179=CURVE_STYLE('',#272,POSITIVE_LENGTH_MEASURE(1.0E-006),#273);
#180=CIRCLE('',#274,5.49999999999997);
#181=CURVE_STYLE('',#275,POSITIVE_LENGTH_MEASURE(1.0E-006),#276);
#182=CIRCLE('',#277,5.99999999999997);
#183=POINT_STYLE(' ',#278,POSITIVE_LENGTH_MEASURE(1.0E-006),#279);
#184=CARTESIAN_POINT('',(-5.99999999999994,1.01623060725916E-014,2.79999999999998));
#185=SURFACE_STYLE_USAGE(.BOTH.,#280);
#186=FACE_BOUND('',#281,.T.);
#187=FACE_OUTER_BOUND('',#282,.T.);
#188=PLANE('',#283);
#189=CURVE_STYLE('',#284,POSITIVE_LENGTH_MEASURE(1.0E-006),#285);
#190=CIRCLE('',#286,5.99999999999997);
#191=CURVE_STYLE('',#287,POSITIVE_LENGTH_MEASURE(1.0E-006),#288);
#192=LINE('',#289,#290);
#193=CURVE_STYLE('',#291,POSITIVE_LENGTH_MEASURE(1.0E-006),#292);
#194=LINE('',#293,#294);
#195=SURFACE_STYLE_USAGE(.BOTH.,#295);
#196=FACE_OUTER_BOUND('',#296,.T.);
#197=CYLINDRICAL_SURFACE('',#297,5.99999999999997);
#198=CURVE_STYLE('',#298,POSITIVE_LENGTH_MEASURE(1.0E-006),#299);
#199=CIRCLE('',#300,5.49999999999997);
#200=CURVE_STYLE('',#301,POSITIVE_LENGTH_MEASURE(1.0E-006),#302);
#201=CIRCLE('',#303,3.54999999999998);
#202=CURVE_STYLE('',#304,POSITIVE_LENGTH_MEASURE(1.0E-006),#305);
#203=LINE('',#306,#307);
#204=SURFACE_STYLE_USAGE(.BOTH.,#308);
#205=FACE_OUTER_BOUND('',#309,.T.);
#206=CYLINDRICAL_SURFACE('',#310,5.99999999999997);
#207=POINT_STYLE(' ',#311,POSITIVE_LENGTH_MEASURE(1.0E-006),#312);
#208=CARTESIAN_POINT('',(3.55000000000001,1.19378591986099E-014,1.6741669750802));
#209=POINT_STYLE(' ',#313,POSITIVE_LENGTH_MEASURE(1.0E-006),#314);
#210=CARTESIAN_POINT('',(5.5,1.25095603709376E-014,2.79999999999998));
#211=CURVE_STYLE('',#315,POSITIVE_LENGTH_MEASURE(1.0E-006),#316);
#212=CIRCLE('',#317,3.54999999999998);
#213=CURVE_STYLE('',#318,POSITIVE_LENGTH_MEASURE(1.0E-006),#319);
#214=CIRCLE('',#320,3.54999999999998);
#215=POINT_STYLE(' ',#321,POSITIVE_LENGTH_MEASURE(1.0E-006),#322);
#216=CARTESIAN_POINT('',(6.0,1.26561504151242E-014,-2.8421709430404E-014));
#217=SURFACE_STYLE_USAGE(.BOTH.,#323);
#218=FACE_OUTER_BOUND('',#324,.T.);
#219=CONICAL_SURFACE('',#325,4.52499999999998,1.04719755119659);
#220=CURVE_STYLE('',#326,POSITIVE_LENGTH_MEASURE(1.0E-006),#327);
#221=LINE('',#328,#329);
#222=SURFACE_STYLE_USAGE(.BOTH.,#330);
#223=CLOSED_SHELL('',(#71,#111,#123,#61,#63,#103,#95,#59));
#224=PRODUCT_CONTEXT('',#45,'mechanical');
#225=PRODUCT_DEFINITION_FORMATION_WITH_SPECIFIED_SOURCE(' ','NONE',#128,.NOT_KNOWN.);
#226=CARTESIAN_POINT('',(0.0,0.0,0.0));
#227=DIRECTION('',(0.0,0.0,1.0));
#228=DIRECTION('',(1.0,0.0,0.0));
#229= (NAMED_UNIT(#136)LENGTH_UNIT()SI_UNIT(.MILLI.,.METRE.));
#230=SURFACE_SIDE_STYLE('',(#332));
#231=EDGE_LOOP('',(#333,#334,#335,#336));
#232=AXIS2_PLACEMENT_3D('',#337,#338,#339);
#233=SURFACE_SIDE_STYLE('',(#340));
#234=EDGE_LOOP('',(#341,#342,#343,#344));
#235=AXIS2_PLACEMENT_3D('',#345,#346,#347);
#236=SURFACE_SIDE_STYLE('',(#348));
#237=EDGE_LOOP('',(#349,#350));
#238=EDGE_LOOP('',(#351,#352));
#239=AXIS2_PLACEMENT_3D('',#353,#354,#355);
#240=PRE_DEFINED_MARKER('');
#241=COLOUR_RGB('',0.509803950786591,0.509803950786591,0.588235318660736);
#242=PRE_DEFINED_MARKER('');
#243=COLOUR_RGB('',0.509803950786591,0.509803950786591,0.588235318660736);
#244=PRE_DEFINED_MARKER('');
#245=COLOUR_RGB('',0.509803950786591,0.509803950786591,0.588235318660736);
#246=SURFACE_SIDE_STYLE('',(#356));
#247=EDGE_LOOP('',(#357,#358,#359,#360));
#248=AXIS2_PLACEMENT_3D('',#361,#362,#363);
#249=PRE_DEFINED_MARKER('');
#250=COLOUR_RGB('',0.509803950786591,0.509803950786591,0.588235318660736);
#251=DRAUGHTING_PRE_DEFINED_CURVE_FONT('continuous');
#252=COLOUR_RGB('',0.509803950786591,0.509803950786591,0.588235318660736);
#253=CARTESIAN_POINT('',(-5.99999999999994,9.13798935464588E-015,1.39999999999998));
#254=VECTOR('',#364,1.0);
#255=DRAUGHTING_PRE_DEFINED_CURVE_FONT('continuous');
#256=COLOUR_RGB('',0.509803950786591,0.509803950786591,0.588235318660736);
#257=AXIS2_PLACEMENT_3D('',#365,#366,#367);
#258=PRE_DEFINED_MARKER('');
#259=COLOUR_RGB('',0.509803950786591,0.509803950786591,0.588235318660736);
#260=DRAUGHTING_PRE_DEFINED_CURVE_FONT('continuous');
#261=COLOUR_RGB('',0.509803950786591,0.509803950786591,0.588235318660736);
#262=AXIS2_PLACEMENT_3D('',#368,#369,#370);
#263=DRAUGHTING_PRE_DEFINED_CURVE_FONT('continuous');
#264=COLOUR_RGB('',0.509803950786591,0.509803950786591,0.588235318660736);
#265=AXIS2_PLACEMENT_3D('',#371,#372,#373);
#266=PRE_DEFINED_MARKER('');
#267=COLOUR_RGB('',0.509803950786591,0.509803950786591,0.588235318660736);
#268=DRAUGHTING_PRE_DEFINED_CURVE_FONT('continuous');
#269=COLOUR_RGB('',0.509803950786591,0.509803950786591,0.588235318660736);
#270=CARTESIAN_POINT('',(-4.52499999999995,9.57042998499634E-015,2.23708348754009));
#271=VECTOR('',#374,1.0);
#272=DRAUGHTING_PRE_DEFINED_CURVE_FONT('continuous');
#273=COLOUR_RGB('',0.509803950786591,0.509803950786591,0.588235318660736);
#274=AXIS2_PLACEMENT_3D('',#375,#376,#377);
#275=DRAUGHTING_PRE_DEFINED_CURVE_FONT('continuous');
#276=COLOUR_RGB('',0.509803950786591,0.509803950786591,0.588235318660736);
#277=AXIS2_PLACEMENT_3D('',#378,#379,#380);
#278=PRE_DEFINED_MARKER('');
#279=COLOUR_RGB('',0.509803950786591,0.509803950786591,0.588235318660736);
#280=SURFACE_SIDE_STYLE('',(#381));
#281=EDGE_LOOP('',(#382,#383));
#282=EDGE_LOOP('',(#384,#385));
#283=AXIS2_PLACEMENT_3D('',#386,#387,#388);
#284=DRAUGHTING_PRE_DEFINED_CURVE_FONT('continuous');
#285=COLOUR_RGB('',0.509803950786591,0.509803950786591,0.588235318660736);
#286=AXIS2_PLACEMENT_3D('',#389,#390,#391);
#287=DRAUGHTING_PRE_DEFINED_CURVE_FONT('continuous');
#288=COLOUR_RGB('',0.509803950786591,0.509803950786591,0.588235318660736);
#289=CARTESIAN_POINT('',(6.0,1.26561504151242E-014,1.39999999999998));
#290=VECTOR('',#392,1.0);
#291=DRAUGHTING_PRE_DEFINED_CURVE_FONT('continuous');
#292=COLOUR_RGB('',0.509803950786591,0.509803950786591,0.588235318660736);
#293=CARTESIAN_POINT('',(4.52500000000001,1.22237097847738E-014,2.23708348754009));
#294=VECTOR('',#393,1.0);
#295=SURFACE_SIDE_STYLE('',(#394));
#296=EDGE_LOOP('',(#395,#396,#397,#398));
#297=AXIS2_PLACEMENT_3D('',#399,#400,#401);
#298=DRAUGHTING_PRE_DEFINED_CURVE_FONT('continuous');
#299=COLOUR_RGB('',0.509803950786591,0.509803950786591,0.588235318660736);
#300=AXIS2_PLACEMENT_3D('',#402,#403,#404);
#301=DRAUGHTING_PRE_DEFINED_CURVE_FONT('continuous');
#302=COLOUR_RGB('',0.509803950786591,0.509803950786591,0.588235318660736);
#303=AXIS2_PLACEMENT_3D('',#405,#406,#407);
#304=DRAUGHTING_PRE_DEFINED_CURVE_FONT('continuous');
#305=COLOUR_RGB('',0.509803950786591,0.509803950786591,0.588235318660736);
#306=CARTESIAN_POINT('',(-3.54999999999995,9.8562805711602E-015,0.837083487540085));
#307=VECTOR('',#408,1.0);
#308=SURFACE_SIDE_STYLE('',(#409));
#309=EDGE_LOOP('',(#410,#411,#412,#413));
#310=AXIS2_PLACEMENT_3D('',#414,#415,#416);
#311=PRE_DEFINED_MARKER('');
#312=COLOUR_RGB('',0.509803950786591,0.509803950786591,0.588235318660736);
#313=PRE_DEFINED_MARKER('');
#314=COLOUR_RGB('',0.509803950786591,0.509803950786591,0.588235318660736);
#315=DRAUGHTING_PRE_DEFINED_CURVE_FONT('continuous');
#316=COLOUR_RGB('',0.509803950786591,0.509803950786591,0.588235318660736);
#317=AXIS2_PLACEMENT_3D('',#417,#418,#419);
#318=DRAUGHTING_PRE_DEFINED_CURVE_FONT('continuous');
#319=COLOUR_RGB('',0.509803950786591,0.509803950786591,0.588235318660736);
#320=AXIS2_PLACEMENT_3D('',#420,#421,#422);
#321=PRE_DEFINED_MARKER('');
#322=COLOUR_RGB('',0.509803950786591,0.509803950786591,0.588235318660736);
#323=SURFACE_SIDE_STYLE('',(#423));
#324=EDGE_LOOP('',(#424,#425,#426,#427));
#325=AXIS2_PLACEMENT_3D('',#428,#429,#430);
#326=DRAUGHTING_PRE_DEFINED_CURVE_FONT('continuous');
#327=COLOUR_RGB('',0.509803950786591,0.509803950786591,0.588235318660736);
#328=CARTESIAN_POINT('',(3.55000000000001,1.19378591986099E-014,0.837083487540085));
#329=VECTOR('',#431,1.0);
#330=SURFACE_SIDE_STYLE('',(#432));
#332=SURFACE_STYLE_FILL_AREA(#433);
#333=ORIENTED_EDGE('',*,*,#109,.T.);
#334=ORIENTED_EDGE('',*,*,#107,.T.);
#335=ORIENTED_EDGE('',*,*,#125,.T.);
#336=ORIENTED_EDGE('',*,*,#119,.F.);
#337=CARTESIAN_POINT('',(2.8421709430404E-014,1.0897069884885E-014,0.837083487540085));
#338=DIRECTION('',(0.0,-0.0,1.0));
#339=DIRECTION('',(-1.0,-1.70719452990959E-016,0.0));
#340=SURFACE_STYLE_FILL_AREA(#434);
#341=ORIENTED_EDGE('',*,*,#87,.T.);
#342=ORIENTED_EDGE('',*,*,#119,.T.);
#343=ORIENTED_EDGE('',*,*,#101,.T.);
#344=ORIENTED_EDGE('',*,*,#89,.F.);
#345=CARTESIAN_POINT('',(2.8421709430404E-014,1.0897069884885E-014,2.23708348754009));
#346=DIRECTION('',(0.0,-0.0,1.0));
#347=DIRECTION('',(-1.0,-1.70719452990959E-016,0.0));
#348=SURFACE_STYLE_FILL_AREA(#435);
#349=ORIENTED_EDGE('',*,*,#83,.F.);
#350=ORIENTED_EDGE('',*,*,#91,.F.);
#351=ORIENTED_EDGE('',*,*,#89,.T.);
#352=ORIENTED_EDGE('',*,*,#105,.T.);
#353=CARTESIAN_POINT('',(-5.74999999999994,1.01929212314372E-014,2.79999999999998));
#354=DIRECTION('',(0.0,0.0,1.0));
#355=DIRECTION('',(-1.0,-1.22460635382238E-016,0.0));
#356=SURFACE_STYLE_FILL_AREA(#436);
#357=ORIENTED_EDGE('',*,*,#109,.F.);
#358=ORIENTED_EDGE('',*,*,#117,.F.);
#359=ORIENTED_EDGE('',*,*,#125,.F.);
#360=ORIENTED_EDGE('',*,*,#77,.T.);
#361=CARTESIAN_POINT('',(2.8421709430404E-014,1.0897069884885E-014,0.837083487540085));
#362=DIRECTION('',(0.0,-0.0,1.0));
#363=DIRECTION('',(-1.0,-1.70719452990959E-016,0.0));
#364=DIRECTION('',(0.0,0.0,-1.0));
#365=CARTESIAN_POINT('',(2.8421709430404E-014,1.0897069884885E-014,-2.8421709430404E-014));
#366=DIRECTION('',(-0.0,0.0,-1.0));
#367=DIRECTION('',(-1.0,-1.70719452990959E-016,0.0));
#368=CARTESIAN_POINT('',(2.8421709430404E-014,1.0897069884885E-014,-2.8421709430404E-014));
#369=DIRECTION('',(-0.0,0.0,-1.0));
#370=DIRECTION('',(-1.0,-1.70719452990959E-016,0.0));
#371=CARTESIAN_POINT('',(2.8421709430404E-014,1.0897069884885E-014,2.79999999999998));
#372=DIRECTION('',(-0.0,0.0,-1.0));
#373=DIRECTION('',(-1.0,-1.70719452990959E-016,0.0));
#374=DIRECTION('',(0.866025403784434,2.53901404414954E-016,-0.500000000000007));
#375=CARTESIAN_POINT('',(2.8421709430404E-014,1.0897069884885E-014,2.79999999999998));
#376=DIRECTION('',(-0.0,0.0,-1.0));
#377=DIRECTION('',(-1.0,-1.70719452990959E-016,0.0));
#378=CARTESIAN_POINT('',(2.8421709430404E-014,1.0897069884885E-014,2.79999999999998));
#379=DIRECTION('',(-0.0,0.0,-1.0));
#380=DIRECTION('',(-1.0,-1.70719452990959E-016,0.0));
#381=SURFACE_STYLE_FILL_AREA(#437);
#382=ORIENTED_EDGE('',*,*,#107,.F.);
#383=ORIENTED_EDGE('',*,*,#77,.F.);
#384=ORIENTED_EDGE('',*,*,#81,.T.);
#385=ORIENTED_EDGE('',*,*,#97,.T.);
#386=CARTESIAN_POINT('',(-4.77499999999995,1.01408754613997E-014,-2.8421709430404E-014));
#387=DIRECTION('',(0.0,0.0,-1.0));
#388=DIRECTION('',(1.0,1.22460635382238E-016,0.0));
#389=CARTESIAN_POINT('',(2.8421709430404E-014,1.0897069884885E-014,-2.8421709430404E-014));
#390=DIRECTION('',(-0.0,0.0,-1.0));
#391=DIRECTION('',(-1.0,-1.70719452990959E-016,0.0));
#392=DIRECTION('',(-0.0,-0.0,1.0));
#393=DIRECTION('',(0.866025403784434,2.53901404414954E-016,0.500000000000007));
#394=SURFACE_STYLE_FILL_AREA(#438);
#395=ORIENTED_EDGE('',*,*,#75,.T.);
#396=ORIENTED_EDGE('',*,*,#97,.F.);
#397=ORIENTED_EDGE('',*,*,#99,.T.);
#398=ORIENTED_EDGE('',*,*,#91,.T.);
#399=CARTESIAN_POINT('',(2.8421709430404E-014,1.0897069884885E-014,1.39999999999998));
#400=DIRECTION('',(0.0,-0.0,1.0));
#401=DIRECTION('',(-1.0,-1.70719452990959E-016,0.0));
#402=CARTESIAN_POINT('',(2.8421709430404E-014,1.0897069884885E-014,2.79999999999998));
#403=DIRECTION('',(-0.0,0.0,-1.0));
#404=DIRECTION('',(-1.0,-1.70719452990959E-016,0.0));
#405=CARTESIAN_POINT('',(2.8421709430404E-014,1.0897069884885E-014,-2.8421709430404E-014));
#406=DIRECTION('',(-0.0,0.0,-1.0));
#407=DIRECTION('',(-1.0,-1.70719452990959E-016,0.0));
#408=DIRECTION('',(0.0,0.0,-1.0));
#409=SURFACE_STYLE_FILL_AREA(#439);
#410=ORIENTED_EDGE('',*,*,#75,.F.);
#411=ORIENTED_EDGE('',*,*,#83,.T.);
#412=ORIENTED_EDGE('',*,*,#99,.F.);
#413=ORIENTED_EDGE('',*,*,#81,.F.);
#414=CARTESIAN_POINT('',(2.8421709430404E-014,1.0897069884885E-014,1.39999999999998));
#415=DIRECTION('',(0.0,-0.0,1.0));
#416=DIRECTION('',(-1.0,-1.70719452990959E-016,0.0));
#417=CARTESIAN_POINT('',(2.8421709430404E-014,1.0897069884885E-014,1.6741669750802));
#418=DIRECTION('',(-0.0,0.0,-1.0));
#419=DIRECTION('',(-1.0,-1.70719452990959E-016,0.0));
#420=CARTESIAN_POINT('',(2.8421709430404E-014,1.0897069884885E-014,1.6741669750802));
#421=DIRECTION('',(-0.0,0.0,-1.0));
#422=DIRECTION('',(-1.0,-1.70719452990959E-016,0.0));
#423=SURFACE_STYLE_FILL_AREA(#440);
#424=ORIENTED_EDGE('',*,*,#87,.F.);
#425=ORIENTED_EDGE('',*,*,#105,.F.);
#426=ORIENTED_EDGE('',*,*,#101,.F.);
#427=ORIENTED_EDGE('',*,*,#117,.T.);
#428=CARTESIAN_POINT('',(2.8421709430404E-014,1.0897069884885E-014,2.23708348754009));
#429=DIRECTION('',(0.0,-0.0,1.0));
#430=DIRECTION('',(-1.0,-1.70719452990959E-016,0.0));
#431=DIRECTION('',(0.0,0.0,1.0));
#432=SURFACE_STYLE_FILL_AREA(#441);
#433=FILL_AREA_STYLE('',(#442));
#434=FILL_AREA_STYLE('',(#443));
#435=FILL_AREA_STYLE('',(#444));
#436=FILL_AREA_STYLE('',(#445));
#437=FILL_AREA_STYLE('',(#446));
#438=FILL_AREA_STYLE('',(#447));
#439=FILL_AREA_STYLE('',(#448));
#440=FILL_AREA_STYLE('',(#449));
#441=FILL_AREA_STYLE('',(#450));
#442=FILL_AREA_STYLE_COLOUR('',#451);
#443=FILL_AREA_STYLE_COLOUR('',#452);
#444=FILL_AREA_STYLE_COLOUR('',#453);
#445=FILL_AREA_STYLE_COLOUR('',#454);
#446=FILL_AREA_STYLE_COLOUR('',#455);
#447=FILL_AREA_STYLE_COLOUR('',#456);
#448=FILL_AREA_STYLE_COLOUR('',#457);
#449=FILL_AREA_STYLE_COLOUR('',#458);
#450=FILL_AREA_STYLE_COLOUR('',#459);
#451=COLOUR_RGB('',0.509803950786591,0.509803950786591,0.588235318660736);
#452=COLOUR_RGB('',0.509803950786591,0.509803950786591,0.588235318660736);
#453=COLOUR_RGB('',0.509803950786591,0.509803950786591,0.588235318660736);
#454=COLOUR_RGB('',0.509803950786591,0.509803950786591,0.588235318660736);
#455=COLOUR_RGB('',0.509803950786591,0.509803950786591,0.588235318660736);
#456=COLOUR_RGB('',0.509803950786591,0.509803950786591,0.588235318660736);
#457=COLOUR_RGB('',0.509803950786591,0.509803950786591,0.588235318660736);
#458=COLOUR_RGB('',0.509803950786591,0.509803950786591,0.588235318660736);
#459=COLOUR_RGB('',0.509803950786591,0.509803950786591,0.588235318660736);
ENDSEC;
END-ISO-10303-21;
