ISO-10303-21;
HEADER;
FILE_DESCRIPTION(('STEP AP214'),'1');
FILE_NAME(' ','  ',('TraceParts'),('TraceParts S.A.'),'XStep 1.0',' ',' ');
FILE_SCHEMA(('automotive_design'));
ENDSEC;
DATA;
#1=MECHANICAL_DESIGN_GEOMETRIC_PRESENTATION_REPRESENTATION(' ',(#10,#11,#12,#13,#14,#15,#16,#17,#18,#19,#20,#21,#22,#23,#24,#25,#26,#27,#28,#29,#30,#31,#32,#33,#34,#35,#36,#37,#38,#39,#40,#41,#42,#43,#44,#45,#46,#47,#48,#49,#50,#51,#52),#6);
#2=PRODUCT_DEFINITION_CONTEXT('',#53,'design');
#3=APPLICATION_PROTOCOL_DEFINITION('INTERNATIONAL STANDARD','automotive_design',1994,#53);
#4=PRODUCT_CATEGORY_RELATIONSHIP('NONE','NONE',#54,#55);
#5=SHAPE_DEFINITION_REPRESENTATION(#56,#57);
#6= (GEOMETRIC_REPRESENTATION_CONTEXT(3)GLOBAL_UNCERTAINTY_ASSIGNED_CONTEXT((#60))GLOBAL_UNIT_ASSIGNED_CONTEXT((#62,#63,#64))REPRESENTATION_CONTEXT('NONE','WORKSPACE'));
#10=STYLED_ITEM('',(#66),#67);
#11=STYLED_ITEM('',(#68),#69);
#12=STYLED_ITEM('',(#70),#71);
#13=STYLED_ITEM('',(#72),#73);
#14=STYLED_ITEM('',(#74),#75);
#15=STYLED_ITEM('',(#76),#77);
#16=STYLED_ITEM('',(#78),#79);
#17=STYLED_ITEM('',(#80),#81);
#18=STYLED_ITEM('',(#82),#83);
#19=STYLED_ITEM('',(#84),#85);
#20=STYLED_ITEM('',(#86),#87);
#21=STYLED_ITEM('',(#88),#89);
#22=STYLED_ITEM('',(#90),#91);
#23=STYLED_ITEM('',(#92),#93);
#24=STYLED_ITEM('',(#94),#95);
#25=STYLED_ITEM('',(#96),#97);
#26=STYLED_ITEM('',(#98),#99);
#27=STYLED_ITEM('',(#100),#101);
#28=STYLED_ITEM('',(#102),#103);
#29=STYLED_ITEM('',(#104),#105);
#30=STYLED_ITEM('',(#106),#107);
#31=STYLED_ITEM('',(#108),#109);
#32=STYLED_ITEM('',(#110),#111);
#33=STYLED_ITEM('',(#112),#113);
#34=STYLED_ITEM('',(#114),#115);
#35=STYLED_ITEM('',(#116),#117);
#36=STYLED_ITEM('',(#118),#119);
#37=STYLED_ITEM('',(#120),#121);
#38=STYLED_ITEM('',(#122),#123);
#39=STYLED_ITEM('',(#124),#125);
#40=STYLED_ITEM('',(#126),#127);
#41=STYLED_ITEM('',(#128),#129);
#42=STYLED_ITEM('',(#130),#131);
#43=STYLED_ITEM('',(#132),#133);
#44=STYLED_ITEM('',(#134),#135);
#45=STYLED_ITEM('',(#136),#137);
#46=STYLED_ITEM('',(#138),#139);
#47=STYLED_ITEM('',(#140),#141);
#48=STYLED_ITEM('',(#142),#143);
#49=STYLED_ITEM('',(#144),#145);
#50=STYLED_ITEM('',(#146),#147);
#51=STYLED_ITEM('',(#148),#149);
#52=STYLED_ITEM('',(#150),#151);
#53=APPLICATION_CONTEXT(' ');
#54=PRODUCT_CATEGORY('part','NONE');
#55=PRODUCT_RELATED_PRODUCT_CATEGORY('detail',' ',(#152));
#56=PRODUCT_DEFINITION_SHAPE('NONE','NONE',#153);
#57=ADVANCED_BREP_SHAPE_REPRESENTATION('1',(#151,#154),#6);
#60=UNCERTAINTY_MEASURE_WITH_UNIT(LENGTH_MEASURE(1.0E-006),#62,'','');
#62= (CONVERSION_BASED_UNIT('MILLIMETRE',#157)LENGTH_UNIT()NAMED_UNIT(#160));
#63= (NAMED_UNIT(#162)PLANE_ANGLE_UNIT()SI_UNIT($,.RADIAN.));
#64= (NAMED_UNIT(#162)SOLID_ANGLE_UNIT()SI_UNIT($,.STERADIAN.));
#66=PRESENTATION_STYLE_ASSIGNMENT((#168));
#67=EDGE_CURVE('',#129,#149,#169,.T.);
#68=PRESENTATION_STYLE_ASSIGNMENT((#170));
#69=VERTEX_POINT('',#171);
#70=PRESENTATION_STYLE_ASSIGNMENT((#172));
#71=EDGE_CURVE('',#149,#123,#173,.T.);
#72=PRESENTATION_STYLE_ASSIGNMENT((#174));
#73=VERTEX_POINT('',#175);
#74=PRESENTATION_STYLE_ASSIGNMENT((#176));
#75=VERTEX_POINT('',#177);
#76=PRESENTATION_STYLE_ASSIGNMENT((#178));
#77=EDGE_CURVE('',#73,#129,#179,.T.);
#78=PRESENTATION_STYLE_ASSIGNMENT((#180));
#79=EDGE_CURVE('',#91,#129,#181,.T.);
#80=PRESENTATION_STYLE_ASSIGNMENT((#182));
#81=EDGE_CURVE('',#69,#121,#183,.T.);
#82=PRESENTATION_STYLE_ASSIGNMENT((#184));
#83=EDGE_CURVE('',#91,#75,#185,.T.);
#84=PRESENTATION_STYLE_ASSIGNMENT((#186));
#85=ADVANCED_FACE('',(#187,#188),#189,.T.);
#86=PRESENTATION_STYLE_ASSIGNMENT((#190));
#87=EDGE_CURVE('',#123,#149,#191,.T.);
#88=PRESENTATION_STYLE_ASSIGNMENT((#192));
#89=EDGE_CURVE('',#133,#141,#193,.T.);
#90=PRESENTATION_STYLE_ASSIGNMENT((#194));
#91=VERTEX_POINT('',#195);
#92=PRESENTATION_STYLE_ASSIGNMENT((#196));
#93=ADVANCED_FACE('',(#197),#198,.F.);
#94=PRESENTATION_STYLE_ASSIGNMENT((#199));
#95=EDGE_CURVE('',#129,#73,#200,.T.);
#96=PRESENTATION_STYLE_ASSIGNMENT((#201));
#97=EDGE_CURVE('',#121,#69,#202,.T.);
#98=PRESENTATION_STYLE_ASSIGNMENT((#203));
#99=ADVANCED_FACE('',(#204,#205),#206,.T.);
#100=PRESENTATION_STYLE_ASSIGNMENT((#207));
#101=ADVANCED_FACE('',(#208),#209,.T.);
#102=PRESENTATION_STYLE_ASSIGNMENT((#210));
#103=ADVANCED_FACE('',(#211),#212,.F.);
#104=PRESENTATION_STYLE_ASSIGNMENT((#213));
#105=EDGE_CURVE('',#145,#125,#214,.T.);
#106=PRESENTATION_STYLE_ASSIGNMENT((#215));
#107=EDGE_CURVE('',#141,#133,#216,.T.);
#108=PRESENTATION_STYLE_ASSIGNMENT((#217));
#109=EDGE_CURVE('',#75,#91,#218,.T.);
#110=PRESENTATION_STYLE_ASSIGNMENT((#219));
#111=EDGE_CURVE('',#141,#125,#220,.T.);
#112=PRESENTATION_STYLE_ASSIGNMENT((#221));
#113=EDGE_CURVE('',#123,#73,#222,.T.);
#114=PRESENTATION_STYLE_ASSIGNMENT((#223));
#115=EDGE_CURVE('',#125,#145,#224,.T.);
#116=PRESENTATION_STYLE_ASSIGNMENT((#225));
#117=EDGE_CURVE('',#73,#75,#226,.T.);
#118=PRESENTATION_STYLE_ASSIGNMENT((#227));
#119=ADVANCED_FACE('',(#228),#229,.T.);
#120=PRESENTATION_STYLE_ASSIGNMENT((#230));
#121=VERTEX_POINT('',#231);
#122=PRESENTATION_STYLE_ASSIGNMENT((#232));
#123=VERTEX_POINT('',#233);
#124=PRESENTATION_STYLE_ASSIGNMENT((#234));
#125=VERTEX_POINT('',#235);
#126=PRESENTATION_STYLE_ASSIGNMENT((#236));
#127=ADVANCED_FACE('',(#237),#238,.F.);
#128=PRESENTATION_STYLE_ASSIGNMENT((#239));
#129=VERTEX_POINT('',#240);
#130=PRESENTATION_STYLE_ASSIGNMENT((#241));
#131=EDGE_CURVE('',#121,#141,#242,.T.);
#132=PRESENTATION_STYLE_ASSIGNMENT((#243));
#133=VERTEX_POINT('',#244);
#134=PRESENTATION_STYLE_ASSIGNMENT((#245));
#135=ADVANCED_FACE('',(#246),#247,.T.);
#136=PRESENTATION_STYLE_ASSIGNMENT((#248));
#137=ADVANCED_FACE('',(#249),#250,.T.);
#138=PRESENTATION_STYLE_ASSIGNMENT((#251));
#139=ADVANCED_FACE('',(#252),#253,.F.);
#140=PRESENTATION_STYLE_ASSIGNMENT((#254));
#141=VERTEX_POINT('',#255);
#142=PRESENTATION_STYLE_ASSIGNMENT((#256));
#143=EDGE_CURVE('',#133,#69,#257,.T.);
#144=PRESENTATION_STYLE_ASSIGNMENT((#258));
#145=VERTEX_POINT('',#259);
#146=PRESENTATION_STYLE_ASSIGNMENT((#260));
#147=EDGE_CURVE('',#145,#133,#261,.T.);
#148=PRESENTATION_STYLE_ASSIGNMENT((#262));
#149=VERTEX_POINT('',#263);
#150=PRESENTATION_STYLE_ASSIGNMENT((#264));
#151=MANIFOLD_SOLID_BREP('1',#265);
#152=PRODUCT('1','1','PART-1-DESC',(#266));
#153=PRODUCT_DEFINITION('NONE','NONE',#267,#2);
#154=AXIS2_PLACEMENT_3D('',#268,#269,#270);
#157=LENGTH_MEASURE_WITH_UNIT(LENGTH_MEASURE(1.0),#271);
#160=DIMENSIONAL_EXPONENTS(1.0,0.0,0.0,0.0,0.0,0.0,0.0);
#162=DIMENSIONAL_EXPONENTS(0.0,0.0,0.0,0.0,0.0,0.0,0.0);
#168=CURVE_STYLE('',#272,POSITIVE_LENGTH_MEASURE(1.0E-006),#273);
#169=LINE('',#274,#275);
#170=POINT_STYLE(' ',#276,POSITIVE_LENGTH_MEASURE(1.0E-006),#277);
#171=CARTESIAN_POINT('',(46.0,2.39085859213274E-014,21.0));
#172=CURVE_STYLE('',#278,POSITIVE_LENGTH_MEASURE(1.0E-006),#279);
#173=CIRCLE('',#280,25.0);
#174=POINT_STYLE(' ',#281,POSITIVE_LENGTH_MEASURE(1.0E-006),#282);
#175=CARTESIAN_POINT('',(25.0,1.76864016944868E-014,20.0));
#176=POINT_STYLE(' ',#283,POSITIVE_LENGTH_MEASURE(1.0E-006),#284);
#177=CARTESIAN_POINT('',(26.0,1.79826961814792E-014,21.0));
#178=CURVE_STYLE('',#285,POSITIVE_LENGTH_MEASURE(1.0E-006),#286);
#179=CIRCLE('',#287,25.0);
#180=CURVE_STYLE('',#288,POSITIVE_LENGTH_MEASURE(1.0E-006),#289);
#181=LINE('',#290,#291);
#182=CURVE_STYLE('',#292,POSITIVE_LENGTH_MEASURE(1.0E-006),#293);
#183=CIRCLE('',#294,46.0);
#184=CURVE_STYLE('',#295,POSITIVE_LENGTH_MEASURE(1.0E-006),#296);
#185=CIRCLE('',#297,26.0);
#186=SURFACE_STYLE_USAGE(.BOTH.,#298);
#187=FACE_OUTER_BOUND('',#299,.T.);
#188=FACE_BOUND('',#300,.T.);
#189=PLANE('',#301);
#190=CURVE_STYLE('',#302,POSITIVE_LENGTH_MEASURE(1.0E-006),#303);
#191=CIRCLE('',#304,25.0);
#192=CURVE_STYLE('',#305,POSITIVE_LENGTH_MEASURE(1.0E-006),#306);
#193=CIRCLE('',#307,46.0);
#194=POINT_STYLE(' ',#308,POSITIVE_LENGTH_MEASURE(1.0E-006),#309);
#195=CARTESIAN_POINT('',(-26.0,7.09506299973844E-015,21.0));
#196=SURFACE_STYLE_USAGE(.BOTH.,#310);
#197=FACE_OUTER_BOUND('',#311,.T.);
#198=CONICAL_SURFACE('',#312,25.5,0.785398163397448);
#199=CURVE_STYLE('',#313,POSITIVE_LENGTH_MEASURE(1.0E-006),#314);
#200=CIRCLE('',#315,25.0);
#201=CURVE_STYLE('',#316,POSITIVE_LENGTH_MEASURE(1.0E-006),#317);
#202=CIRCLE('',#318,46.0);
#203=SURFACE_STYLE_USAGE(.BOTH.,#319);
#204=FACE_OUTER_BOUND('',#320,.T.);
#205=FACE_BOUND('',#321,.T.);
#206=PLANE('',#322);
#207=SURFACE_STYLE_USAGE(.BOTH.,#323);
#208=FACE_OUTER_BOUND('',#324,.T.);
#209=SPHERICAL_SURFACE('',#325,67.0000000000002);
#210=SURFACE_STYLE_USAGE(.BOTH.,#326);
#211=FACE_OUTER_BOUND('',#327,.T.);
#212=CYLINDRICAL_SURFACE('',#328,25.0);
#213=CURVE_STYLE('',#329,POSITIVE_LENGTH_MEASURE(1.0E-006),#330);
#214=CIRCLE('',#331,26.0854433790746);
#215=CURVE_STYLE('',#332,POSITIVE_LENGTH_MEASURE(1.0E-006),#333);
#216=CIRCLE('',#334,46.0);
#217=CURVE_STYLE('',#335,POSITIVE_LENGTH_MEASURE(1.0E-006),#336);
#218=CIRCLE('',#337,26.0);
#219=CURVE_STYLE('',#338,POSITIVE_LENGTH_MEASURE(1.0E-006),#339);
#220=CIRCLE('',#340,67.0000000000002);
#221=CURVE_STYLE('',#341,POSITIVE_LENGTH_MEASURE(1.0E-006),#342);
#222=LINE('',#343,#344);
#223=CURVE_STYLE('',#345,POSITIVE_LENGTH_MEASURE(1.0E-006),#346);
#224=CIRCLE('',#347,26.0854433790746);
#225=CURVE_STYLE('',#348,POSITIVE_LENGTH_MEASURE(1.0E-006),#349);
#226=LINE('',#350,#351);
#227=SURFACE_STYLE_USAGE(.BOTH.,#352);
#228=FACE_OUTER_BOUND('',#353,.T.);
#229=CYLINDRICAL_SURFACE('',#354,46.0);
#230=POINT_STYLE(' ',#355,POSITIVE_LENGTH_MEASURE(1.0E-006),#356);
#231=CARTESIAN_POINT('',(-46.0,4.64585029209369E-015,21.0));
#232=POINT_STYLE(' ',#357,POSITIVE_LENGTH_MEASURE(1.0E-006),#358);
#233=CARTESIAN_POINT('',(25.0,1.76864016944868E-014,-2.8421709430404E-014));
#234=POINT_STYLE(' ',#359,POSITIVE_LENGTH_MEASURE(1.0E-006),#360);
#235=CARTESIAN_POINT('',(-26.0854433790737,5.79876287773437E-015,-4.9737991503207E-014));
#236=SURFACE_STYLE_USAGE(.BOTH.,#361);
#237=FACE_OUTER_BOUND('',#362,.T.);
#238=CYLINDRICAL_SURFACE('',#363,25.0);
#239=POINT_STYLE(' ',#364,POSITIVE_LENGTH_MEASURE(1.0E-006),#365);
#240=CARTESIAN_POINT('',(-25.0,7.15629331742956E-015,20.0));
#241=CURVE_STYLE('',#366,POSITIVE_LENGTH_MEASURE(1.0E-006),#367);
#242=LINE('',#368,#369);
#243=POINT_STYLE(' ',#370,POSITIVE_LENGTH_MEASURE(1.0E-006),#371);
#244=CARTESIAN_POINT('',(46.0,2.40383153200971E-014,12.9999999999998));
#245=SURFACE_STYLE_USAGE(.BOTH.,#372);
#246=FACE_OUTER_BOUND('',#373,.T.);
#247=SPHERICAL_SURFACE('',#374,67.0000000000002);
#248=SURFACE_STYLE_USAGE(.BOTH.,#375);
#249=FACE_OUTER_BOUND('',#376,.T.);
#250=CYLINDRICAL_SURFACE('',#377,46.0);
#251=SURFACE_STYLE_USAGE(.BOTH.,#378);
#252=FACE_OUTER_BOUND('',#379,.T.);
#253=CONICAL_SURFACE('',#380,25.5,0.785398163397448);
#254=POINT_STYLE(' ',#381,POSITIVE_LENGTH_MEASURE(1.0E-006),#382);
#255=CARTESIAN_POINT('',(-45.9999999999999,4.15600775056475E-015,13.0));
#256=CURVE_STYLE('',#383,POSITIVE_LENGTH_MEASURE(1.0E-006),#384);
#257=LINE('',#385,#386);
#258=POINT_STYLE(' ',#387,POSITIVE_LENGTH_MEASURE(1.0E-006),#388);
#259=CARTESIAN_POINT('',(26.0854433790748,1.9160816805789E-014,-1.4210854715202E-014));
#260=CURVE_STYLE('',#389,POSITIVE_LENGTH_MEASURE(1.0E-006),#390);
#261=CIRCLE('',#391,67.0000000000002);
#262=POINT_STYLE(' ',#392,POSITIVE_LENGTH_MEASURE(1.0E-006),#393);
#263=CARTESIAN_POINT('',(-25.0,5.93168696360718E-015,-2.8421709430404E-014));
#264=SURFACE_STYLE_USAGE(.BOTH.,#394);
#265=CLOSED_SHELL('',(#103,#119,#139,#135,#101,#93,#85,#137,#99,#127));
#266=PRODUCT_CONTEXT('',#53,'mechanical');
#267=PRODUCT_DEFINITION_FORMATION_WITH_SPECIFIED_SOURCE(' ','NONE',#152,.NOT_KNOWN.);
#268=CARTESIAN_POINT('',(0.0,0.0,0.0));
#269=DIRECTION('',(0.0,0.0,1.0));
#270=DIRECTION('',(1.0,0.0,0.0));
#271= (NAMED_UNIT(#160)LENGTH_UNIT()SI_UNIT(.MILLI.,.METRE.));
#272=DRAUGHTING_PRE_DEFINED_CURVE_FONT('continuous');
#273=COLOUR_RGB('',0.509803950786591,0.509803950786591,0.588235318660736);
#274=CARTESIAN_POINT('',(-25.0,2.87167734486643E-015,9.99999999999999));
#275=VECTOR('',#396,1.0);
#276=PRE_DEFINED_MARKER('');
#277=COLOUR_RGB('',0.509803950786591,0.509803950786591,0.588235318660736);
#278=DRAUGHTING_PRE_DEFINED_CURVE_FONT('continuous');
#279=COLOUR_RGB('',0.509803950786591,0.509803950786591,0.588235318660736);
#280=AXIS2_PLACEMENT_3D('',#397,#398,#399);
#281=PRE_DEFINED_MARKER('');
#282=COLOUR_RGB('',0.509803950786591,0.509803950786591,0.588235318660736);
#283=PRE_DEFINED_MARKER('');
#284=COLOUR_RGB('',0.509803950786591,0.509803950786591,0.588235318660736);
#285=DRAUGHTING_PRE_DEFINED_CURVE_FONT('continuous');
#286=COLOUR_RGB('',0.509803950786591,0.509803950786591,0.588235318660736);
#287=AXIS2_PLACEMENT_3D('',#400,#401,#402);
#288=DRAUGHTING_PRE_DEFINED_CURVE_FONT('continuous');
#289=COLOUR_RGB('',0.509803950786591,0.509803950786591,0.588235318660736);
#290=CARTESIAN_POINT('',(-25.5,2.72353010137023E-015,20.5));
#291=VECTOR('',#403,1.0);
#292=DRAUGHTING_PRE_DEFINED_CURVE_FONT('continuous');
#293=COLOUR_RGB('',0.509803950786591,0.509803950786591,0.588235318660736);
#294=AXIS2_PLACEMENT_3D('',#404,#405,#406);
#295=DRAUGHTING_PRE_DEFINED_CURVE_FONT('continuous');
#296=COLOUR_RGB('',0.509803950786591,0.509803950786591,0.588235318660736);
#297=AXIS2_PLACEMENT_3D('',#407,#408,#409);
#298=SURFACE_SIDE_STYLE('',(#410));
#299=EDGE_LOOP('',(#411,#412));
#300=EDGE_LOOP('',(#413,#414));
#301=AXIS2_PLACEMENT_3D('',#415,#416,#417);
#302=DRAUGHTING_PRE_DEFINED_CURVE_FONT('continuous');
#303=COLOUR_RGB('',0.509803950786591,0.509803950786591,0.588235318660736);
#304=AXIS2_PLACEMENT_3D('',#418,#419,#420);
#305=DRAUGHTING_PRE_DEFINED_CURVE_FONT('continuous');
#306=COLOUR_RGB('',0.509803950786591,0.509803950786591,0.588235318660736);
#307=AXIS2_PLACEMENT_3D('',#421,#422,#423);
#308=PRE_DEFINED_MARKER('');
#309=COLOUR_RGB('',0.509803950786591,0.509803950786591,0.588235318660736);
#310=SURFACE_SIDE_STYLE('',(#424));
#311=EDGE_LOOP('',(#425,#426,#427,#428));
#312=AXIS2_PLACEMENT_3D('',#429,#430,#431);
#313=DRAUGHTING_PRE_DEFINED_CURVE_FONT('continuous');
#314=COLOUR_RGB('',0.509803950786591,0.509803950786591,0.588235318660736);
#315=AXIS2_PLACEMENT_3D('',#432,#433,#434);
#316=DRAUGHTING_PRE_DEFINED_CURVE_FONT('continuous');
#317=COLOUR_RGB('',0.509803950786591,0.509803950786591,0.588235318660736);
#318=AXIS2_PLACEMENT_3D('',#435,#436,#437);
#319=SURFACE_SIDE_STYLE('',(#438));
#320=EDGE_LOOP('',(#439,#440));
#321=EDGE_LOOP('',(#441,#442));
#322=AXIS2_PLACEMENT_3D('',#443,#444,#445);
#323=SURFACE_SIDE_STYLE('',(#446));
#324=EDGE_LOOP('',(#447,#448,#449,#450));
#325=AXIS2_PLACEMENT_3D('',#451,#452,#453);
#326=SURFACE_SIDE_STYLE('',(#454));
#327=EDGE_LOOP('',(#455,#456,#457,#458));
#328=AXIS2_PLACEMENT_3D('',#459,#460,#461);
#329=DRAUGHTING_PRE_DEFINED_CURVE_FONT('continuous');
#330=COLOUR_RGB('',0.509803950786591,0.509803950786591,0.588235318660736);
#331=AXIS2_PLACEMENT_3D('',#462,#463,#464);
#332=DRAUGHTING_PRE_DEFINED_CURVE_FONT('continuous');
#333=COLOUR_RGB('',0.509803950786591,0.509803950786591,0.588235318660736);
#334=AXIS2_PLACEMENT_3D('',#465,#466,#467);
#335=DRAUGHTING_PRE_DEFINED_CURVE_FONT('continuous');
#336=COLOUR_RGB('',0.509803950786591,0.509803950786591,0.588235318660736);
#337=AXIS2_PLACEMENT_3D('',#468,#469,#470);
#338=DRAUGHTING_PRE_DEFINED_CURVE_FONT('continuous');
#339=COLOUR_RGB('',0.509803950786591,0.509803950786591,0.588235318660736);
#340=AXIS2_PLACEMENT_3D('',#471,#472,#473);
#341=DRAUGHTING_PRE_DEFINED_CURVE_FONT('continuous');
#342=COLOUR_RGB('',0.509803950786591,0.509803950786591,0.588235318660736);
#343=CARTESIAN_POINT('',(25.0,1.76864016944868E-014,9.99999999999999));
#344=VECTOR('',#474,1.0);
#345=DRAUGHTING_PRE_DEFINED_CURVE_FONT('continuous');
#346=COLOUR_RGB('',0.509803950786591,0.509803950786591,0.588235318660736);
#347=AXIS2_PLACEMENT_3D('',#475,#476,#477);
#348=DRAUGHTING_PRE_DEFINED_CURVE_FONT('continuous');
#349=COLOUR_RGB('',0.509803950786591,0.509803950786591,0.588235318660736);
#350=CARTESIAN_POINT('',(25.5,1.7834548937983E-014,20.5));
#351=VECTOR('',#478,1.0);
#352=SURFACE_SIDE_STYLE('',(#479));
#353=EDGE_LOOP('',(#480,#481,#482,#483));
#354=AXIS2_PLACEMENT_3D('',#484,#485,#486);
#355=PRE_DEFINED_MARKER('');
#356=COLOUR_RGB('',0.509803950786591,0.509803950786591,0.588235318660736);
#357=PRE_DEFINED_MARKER('');
#358=COLOUR_RGB('',0.509803950786591,0.509803950786591,0.588235318660736);
#359=PRE_DEFINED_MARKER('');
#360=COLOUR_RGB('',0.509803950786591,0.509803950786591,0.588235318660736);
#361=SURFACE_SIDE_STYLE('',(#487));
#362=EDGE_LOOP('',(#488,#489,#490,#491));
#363=AXIS2_PLACEMENT_3D('',#492,#493,#494);
#364=PRE_DEFINED_MARKER('');
#365=COLOUR_RGB('',0.509803950786591,0.509803950786591,0.588235318660736);
#366=DRAUGHTING_PRE_DEFINED_CURVE_FONT('continuous');
#367=COLOUR_RGB('',0.509803950786591,0.509803950786591,0.588235318660736);
#368=CARTESIAN_POINT('',(-46.0,-3.35050688197411E-015,16.9999999999999));
#369=VECTOR('',#495,1.0);
#370=PRE_DEFINED_MARKER('');
#371=COLOUR_RGB('',0.509803950786591,0.509803950786591,0.588235318660736);
#372=SURFACE_SIDE_STYLE('',(#496));
#373=EDGE_LOOP('',(#497,#498,#499,#500));
#374=AXIS2_PLACEMENT_3D('',#501,#502,#503);
#375=SURFACE_SIDE_STYLE('',(#504));
#376=EDGE_LOOP('',(#505,#506,#507,#508));
#377=AXIS2_PLACEMENT_3D('',#509,#510,#511);
#378=SURFACE_SIDE_STYLE('',(#512));
#379=EDGE_LOOP('',(#513,#514,#515,#516));
#380=AXIS2_PLACEMENT_3D('',#517,#518,#519);
#381=PRE_DEFINED_MARKER('');
#382=COLOUR_RGB('',0.509803950786591,0.509803950786591,0.588235318660736);
#383=DRAUGHTING_PRE_DEFINED_CURVE_FONT('continuous');
#384=COLOUR_RGB('',0.509803950786591,0.509803950786591,0.588235318660736);
#385=CARTESIAN_POINT('',(46.0,2.39085859213274E-014,16.9999999999999));
#386=VECTOR('',#520,1.0);
#387=PRE_DEFINED_MARKER('');
#388=COLOUR_RGB('',0.509803950786591,0.509803950786591,0.588235318660736);
#389=DRAUGHTING_PRE_DEFINED_CURVE_FONT('continuous');
#390=COLOUR_RGB('',0.509803950786591,0.509803950786591,0.588235318660736);
#391=AXIS2_PLACEMENT_3D('',#521,#522,#523);
#392=PRE_DEFINED_MARKER('');
#393=COLOUR_RGB('',0.509803950786591,0.509803950786591,0.588235318660736);
#394=SURFACE_SIDE_STYLE('',(#524));
#396=DIRECTION('',(0.0,0.0,-1.0));
#397=CARTESIAN_POINT('',(0.0,1.02790395196766E-014,-2.8421709430404E-014));
#398=DIRECTION('',(-0.0,0.0,-1.0));
#399=DIRECTION('',(-1.0,-1.73833851610169E-016,0.0));
#400=CARTESIAN_POINT('',(0.0,1.02790395196766E-014,20.0));
#401=DIRECTION('',(-0.0,0.0,-1.0));
#402=DIRECTION('',(-1.0,-1.73833851610169E-016,0.0));
#403=DIRECTION('',(0.707106781186548,2.0951184098052E-016,-0.707106781186547));
#404=CARTESIAN_POINT('',(0.0,1.02790395196766E-014,21.0));
#405=DIRECTION('',(-0.0,0.0,-1.0));
#406=DIRECTION('',(-1.0,-1.73833851610169E-016,0.0));
#407=CARTESIAN_POINT('',(0.0,1.02790395196766E-014,21.0));
#408=DIRECTION('',(-0.0,0.0,-1.0));
#409=DIRECTION('',(-1.0,-1.73833851610169E-016,0.0));
#410=SURFACE_STYLE_FILL_AREA(#525);
#411=ORIENTED_EDGE('',*,*,#97,.F.);
#412=ORIENTED_EDGE('',*,*,#81,.F.);
#413=ORIENTED_EDGE('',*,*,#83,.T.);
#414=ORIENTED_EDGE('',*,*,#109,.T.);
#415=CARTESIAN_POINT('',(-36.0,5.87045664591606E-015,21.0));
#416=DIRECTION('',(0.0,0.0,1.0));
#417=DIRECTION('',(-1.0,-1.22460635382238E-016,0.0));
#418=CARTESIAN_POINT('',(0.0,1.02790395196766E-014,-2.8421709430404E-014));
#419=DIRECTION('',(-0.0,0.0,-1.0));
#420=DIRECTION('',(-1.0,-1.73833851610169E-016,0.0));
#421=CARTESIAN_POINT('',(0.0,1.02790395196766E-014,12.9999999999998));
#422=DIRECTION('',(0.0,0.0,1.0));
#423=DIRECTION('',(-1.0,-1.73833851610169E-016,0.0));
#424=SURFACE_STYLE_FILL_AREA(#526);
#425=ORIENTED_EDGE('',*,*,#79,.T.);
#426=ORIENTED_EDGE('',*,*,#95,.T.);
#427=ORIENTED_EDGE('',*,*,#117,.T.);
#428=ORIENTED_EDGE('',*,*,#83,.F.);
#429=CARTESIAN_POINT('',(0.0,1.02790395196766E-014,20.5));
#430=DIRECTION('',(0.0,-0.0,1.0));
#431=DIRECTION('',(-1.0,-1.73833851610169E-016,0.0));
#432=CARTESIAN_POINT('',(0.0,1.02790395196766E-014,20.0));
#433=DIRECTION('',(-0.0,0.0,-1.0));
#434=DIRECTION('',(-1.0,-1.73833851610169E-016,0.0));
#435=CARTESIAN_POINT('',(0.0,1.02790395196766E-014,21.0));
#436=DIRECTION('',(-0.0,0.0,-1.0));
#437=DIRECTION('',(-1.0,-1.73833851610169E-016,0.0));
#438=SURFACE_STYLE_FILL_AREA(#527);
#439=ORIENTED_EDGE('',*,*,#115,.T.);
#440=ORIENTED_EDGE('',*,*,#105,.T.);
#441=ORIENTED_EDGE('',*,*,#71,.F.);
#442=ORIENTED_EDGE('',*,*,#87,.F.);
#443=CARTESIAN_POINT('',(-35.5,4.64585029209369E-015,-1.4210854715202E-014));
#444=DIRECTION('',(0.0,0.0,-1.0));
#445=DIRECTION('',(1.0,1.22460635382238E-016,0.0));
#446=SURFACE_STYLE_FILL_AREA(#528);
#447=ORIENTED_EDGE('',*,*,#147,.T.);
#448=ORIENTED_EDGE('',*,*,#107,.F.);
#449=ORIENTED_EDGE('',*,*,#111,.T.);
#450=ORIENTED_EDGE('',*,*,#105,.F.);
#451=CARTESIAN_POINT('',(2.20268248085631E-013,1.27719368649313E-014,61.7134478352742));
#452=DIRECTION('',(0.0,0.0,-1.0));
#453=DIRECTION('',(1.0,1.22460635382238E-016,0.0));
#454=SURFACE_STYLE_FILL_AREA(#529);
#455=ORIENTED_EDGE('',*,*,#67,.F.);
#456=ORIENTED_EDGE('',*,*,#77,.F.);
#457=ORIENTED_EDGE('',*,*,#113,.F.);
#458=ORIENTED_EDGE('',*,*,#87,.T.);
#459=CARTESIAN_POINT('',(0.0,1.02790395196766E-014,9.99999999999999));
#460=DIRECTION('',(0.0,-0.0,1.0));
#461=DIRECTION('',(-1.0,-1.73833851610169E-016,0.0));
#462=CARTESIAN_POINT('',(2.20268248085631E-013,1.27719368649313E-014,-1.4210854715202E-014));
#463=DIRECTION('',(0.0,0.0,-1.0));
#464=DIRECTION('',(0.0,-1.0,0.0));
#465=CARTESIAN_POINT('',(0.0,1.02790395196766E-014,12.9999999999998));
#466=DIRECTION('',(0.0,0.0,1.0));
#467=DIRECTION('',(-1.0,-1.73833851610169E-016,0.0));
#468=CARTESIAN_POINT('',(0.0,1.02790395196766E-014,21.0));
#469=DIRECTION('',(-0.0,0.0,-1.0));
#470=DIRECTION('',(-1.0,-1.73833851610169E-016,0.0));
#471=CARTESIAN_POINT('',(2.20268248085631E-013,1.27719368649313E-014,61.7134478352742));
#472=DIRECTION('',(2.44921270764475E-016,-1.0,0.0));
#473=DIRECTION('',(-0.0,0.0,1.0));
#474=DIRECTION('',(0.0,0.0,1.0));
#475=CARTESIAN_POINT('',(2.20268248085631E-013,1.27719368649313E-014,-1.4210854715202E-014));
#476=DIRECTION('',(0.0,0.0,-1.0));
#477=DIRECTION('',(0.0,-1.0,0.0));
#478=DIRECTION('',(0.707106781186548,2.0951184098052E-016,0.707106781186547));
#479=SURFACE_STYLE_FILL_AREA(#530);
#480=ORIENTED_EDGE('',*,*,#131,.F.);
#481=ORIENTED_EDGE('',*,*,#97,.T.);
#482=ORIENTED_EDGE('',*,*,#143,.F.);
#483=ORIENTED_EDGE('',*,*,#89,.T.);
#484=CARTESIAN_POINT('',(0.0,1.02790395196766E-014,10.5));
#485=DIRECTION('',(0.0,-0.0,1.0));
#486=DIRECTION('',(-1.0,-1.73833851610169E-016,0.0));
#487=SURFACE_STYLE_FILL_AREA(#531);
#488=ORIENTED_EDGE('',*,*,#67,.T.);
#489=ORIENTED_EDGE('',*,*,#71,.T.);
#490=ORIENTED_EDGE('',*,*,#113,.T.);
#491=ORIENTED_EDGE('',*,*,#95,.F.);
#492=CARTESIAN_POINT('',(0.0,1.02790395196766E-014,9.99999999999999));
#493=DIRECTION('',(0.0,-0.0,1.0));
#494=DIRECTION('',(-1.0,-1.73833851610169E-016,0.0));
#495=DIRECTION('',(0.0,0.0,-1.0));
#496=SURFACE_STYLE_FILL_AREA(#532);
#497=ORIENTED_EDGE('',*,*,#147,.F.);
#498=ORIENTED_EDGE('',*,*,#115,.F.);
#499=ORIENTED_EDGE('',*,*,#111,.F.);
#500=ORIENTED_EDGE('',*,*,#89,.F.);
#501=CARTESIAN_POINT('',(2.20268248085631E-013,1.27719368649313E-014,61.7134478352742));
#502=DIRECTION('',(0.0,0.0,-1.0));
#503=DIRECTION('',(1.0,1.22460635382238E-016,0.0));
#504=SURFACE_STYLE_FILL_AREA(#533);
#505=ORIENTED_EDGE('',*,*,#131,.T.);
#506=ORIENTED_EDGE('',*,*,#107,.T.);
#507=ORIENTED_EDGE('',*,*,#143,.T.);
#508=ORIENTED_EDGE('',*,*,#81,.T.);
#509=CARTESIAN_POINT('',(0.0,1.02790395196766E-014,10.5));
#510=DIRECTION('',(0.0,-0.0,1.0));
#511=DIRECTION('',(-1.0,-1.73833851610169E-016,0.0));
#512=SURFACE_STYLE_FILL_AREA(#534);
#513=ORIENTED_EDGE('',*,*,#79,.F.);
#514=ORIENTED_EDGE('',*,*,#109,.F.);
#515=ORIENTED_EDGE('',*,*,#117,.F.);
#516=ORIENTED_EDGE('',*,*,#77,.T.);
#517=CARTESIAN_POINT('',(0.0,1.02790395196766E-014,20.5));
#518=DIRECTION('',(0.0,-0.0,1.0));
#519=DIRECTION('',(-1.0,-1.73833851610169E-016,0.0));
#520=DIRECTION('',(-0.0,-0.0,1.0));
#521=CARTESIAN_POINT('',(2.20268248085631E-013,1.27719368649313E-014,61.7134478352742));
#522=DIRECTION('',(2.44921270764475E-016,-1.0,0.0));
#523=DIRECTION('',(-0.0,0.0,1.0));
#524=SURFACE_STYLE_FILL_AREA(#535);
#525=FILL_AREA_STYLE('',(#536));
#526=FILL_AREA_STYLE('',(#537));
#527=FILL_AREA_STYLE('',(#538));
#528=FILL_AREA_STYLE('',(#539));
#529=FILL_AREA_STYLE('',(#540));
#530=FILL_AREA_STYLE('',(#541));
#531=FILL_AREA_STYLE('',(#542));
#532=FILL_AREA_STYLE('',(#543));
#533=FILL_AREA_STYLE('',(#544));
#534=FILL_AREA_STYLE('',(#545));
#535=FILL_AREA_STYLE('',(#546));
#536=FILL_AREA_STYLE_COLOUR('',#547);
#537=FILL_AREA_STYLE_COLOUR('',#548);
#538=FILL_AREA_STYLE_COLOUR('',#549);
#539=FILL_AREA_STYLE_COLOUR('',#550);
#540=FILL_AREA_STYLE_COLOUR('',#551);
#541=FILL_AREA_STYLE_COLOUR('',#552);
#542=FILL_AREA_STYLE_COLOUR('',#553);
#543=FILL_AREA_STYLE_COLOUR('',#554);
#544=FILL_AREA_STYLE_COLOUR('',#555);
#545=FILL_AREA_STYLE_COLOUR('',#556);
#546=FILL_AREA_STYLE_COLOUR('',#557);
#547=COLOUR_RGB('',0.509803950786591,0.509803950786591,0.588235318660736);
#548=COLOUR_RGB('',0.509803950786591,0.509803950786591,0.588235318660736);
#549=COLOUR_RGB('',0.509803950786591,0.509803950786591,0.588235318660736);
#550=COLOUR_RGB('',0.509803950786591,0.509803950786591,0.588235318660736);
#551=COLOUR_RGB('',0.509803950786591,0.509803950786591,0.588235318660736);
#552=COLOUR_RGB('',0.509803950786591,0.509803950786591,0.588235318660736);
#553=COLOUR_RGB('',0.509803950786591,0.509803950786591,0.588235318660736);
#554=COLOUR_RGB('',0.509803950786591,0.509803950786591,0.588235318660736);
#555=COLOUR_RGB('',0.509803950786591,0.509803950786591,0.588235318660736);
#556=COLOUR_RGB('',0.509803950786591,0.509803950786591,0.588235318660736);
#557=COLOUR_RGB('',0.509803950786591,0.509803950786591,0.588235318660736);
ENDSEC;
END-ISO-10303-21;
