ISO-10303-21;
HEADER;
FILE_DESCRIPTION(('STEP AP214'),'1');
FILE_NAME(' ','  ',('TraceParts'),('TraceParts S.A.'),'XStep 1.0',' ',' ');
FILE_SCHEMA(('automotive_design'));
ENDSEC;
DATA;
#1=MECHANICAL_DESIGN_GEOMETRIC_PRESENTATION_REPRESENTATION(' ',(#10,#11,#12,#13,#14,#15,#16,#17,#18,#19,#20,#21,#22,#23,#24,#25,#26,#27,#28,#29,#30,#31,#32,#33,#34,#35,#36,#37,#38,#39,#40,#41,#42,#43,#44,#45,#46,#47,#48,#49,#50,#51,#52),#6);
#2=PRODUCT_DEFINITION_CONTEXT('',#53,'design');
#3=APPLICATION_PROTOCOL_DEFINITION('INTERNATIONAL STANDARD','automotive_design',1994,#53);
#4=PRODUCT_CATEGORY_RELATIONSHIP('NONE','NONE',#54,#55);
#5=SHAPE_DEFINITION_REPRESENTATION(#56,#57);
#6= (GEOMETRIC_REPRESENTATION_CONTEXT(3)GLOBAL_UNCERTAINTY_ASSIGNED_CONTEXT((#60))GLOBAL_UNIT_ASSIGNED_CONTEXT((#62,#63,#64))REPRESENTATION_CONTEXT('NONE','WORKSPACE'));
#10=STYLED_ITEM('',(#66),#67);
#11=STYLED_ITEM('',(#68),#69);
#12=STYLED_ITEM('',(#70),#71);
#13=STYLED_ITEM('',(#72),#73);
#14=STYLED_ITEM('',(#74),#75);
#15=STYLED_ITEM('',(#76),#77);
#16=STYLED_ITEM('',(#78),#79);
#17=STYLED_ITEM('',(#80),#81);
#18=STYLED_ITEM('',(#82),#83);
#19=STYLED_ITEM('',(#84),#85);
#20=STYLED_ITEM('',(#86),#87);
#21=STYLED_ITEM('',(#88),#89);
#22=STYLED_ITEM('',(#90),#91);
#23=STYLED_ITEM('',(#92),#93);
#24=STYLED_ITEM('',(#94),#95);
#25=STYLED_ITEM('',(#96),#97);
#26=STYLED_ITEM('',(#98),#99);
#27=STYLED_ITEM('',(#100),#101);
#28=STYLED_ITEM('',(#102),#103);
#29=STYLED_ITEM('',(#104),#105);
#30=STYLED_ITEM('',(#106),#107);
#31=STYLED_ITEM('',(#108),#109);
#32=STYLED_ITEM('',(#110),#111);
#33=STYLED_ITEM('',(#112),#113);
#34=STYLED_ITEM('',(#114),#115);
#35=STYLED_ITEM('',(#116),#117);
#36=STYLED_ITEM('',(#118),#119);
#37=STYLED_ITEM('',(#120),#121);
#38=STYLED_ITEM('',(#122),#123);
#39=STYLED_ITEM('',(#124),#125);
#40=STYLED_ITEM('',(#126),#127);
#41=STYLED_ITEM('',(#128),#129);
#42=STYLED_ITEM('',(#130),#131);
#43=STYLED_ITEM('',(#132),#133);
#44=STYLED_ITEM('',(#134),#135);
#45=STYLED_ITEM('',(#136),#137);
#46=STYLED_ITEM('',(#138),#139);
#47=STYLED_ITEM('',(#140),#141);
#48=STYLED_ITEM('',(#142),#143);
#49=STYLED_ITEM('',(#144),#145);
#50=STYLED_ITEM('',(#146),#147);
#51=STYLED_ITEM('',(#148),#149);
#52=STYLED_ITEM('',(#150),#151);
#53=APPLICATION_CONTEXT(' ');
#54=PRODUCT_CATEGORY('part','NONE');
#55=PRODUCT_RELATED_PRODUCT_CATEGORY('detail',' ',(#152));
#56=PRODUCT_DEFINITION_SHAPE('NONE','NONE',#153);
#57=ADVANCED_BREP_SHAPE_REPRESENTATION('1',(#129,#154),#6);
#60=UNCERTAINTY_MEASURE_WITH_UNIT(LENGTH_MEASURE(1.0E-006),#62,'','');
#62= (CONVERSION_BASED_UNIT('MILLIMETRE',#157)LENGTH_UNIT()NAMED_UNIT(#160));
#63= (NAMED_UNIT(#162)PLANE_ANGLE_UNIT()SI_UNIT($,.RADIAN.));
#64= (NAMED_UNIT(#162)SOLID_ANGLE_UNIT()SI_UNIT($,.STERADIAN.));
#66=PRESENTATION_STYLE_ASSIGNMENT((#168));
#67=EDGE_CURVE('',#119,#135,#169,.T.);
#68=PRESENTATION_STYLE_ASSIGNMENT((#170));
#69=VERTEX_POINT('',#171);
#70=PRESENTATION_STYLE_ASSIGNMENT((#172));
#71=VERTEX_POINT('',#173);
#72=PRESENTATION_STYLE_ASSIGNMENT((#174));
#73=EDGE_CURVE('',#115,#69,#175,.T.);
#74=PRESENTATION_STYLE_ASSIGNMENT((#176));
#75=ADVANCED_FACE('',(#177,#178),#179,.T.);
#76=PRESENTATION_STYLE_ASSIGNMENT((#180));
#77=ADVANCED_FACE('',(#181),#182,.T.);
#78=PRESENTATION_STYLE_ASSIGNMENT((#183));
#79=ADVANCED_FACE('',(#184,#185),#186,.T.);
#80=PRESENTATION_STYLE_ASSIGNMENT((#187));
#81=ADVANCED_FACE('',(#188),#189,.F.);
#82=PRESENTATION_STYLE_ASSIGNMENT((#190));
#83=EDGE_CURVE('',#131,#149,#191,.T.);
#84=PRESENTATION_STYLE_ASSIGNMENT((#192));
#85=EDGE_CURVE('',#111,#71,#193,.T.);
#86=PRESENTATION_STYLE_ASSIGNMENT((#194));
#87=ADVANCED_FACE('',(#195),#196,.T.);
#88=PRESENTATION_STYLE_ASSIGNMENT((#197));
#89=EDGE_CURVE('',#113,#149,#198,.T.);
#90=PRESENTATION_STYLE_ASSIGNMENT((#199));
#91=EDGE_CURVE('',#113,#93,#200,.T.);
#92=PRESENTATION_STYLE_ASSIGNMENT((#201));
#93=VERTEX_POINT('',#202);
#94=PRESENTATION_STYLE_ASSIGNMENT((#203));
#95=EDGE_CURVE('',#149,#131,#204,.T.);
#96=PRESENTATION_STYLE_ASSIGNMENT((#205));
#97=EDGE_CURVE('',#119,#115,#206,.T.);
#98=PRESENTATION_STYLE_ASSIGNMENT((#207));
#99=EDGE_CURVE('',#147,#133,#208,.T.);
#100=PRESENTATION_STYLE_ASSIGNMENT((#209));
#101=EDGE_CURVE('',#149,#71,#210,.T.);
#102=PRESENTATION_STYLE_ASSIGNMENT((#211));
#103=ADVANCED_FACE('',(#212),#213,.T.);
#104=PRESENTATION_STYLE_ASSIGNMENT((#214));
#105=EDGE_CURVE('',#131,#93,#215,.T.);
#106=PRESENTATION_STYLE_ASSIGNMENT((#216));
#107=ADVANCED_FACE('',(#217),#218,.F.);
#108=PRESENTATION_STYLE_ASSIGNMENT((#219));
#109=EDGE_CURVE('',#135,#119,#220,.T.);
#110=PRESENTATION_STYLE_ASSIGNMENT((#221));
#111=VERTEX_POINT('',#222);
#112=PRESENTATION_STYLE_ASSIGNMENT((#223));
#113=VERTEX_POINT('',#224);
#114=PRESENTATION_STYLE_ASSIGNMENT((#225));
#115=VERTEX_POINT('',#226);
#116=PRESENTATION_STYLE_ASSIGNMENT((#227));
#117=EDGE_CURVE('',#135,#133,#228,.T.);
#118=PRESENTATION_STYLE_ASSIGNMENT((#229));
#119=VERTEX_POINT('',#230);
#120=PRESENTATION_STYLE_ASSIGNMENT((#231));
#121=EDGE_CURVE('',#133,#147,#232,.T.);
#122=PRESENTATION_STYLE_ASSIGNMENT((#233));
#123=EDGE_CURVE('',#69,#115,#234,.T.);
#124=PRESENTATION_STYLE_ASSIGNMENT((#235));
#125=ADVANCED_FACE('',(#236),#237,.T.);
#126=PRESENTATION_STYLE_ASSIGNMENT((#238));
#127=ADVANCED_FACE('',(#239),#240,.F.);
#128=PRESENTATION_STYLE_ASSIGNMENT((#241));
#129=MANIFOLD_SOLID_BREP('1',#242);
#130=PRESENTATION_STYLE_ASSIGNMENT((#243));
#131=VERTEX_POINT('',#244);
#132=PRESENTATION_STYLE_ASSIGNMENT((#245));
#133=VERTEX_POINT('',#246);
#134=PRESENTATION_STYLE_ASSIGNMENT((#247));
#135=VERTEX_POINT('',#248);
#136=PRESENTATION_STYLE_ASSIGNMENT((#249));
#137=EDGE_CURVE('',#111,#131,#250,.T.);
#138=PRESENTATION_STYLE_ASSIGNMENT((#251));
#139=EDGE_CURVE('',#147,#119,#252,.T.);
#140=PRESENTATION_STYLE_ASSIGNMENT((#253));
#141=EDGE_CURVE('',#69,#135,#254,.T.);
#142=PRESENTATION_STYLE_ASSIGNMENT((#255));
#143=EDGE_CURVE('',#93,#113,#256,.T.);
#144=PRESENTATION_STYLE_ASSIGNMENT((#257));
#145=ADVANCED_FACE('',(#258),#259,.F.);
#146=PRESENTATION_STYLE_ASSIGNMENT((#260));
#147=VERTEX_POINT('',#261);
#148=PRESENTATION_STYLE_ASSIGNMENT((#262));
#149=VERTEX_POINT('',#263);
#150=PRESENTATION_STYLE_ASSIGNMENT((#264));
#151=EDGE_CURVE('',#71,#111,#265,.T.);
#152=PRODUCT('1','1','PART-1-DESC',(#266));
#153=PRODUCT_DEFINITION('NONE','NONE',#267,#2);
#154=AXIS2_PLACEMENT_3D('',#268,#269,#270);
#157=LENGTH_MEASURE_WITH_UNIT(LENGTH_MEASURE(1.0),#271);
#160=DIMENSIONAL_EXPONENTS(1.0,0.0,0.0,0.0,0.0,0.0,0.0);
#162=DIMENSIONAL_EXPONENTS(0.0,0.0,0.0,0.0,0.0,0.0,0.0);
#168=CURVE_STYLE('',#272,POSITIVE_LENGTH_MEASURE(1.0E-006),#273);
#169=CIRCLE('',#274,39.0);
#170=POINT_STYLE(' ',#275,POSITIVE_LENGTH_MEASURE(1.0E-006),#276);
#171=CARTESIAN_POINT('',(-39.0,4.64585029209369E-015,17.0));
#172=POINT_STYLE(' ',#277,POSITIVE_LENGTH_MEASURE(1.0E-006),#278);
#173=CARTESIAN_POINT('',(-21.5,5.74799601053383E-015,-2.8421709430404E-014));
#174=CURVE_STYLE('',#279,POSITIVE_LENGTH_MEASURE(1.0E-006),#280);
#175=CIRCLE('',#281,39.0);
#176=SURFACE_STYLE_USAGE(.BOTH.,#282);
#177=FACE_OUTER_BOUND('',#283,.T.);
#178=FACE_BOUND('',#284,.T.);
#179=PLANE('',#285);
#180=SURFACE_STYLE_USAGE(.BOTH.,#286);
#181=FACE_OUTER_BOUND('',#287,.T.);
#182=CYLINDRICAL_SURFACE('',#288,39.0);
#183=SURFACE_STYLE_USAGE(.BOTH.,#289);
#184=FACE_OUTER_BOUND('',#290,.T.);
#185=FACE_BOUND('',#291,.T.);
#186=PLANE('',#292);
#187=SURFACE_STYLE_USAGE(.BOTH.,#293);
#188=FACE_OUTER_BOUND('',#294,.T.);
#189=CYLINDRICAL_SURFACE('',#295,21.5);
#190=CURVE_STYLE('',#296,POSITIVE_LENGTH_MEASURE(1.0E-006),#297);
#191=CIRCLE('',#298,21.5);
#192=CURVE_STYLE('',#299,POSITIVE_LENGTH_MEASURE(1.0E-006),#300);
#193=CIRCLE('',#301,21.5);
#194=SURFACE_STYLE_USAGE(.BOTH.,#302);
#195=FACE_OUTER_BOUND('',#303,.T.);
#196=SPHERICAL_SURFACE('',#304,58.0000000000002);
#197=CURVE_STYLE('',#305,POSITIVE_LENGTH_MEASURE(1.0E-006),#306);
#198=LINE('',#307,#308);
#199=CURVE_STYLE('',#309,POSITIVE_LENGTH_MEASURE(1.0E-006),#310);
#200=CIRCLE('',#311,22.5);
#201=POINT_STYLE(' ',#312,POSITIVE_LENGTH_MEASURE(1.0E-006),#313);
#202=CARTESIAN_POINT('',(22.5,1.60206126750007E-014,17.0));
#203=CURVE_STYLE('',#314,POSITIVE_LENGTH_MEASURE(1.0E-006),#315);
#204=CIRCLE('',#316,21.5);
#205=CURVE_STYLE('',#317,POSITIVE_LENGTH_MEASURE(1.0E-006),#318);
#206=LINE('',#319,#320);
#207=CURVE_STYLE('',#321,POSITIVE_LENGTH_MEASURE(1.0E-006),#322);
#208=CIRCLE('',#323,22.5658216510294);
#209=CURVE_STYLE('',#324,POSITIVE_LENGTH_MEASURE(1.0E-006),#325);
#210=LINE('',#326,#327);
#211=SURFACE_STYLE_USAGE(.BOTH.,#328);
#212=FACE_OUTER_BOUND('',#329,.T.);
#213=SPHERICAL_SURFACE('',#330,58.0000000000002);
#214=CURVE_STYLE('',#331,POSITIVE_LENGTH_MEASURE(1.0E-006),#332);
#215=LINE('',#333,#334);
#216=SURFACE_STYLE_USAGE(.BOTH.,#335);
#217=FACE_OUTER_BOUND('',#336,.T.);
#218=CYLINDRICAL_SURFACE('',#337,21.5);
#219=CURVE_STYLE('',#338,POSITIVE_LENGTH_MEASURE(1.0E-006),#339);
#220=CIRCLE('',#340,39.0);
#221=POINT_STYLE(' ',#341,POSITIVE_LENGTH_MEASURE(1.0E-006),#342);
#222=CARTESIAN_POINT('',(21.5,1.5727332781534E-014,-2.8421709430404E-014));
#223=POINT_STYLE(' ',#343,POSITIVE_LENGTH_MEASURE(1.0E-006),#344);
#224=CARTESIAN_POINT('',(-22.5,6.66645077590061E-015,17.0));
#225=POINT_STYLE(' ',#345,POSITIVE_LENGTH_MEASURE(1.0E-006),#346);
#226=CARTESIAN_POINT('',(39.0,2.08597309172005E-014,17.0));
#227=CURVE_STYLE('',#347,POSITIVE_LENGTH_MEASURE(1.0E-006),#348);
#228=CIRCLE('',#349,58.0000000000002);
#229=POINT_STYLE(' ',#350,POSITIVE_LENGTH_MEASURE(1.0E-006),#351);
#230=CARTESIAN_POINT('',(39.0,2.12043758737155E-014,10.4999999999999));
#231=CURVE_STYLE('',#352,POSITIVE_LENGTH_MEASURE(1.0E-006),#353);
#232=CIRCLE('',#354,22.5658216510294);
#233=CURVE_STYLE('',#355,POSITIVE_LENGTH_MEASURE(1.0E-006),#356);
#234=CIRCLE('',#357,39.0);
#235=SURFACE_STYLE_USAGE(.BOTH.,#358);
#236=FACE_OUTER_BOUND('',#359,.T.);
#237=CYLINDRICAL_SURFACE('',#360,39.0);
#238=SURFACE_STYLE_USAGE(.BOTH.,#361);
#239=FACE_OUTER_BOUND('',#362,.T.);
#240=CONICAL_SURFACE('',#363,22.0,0.785398163397448);
#241=SURFACE_STYLE_USAGE(.BOTH.,#364);
#242=CLOSED_SHELL('',(#81,#125,#127,#103,#87,#145,#75,#77,#79,#107));
#243=POINT_STYLE(' ',#365,POSITIVE_LENGTH_MEASURE(1.0E-006),#366);
#244=CARTESIAN_POINT('',(21.5,1.57273327815341E-014,16.0));
#245=POINT_STYLE(' ',#367,POSITIVE_LENGTH_MEASURE(1.0E-006),#368);
#246=CARTESIAN_POINT('',(-22.5658216510288,5.6174748139447E-015,-3.5527136788005E-014));
#247=POINT_STYLE(' ',#369,POSITIVE_LENGTH_MEASURE(1.0E-006),#370);
#248=CARTESIAN_POINT('',(-39.0,4.24785322710142E-015,10.5));
#249=CURVE_STYLE('',#371,POSITIVE_LENGTH_MEASURE(1.0E-006),#372);
#250=LINE('',#373,#374);
#251=CURVE_STYLE('',#375,POSITIVE_LENGTH_MEASURE(1.0E-006),#376);
#252=CIRCLE('',#377,58.0000000000002);
#253=CURVE_STYLE('',#378,POSITIVE_LENGTH_MEASURE(1.0E-006),#379);
#254=LINE('',#380,#381);
#255=CURVE_STYLE('',#382,POSITIVE_LENGTH_MEASURE(1.0E-006),#383);
#256=CIRCLE('',#384,22.5);
#257=SURFACE_STYLE_USAGE(.BOTH.,#385);
#258=FACE_OUTER_BOUND('',#386,.T.);
#259=CONICAL_SURFACE('',#387,22.0,0.785398163397448);
#260=POINT_STYLE(' ',#388,POSITIVE_LENGTH_MEASURE(1.0E-006),#389);
#261=CARTESIAN_POINT('',(22.5658216510295,1.71792960285156E-014,-1.4210854715202E-014));
#262=POINT_STYLE(' ',#390,POSITIVE_LENGTH_MEASURE(1.0E-006),#391);
#263=CARTESIAN_POINT('',(-21.5,6.72768109359173E-015,16.0));
#264=CURVE_STYLE('',#392,POSITIVE_LENGTH_MEASURE(1.0E-006),#393);
#265=CIRCLE('',#394,21.5);
#266=PRODUCT_CONTEXT('',#53,'mechanical');
#267=PRODUCT_DEFINITION_FORMATION_WITH_SPECIFIED_SOURCE(' ','NONE',#152,.NOT_KNOWN.);
#268=CARTESIAN_POINT('',(0.0,0.0,0.0));
#269=DIRECTION('',(0.0,0.0,1.0));
#270=DIRECTION('',(1.0,0.0,0.0));
#271= (NAMED_UNIT(#160)LENGTH_UNIT()SI_UNIT(.MILLI.,.METRE.));
#272=DRAUGHTING_PRE_DEFINED_CURVE_FONT('continuous');
#273=COLOUR_RGB('',0.509803950786591,0.509803950786591,0.588235318660736);
#274=AXIS2_PLACEMENT_3D('',#396,#397,#398);
#275=PRE_DEFINED_MARKER('');
#276=COLOUR_RGB('',0.509803950786591,0.509803950786591,0.588235318660736);
#277=PRE_DEFINED_MARKER('');
#278=COLOUR_RGB('',0.509803950786591,0.509803950786591,0.588235318660736);
#279=DRAUGHTING_PRE_DEFINED_CURVE_FONT('continuous');
#280=COLOUR_RGB('',0.509803950786591,0.509803950786591,0.588235318660736);
#281=AXIS2_PLACEMENT_3D('',#399,#400,#401);
#282=SURFACE_SIDE_STYLE('',(#402));
#283=EDGE_LOOP('',(#403,#404));
#284=EDGE_LOOP('',(#405,#406));
#285=AXIS2_PLACEMENT_3D('',#407,#408,#409);
#286=SURFACE_SIDE_STYLE('',(#410));
#287=EDGE_LOOP('',(#411,#412,#413,#414));
#288=AXIS2_PLACEMENT_3D('',#415,#416,#417);
#289=SURFACE_SIDE_STYLE('',(#418));
#290=EDGE_LOOP('',(#419,#420));
#291=EDGE_LOOP('',(#421,#422));
#292=AXIS2_PLACEMENT_3D('',#423,#424,#425);
#293=SURFACE_SIDE_STYLE('',(#426));
#294=EDGE_LOOP('',(#427,#428,#429,#430));
#295=AXIS2_PLACEMENT_3D('',#431,#432,#433);
#296=DRAUGHTING_PRE_DEFINED_CURVE_FONT('continuous');
#297=COLOUR_RGB('',0.509803950786591,0.509803950786591,0.588235318660736);
#298=AXIS2_PLACEMENT_3D('',#434,#435,#436);
#299=DRAUGHTING_PRE_DEFINED_CURVE_FONT('continuous');
#300=COLOUR_RGB('',0.509803950786591,0.509803950786591,0.588235318660736);
#301=AXIS2_PLACEMENT_3D('',#437,#438,#439);
#302=SURFACE_SIDE_STYLE('',(#440));
#303=EDGE_LOOP('',(#441,#442,#443,#444));
#304=AXIS2_PLACEMENT_3D('',#445,#446,#447);
#305=DRAUGHTING_PRE_DEFINED_CURVE_FONT('continuous');
#306=COLOUR_RGB('',0.509803950786591,0.509803950786591,0.588235318660736);
#307=CARTESIAN_POINT('',(-22.0,2.96965741573454E-015,16.5));
#308=VECTOR('',#448,1.0);
#309=DRAUGHTING_PRE_DEFINED_CURVE_FONT('continuous');
#310=COLOUR_RGB('',0.509803950786591,0.509803950786591,0.588235318660736);
#311=AXIS2_PLACEMENT_3D('',#449,#450,#451);
#312=PRE_DEFINED_MARKER('');
#313=COLOUR_RGB('',0.509803950786591,0.509803950786591,0.588235318660736);
#314=DRAUGHTING_PRE_DEFINED_CURVE_FONT('continuous');
#315=COLOUR_RGB('',0.509803950786591,0.509803950786591,0.588235318660736);
#316=AXIS2_PLACEMENT_3D('',#452,#453,#454);
#317=DRAUGHTING_PRE_DEFINED_CURVE_FONT('continuous');
#318=COLOUR_RGB('',0.509803950786591,0.509803950786591,0.588235318660736);
#319=CARTESIAN_POINT('',(39.0,2.08597309172005E-014,13.7499999999999));
#320=VECTOR('',#455,1.0);
#321=DRAUGHTING_PRE_DEFINED_CURVE_FONT('continuous');
#322=COLOUR_RGB('',0.509803950786591,0.509803950786591,0.588235318660736);
#323=AXIS2_PLACEMENT_3D('',#456,#457,#458);
#324=DRAUGHTING_PRE_DEFINED_CURVE_FONT('continuous');
#325=COLOUR_RGB('',0.509803950786591,0.509803950786591,0.588235318660736);
#326=CARTESIAN_POINT('',(-21.5,3.11629736246787E-015,7.99999999999999));
#327=VECTOR('',#459,1.0);
#328=SURFACE_SIDE_STYLE('',(#460));
#329=EDGE_LOOP('',(#461,#462,#463,#464));
#330=AXIS2_PLACEMENT_3D('',#465,#466,#467);
#331=DRAUGHTING_PRE_DEFINED_CURVE_FONT('continuous');
#332=COLOUR_RGB('',0.509803950786591,0.509803950786591,0.588235318660736);
#333=CARTESIAN_POINT('',(22.0,1.58739727282674E-014,16.5));
#334=VECTOR('',#468,1.0);
#335=SURFACE_SIDE_STYLE('',(#469));
#336=EDGE_LOOP('',(#470,#471,#472,#473));
#337=AXIS2_PLACEMENT_3D('',#474,#475,#476);
#338=DRAUGHTING_PRE_DEFINED_CURVE_FONT('continuous');
#339=COLOUR_RGB('',0.509803950786591,0.509803950786591,0.588235318660736);
#340=AXIS2_PLACEMENT_3D('',#477,#478,#479);
#341=PRE_DEFINED_MARKER('');
#342=COLOUR_RGB('',0.509803950786591,0.509803950786591,0.588235318660736);
#343=PRE_DEFINED_MARKER('');
#344=COLOUR_RGB('',0.509803950786591,0.509803950786591,0.588235318660736);
#345=PRE_DEFINED_MARKER('');
#346=COLOUR_RGB('',0.509803950786591,0.509803950786591,0.588235318660736);
#347=DRAUGHTING_PRE_DEFINED_CURVE_FONT('continuous');
#348=COLOUR_RGB('',0.509803950786591,0.509803950786591,0.588235318660736);
#349=AXIS2_PLACEMENT_3D('',#480,#481,#482);
#350=PRE_DEFINED_MARKER('');
#351=COLOUR_RGB('',0.509803950786591,0.509803950786591,0.588235318660736);
#352=DRAUGHTING_PRE_DEFINED_CURVE_FONT('continuous');
#353=COLOUR_RGB('',0.509803950786591,0.509803950786591,0.588235318660736);
#354=AXIS2_PLACEMENT_3D('',#483,#484,#485);
#355=DRAUGHTING_PRE_DEFINED_CURVE_FONT('continuous');
#356=COLOUR_RGB('',0.509803950786591,0.509803950786591,0.588235318660736);
#357=AXIS2_PLACEMENT_3D('',#486,#487,#488);
#358=SURFACE_SIDE_STYLE('',(#489));
#359=EDGE_LOOP('',(#490,#491,#492,#493));
#360=AXIS2_PLACEMENT_3D('',#494,#495,#496);
#361=SURFACE_SIDE_STYLE('',(#497));
#362=EDGE_LOOP('',(#498,#499,#500,#501));
#363=AXIS2_PLACEMENT_3D('',#502,#503,#504);
#364=SURFACE_SIDE_STYLE('',(#505));
#365=PRE_DEFINED_MARKER('');
#366=COLOUR_RGB('',0.509803950786591,0.509803950786591,0.588235318660736);
#367=PRE_DEFINED_MARKER('');
#368=COLOUR_RGB('',0.509803950786591,0.509803950786591,0.588235318660736);
#369=PRE_DEFINED_MARKER('');
#370=COLOUR_RGB('',0.509803950786591,0.509803950786591,0.588235318660736);
#371=DRAUGHTING_PRE_DEFINED_CURVE_FONT('continuous');
#372=COLOUR_RGB('',0.509803950786591,0.509803950786591,0.588235318660736);
#373=CARTESIAN_POINT('',(21.5,1.5727332781534E-014,7.99999999999999));
#374=VECTOR('',#506,1.0);
#375=DRAUGHTING_PRE_DEFINED_CURVE_FONT('continuous');
#376=COLOUR_RGB('',0.509803950786591,0.509803950786591,0.588235318660736);
#377=AXIS2_PLACEMENT_3D('',#507,#508,#509);
#378=DRAUGHTING_PRE_DEFINED_CURVE_FONT('continuous');
#379=COLOUR_RGB('',0.509803950786591,0.509803950786591,0.588235318660736);
#380=CARTESIAN_POINT('',(-39.0,-2.01610077319859E-015,13.7499999999999));
#381=VECTOR('',#510,1.0);
#382=DRAUGHTING_PRE_DEFINED_CURVE_FONT('continuous');
#383=COLOUR_RGB('',0.509803950786591,0.509803950786591,0.588235318660736);
#384=AXIS2_PLACEMENT_3D('',#511,#512,#513);
#385=SURFACE_SIDE_STYLE('',(#514));
#386=EDGE_LOOP('',(#515,#516,#517,#518));
#387=AXIS2_PLACEMENT_3D('',#519,#520,#521);
#388=PRE_DEFINED_MARKER('');
#389=COLOUR_RGB('',0.509803950786591,0.509803950786591,0.588235318660736);
#390=PRE_DEFINED_MARKER('');
#391=COLOUR_RGB('',0.509803950786591,0.509803950786591,0.588235318660736);
#392=DRAUGHTING_PRE_DEFINED_CURVE_FONT('continuous');
#393=COLOUR_RGB('',0.509803950786591,0.509803950786591,0.588235318660736);
#394=AXIS2_PLACEMENT_3D('',#522,#523,#524);
#396=CARTESIAN_POINT('',(0.0,9.42181507200096E-015,10.4999999999999));
#397=DIRECTION('',(0.0,0.0,1.0));
#398=DIRECTION('',(-1.0,-1.70819258084417E-016,0.0));
#399=CARTESIAN_POINT('',(0.0,9.42181507200096E-015,17.0));
#400=DIRECTION('',(-0.0,0.0,-1.0));
#401=DIRECTION('',(-1.0,-1.70819258084417E-016,0.0));
#402=SURFACE_STYLE_FILL_AREA(#525);
#403=ORIENTED_EDGE('',*,*,#123,.F.);
#404=ORIENTED_EDGE('',*,*,#73,.F.);
#405=ORIENTED_EDGE('',*,*,#91,.T.);
#406=ORIENTED_EDGE('',*,*,#143,.T.);
#407=CARTESIAN_POINT('',(-30.75,5.65615053399715E-015,17.0));
#408=DIRECTION('',(0.0,0.0,1.0));
#409=DIRECTION('',(-1.0,-1.22460635382238E-016,0.0));
#410=SURFACE_STYLE_FILL_AREA(#526);
#411=ORIENTED_EDGE('',*,*,#141,.T.);
#412=ORIENTED_EDGE('',*,*,#109,.T.);
#413=ORIENTED_EDGE('',*,*,#97,.T.);
#414=ORIENTED_EDGE('',*,*,#73,.T.);
#415=CARTESIAN_POINT('',(0.0,9.42181507200096E-015,8.5));
#416=DIRECTION('',(0.0,-0.0,1.0));
#417=DIRECTION('',(-1.0,-1.70819258084417E-016,0.0));
#418=SURFACE_STYLE_FILL_AREA(#527);
#419=ORIENTED_EDGE('',*,*,#121,.T.);
#420=ORIENTED_EDGE('',*,*,#99,.T.);
#421=ORIENTED_EDGE('',*,*,#151,.F.);
#422=ORIENTED_EDGE('',*,*,#85,.F.);
#423=CARTESIAN_POINT('',(-30.25,4.67646545093925E-015,-1.4210854715202E-014));
#424=DIRECTION('',(0.0,0.0,-1.0));
#425=DIRECTION('',(1.0,1.22460635382238E-016,0.0));
#426=SURFACE_STYLE_FILL_AREA(#528);
#427=ORIENTED_EDGE('',*,*,#101,.F.);
#428=ORIENTED_EDGE('',*,*,#83,.F.);
#429=ORIENTED_EDGE('',*,*,#137,.F.);
#430=ORIENTED_EDGE('',*,*,#85,.T.);
#431=CARTESIAN_POINT('',(0.0,9.42181507200096E-015,7.99999999999999));
#432=DIRECTION('',(0.0,-0.0,1.0));
#433=DIRECTION('',(-1.0,-1.70819258084417E-016,0.0));
#434=CARTESIAN_POINT('',(0.0,9.42181507200096E-015,16.0));
#435=DIRECTION('',(-0.0,0.0,-1.0));
#436=DIRECTION('',(-1.0,-1.70819258084417E-016,0.0));
#437=CARTESIAN_POINT('',(0.0,9.42181507200096E-015,-2.8421709430404E-014));
#438=DIRECTION('',(-0.0,0.0,-1.0));
#439=DIRECTION('',(-1.0,-1.70819258084417E-016,0.0));
#440=SURFACE_STYLE_FILL_AREA(#529);
#441=ORIENTED_EDGE('',*,*,#139,.T.);
#442=ORIENTED_EDGE('',*,*,#109,.F.);
#443=ORIENTED_EDGE('',*,*,#117,.T.);
#444=ORIENTED_EDGE('',*,*,#99,.F.);
#445=CARTESIAN_POINT('',(1.49213974509621E-013,1.1652446313901E-014,53.4301758673314));
#446=DIRECTION('',(0.0,0.0,-1.0));
#447=DIRECTION('',(1.0,1.22460635382238E-016,0.0));
#448=DIRECTION('',(0.707106781186548,2.0738020145594E-016,-0.707106781186547));
#449=CARTESIAN_POINT('',(0.0,9.42181507200096E-015,17.0));
#450=DIRECTION('',(-0.0,0.0,-1.0));
#451=DIRECTION('',(-1.0,-1.70819258084417E-016,0.0));
#452=CARTESIAN_POINT('',(0.0,9.42181507200096E-015,16.0));
#453=DIRECTION('',(-0.0,0.0,-1.0));
#454=DIRECTION('',(-1.0,-1.70819258084417E-016,0.0));
#455=DIRECTION('',(-0.0,-0.0,1.0));
#456=CARTESIAN_POINT('',(1.49213974509621E-013,1.1652446313901E-014,-1.4210854715202E-014));
#457=DIRECTION('',(0.0,0.0,-1.0));
#458=DIRECTION('',(0.0,-1.0,0.0));
#459=DIRECTION('',(0.0,0.0,-1.0));
#460=SURFACE_STYLE_FILL_AREA(#530);
#461=ORIENTED_EDGE('',*,*,#139,.F.);
#462=ORIENTED_EDGE('',*,*,#121,.F.);
#463=ORIENTED_EDGE('',*,*,#117,.F.);
#464=ORIENTED_EDGE('',*,*,#67,.F.);
#465=CARTESIAN_POINT('',(1.49213974509621E-013,1.1652446313901E-014,53.4301758673314));
#466=DIRECTION('',(0.0,0.0,-1.0));
#467=DIRECTION('',(1.0,1.22460635382238E-016,0.0));
#468=DIRECTION('',(0.707106781186548,2.0738020145594E-016,0.707106781186547));
#469=SURFACE_STYLE_FILL_AREA(#531);
#470=ORIENTED_EDGE('',*,*,#101,.T.);
#471=ORIENTED_EDGE('',*,*,#151,.T.);
#472=ORIENTED_EDGE('',*,*,#137,.T.);
#473=ORIENTED_EDGE('',*,*,#95,.F.);
#474=CARTESIAN_POINT('',(0.0,9.42181507200096E-015,7.99999999999999));
#475=DIRECTION('',(0.0,-0.0,1.0));
#476=DIRECTION('',(-1.0,-1.70819258084417E-016,0.0));
#477=CARTESIAN_POINT('',(0.0,9.42181507200096E-015,10.4999999999999));
#478=DIRECTION('',(0.0,0.0,1.0));
#479=DIRECTION('',(-1.0,-1.70819258084417E-016,0.0));
#480=CARTESIAN_POINT('',(1.49213974509621E-013,1.1652446313901E-014,53.4301758673314));
#481=DIRECTION('',(2.44921270764475E-016,-1.0,0.0));
#482=DIRECTION('',(-0.0,0.0,1.0));
#483=CARTESIAN_POINT('',(1.49213974509621E-013,1.1652446313901E-014,-1.4210854715202E-014));
#484=DIRECTION('',(0.0,0.0,-1.0));
#485=DIRECTION('',(0.0,-1.0,0.0));
#486=CARTESIAN_POINT('',(0.0,9.42181507200096E-015,17.0));
#487=DIRECTION('',(-0.0,0.0,-1.0));
#488=DIRECTION('',(-1.0,-1.70819258084417E-016,0.0));
#489=SURFACE_STYLE_FILL_AREA(#532);
#490=ORIENTED_EDGE('',*,*,#141,.F.);
#491=ORIENTED_EDGE('',*,*,#123,.T.);
#492=ORIENTED_EDGE('',*,*,#97,.F.);
#493=ORIENTED_EDGE('',*,*,#67,.T.);
#494=CARTESIAN_POINT('',(0.0,9.42181507200096E-015,8.5));
#495=DIRECTION('',(0.0,-0.0,1.0));
#496=DIRECTION('',(-1.0,-1.70819258084417E-016,0.0));
#497=SURFACE_STYLE_FILL_AREA(#533);
#498=ORIENTED_EDGE('',*,*,#89,.F.);
#499=ORIENTED_EDGE('',*,*,#143,.F.);
#500=ORIENTED_EDGE('',*,*,#105,.F.);
#501=ORIENTED_EDGE('',*,*,#83,.T.);
#502=CARTESIAN_POINT('',(0.0,9.42181507200096E-015,16.5));
#503=DIRECTION('',(0.0,-0.0,1.0));
#504=DIRECTION('',(-1.0,-1.70819258084417E-016,0.0));
#505=SURFACE_STYLE_FILL_AREA(#534);
#506=DIRECTION('',(0.0,0.0,1.0));
#507=CARTESIAN_POINT('',(1.49213974509621E-013,1.1652446313901E-014,53.4301758673314));
#508=DIRECTION('',(2.44921270764475E-016,-1.0,0.0));
#509=DIRECTION('',(-0.0,0.0,1.0));
#510=DIRECTION('',(0.0,0.0,-1.0));
#511=CARTESIAN_POINT('',(0.0,9.42181507200096E-015,17.0));
#512=DIRECTION('',(-0.0,0.0,-1.0));
#513=DIRECTION('',(-1.0,-1.70819258084417E-016,0.0));
#514=SURFACE_STYLE_FILL_AREA(#535);
#515=ORIENTED_EDGE('',*,*,#89,.T.);
#516=ORIENTED_EDGE('',*,*,#95,.T.);
#517=ORIENTED_EDGE('',*,*,#105,.T.);
#518=ORIENTED_EDGE('',*,*,#91,.F.);
#519=CARTESIAN_POINT('',(0.0,9.42181507200096E-015,16.5));
#520=DIRECTION('',(0.0,-0.0,1.0));
#521=DIRECTION('',(-1.0,-1.70819258084417E-016,0.0));
#522=CARTESIAN_POINT('',(0.0,9.42181507200096E-015,-2.8421709430404E-014));
#523=DIRECTION('',(-0.0,0.0,-1.0));
#524=DIRECTION('',(-1.0,-1.70819258084417E-016,0.0));
#525=FILL_AREA_STYLE('',(#536));
#526=FILL_AREA_STYLE('',(#537));
#527=FILL_AREA_STYLE('',(#538));
#528=FILL_AREA_STYLE('',(#539));
#529=FILL_AREA_STYLE('',(#540));
#530=FILL_AREA_STYLE('',(#541));
#531=FILL_AREA_STYLE('',(#542));
#532=FILL_AREA_STYLE('',(#543));
#533=FILL_AREA_STYLE('',(#544));
#534=FILL_AREA_STYLE('',(#545));
#535=FILL_AREA_STYLE('',(#546));
#536=FILL_AREA_STYLE_COLOUR('',#547);
#537=FILL_AREA_STYLE_COLOUR('',#548);
#538=FILL_AREA_STYLE_COLOUR('',#549);
#539=FILL_AREA_STYLE_COLOUR('',#550);
#540=FILL_AREA_STYLE_COLOUR('',#551);
#541=FILL_AREA_STYLE_COLOUR('',#552);
#542=FILL_AREA_STYLE_COLOUR('',#553);
#543=FILL_AREA_STYLE_COLOUR('',#554);
#544=FILL_AREA_STYLE_COLOUR('',#555);
#545=FILL_AREA_STYLE_COLOUR('',#556);
#546=FILL_AREA_STYLE_COLOUR('',#557);
#547=COLOUR_RGB('',0.509803950786591,0.509803950786591,0.588235318660736);
#548=COLOUR_RGB('',0.509803950786591,0.509803950786591,0.588235318660736);
#549=COLOUR_RGB('',0.509803950786591,0.509803950786591,0.588235318660736);
#550=COLOUR_RGB('',0.509803950786591,0.509803950786591,0.588235318660736);
#551=COLOUR_RGB('',0.509803950786591,0.509803950786591,0.588235318660736);
#552=COLOUR_RGB('',0.509803950786591,0.509803950786591,0.588235318660736);
#553=COLOUR_RGB('',0.509803950786591,0.509803950786591,0.588235318660736);
#554=COLOUR_RGB('',0.509803950786591,0.509803950786591,0.588235318660736);
#555=COLOUR_RGB('',0.509803950786591,0.509803950786591,0.588235318660736);
#556=COLOUR_RGB('',0.509803950786591,0.509803950786591,0.588235318660736);
#557=COLOUR_RGB('',0.509803950786591,0.509803950786591,0.588235318660736);
ENDSEC;
END-ISO-10303-21;
