ISO-10303-21;
HEADER;
FILE_DESCRIPTION(('STEP AP214'),'1');
FILE_NAME(' ','  ',('TraceParts'),('TraceParts S.A.'),'XStep 1.0',' ',' ');
FILE_SCHEMA(('automotive_design'));
ENDSEC;
DATA;
#1=MECHANICAL_DESIGN_GEOMETRIC_PRESENTATION_REPRESENTATION(' ',(#10,#11,#12,#13,#14,#15,#16,#17,#18,#19,#20,#21,#22,#23,#24,#25,#26,#27,#28,#29,#30,#31,#32,#33,#34,#35,#36,#37,#38,#39,#40,#41,#42,#43,#44,#45,#46,#47,#48,#49,#50,#51,#52),#6);
#2=PRODUCT_DEFINITION_CONTEXT('',#53,'design');
#3=APPLICATION_PROTOCOL_DEFINITION('INTERNATIONAL STANDARD','automotive_design',1994,#53);
#4=PRODUCT_CATEGORY_RELATIONSHIP('NONE','NONE',#54,#55);
#5=SHAPE_DEFINITION_REPRESENTATION(#56,#57);
#6= (GEOMETRIC_REPRESENTATION_CONTEXT(3)GLOBAL_UNCERTAINTY_ASSIGNED_CONTEXT((#60))GLOBAL_UNIT_ASSIGNED_CONTEXT((#62,#63,#64))REPRESENTATION_CONTEXT('NONE','WORKSPACE'));
#10=STYLED_ITEM('',(#66),#67);
#11=STYLED_ITEM('',(#68),#69);
#12=STYLED_ITEM('',(#70),#71);
#13=STYLED_ITEM('',(#72),#73);
#14=STYLED_ITEM('',(#74),#75);
#15=STYLED_ITEM('',(#76),#77);
#16=STYLED_ITEM('',(#78),#79);
#17=STYLED_ITEM('',(#80),#81);
#18=STYLED_ITEM('',(#82),#83);
#19=STYLED_ITEM('',(#84),#85);
#20=STYLED_ITEM('',(#86),#87);
#21=STYLED_ITEM('',(#88),#89);
#22=STYLED_ITEM('',(#90),#91);
#23=STYLED_ITEM('',(#92),#93);
#24=STYLED_ITEM('',(#94),#95);
#25=STYLED_ITEM('',(#96),#97);
#26=STYLED_ITEM('',(#98),#99);
#27=STYLED_ITEM('',(#100),#101);
#28=STYLED_ITEM('',(#102),#103);
#29=STYLED_ITEM('',(#104),#105);
#30=STYLED_ITEM('',(#106),#107);
#31=STYLED_ITEM('',(#108),#109);
#32=STYLED_ITEM('',(#110),#111);
#33=STYLED_ITEM('',(#112),#113);
#34=STYLED_ITEM('',(#114),#115);
#35=STYLED_ITEM('',(#116),#117);
#36=STYLED_ITEM('',(#118),#119);
#37=STYLED_ITEM('',(#120),#121);
#38=STYLED_ITEM('',(#122),#123);
#39=STYLED_ITEM('',(#124),#125);
#40=STYLED_ITEM('',(#126),#127);
#41=STYLED_ITEM('',(#128),#129);
#42=STYLED_ITEM('',(#130),#131);
#43=STYLED_ITEM('',(#132),#133);
#44=STYLED_ITEM('',(#134),#135);
#45=STYLED_ITEM('',(#136),#137);
#46=STYLED_ITEM('',(#138),#139);
#47=STYLED_ITEM('',(#140),#141);
#48=STYLED_ITEM('',(#142),#143);
#49=STYLED_ITEM('',(#144),#145);
#50=STYLED_ITEM('',(#146),#147);
#51=STYLED_ITEM('',(#148),#149);
#52=STYLED_ITEM('',(#150),#151);
#53=APPLICATION_CONTEXT(' ');
#54=PRODUCT_CATEGORY('part','NONE');
#55=PRODUCT_RELATED_PRODUCT_CATEGORY('detail',' ',(#152));
#56=PRODUCT_DEFINITION_SHAPE('NONE','NONE',#153);
#57=ADVANCED_BREP_SHAPE_REPRESENTATION('1',(#101,#154),#6);
#60=UNCERTAINTY_MEASURE_WITH_UNIT(LENGTH_MEASURE(1.0E-006),#62,'','');
#62= (CONVERSION_BASED_UNIT('MILLIMETRE',#157)LENGTH_UNIT()NAMED_UNIT(#160));
#63= (NAMED_UNIT(#162)PLANE_ANGLE_UNIT()SI_UNIT($,.RADIAN.));
#64= (NAMED_UNIT(#162)SOLID_ANGLE_UNIT()SI_UNIT($,.STERADIAN.));
#66=PRESENTATION_STYLE_ASSIGNMENT((#168));
#67=EDGE_CURVE('',#137,#81,#169,.T.);
#68=PRESENTATION_STYLE_ASSIGNMENT((#170));
#69=ADVANCED_FACE('',(#171),#172,.F.);
#70=PRESENTATION_STYLE_ASSIGNMENT((#173));
#71=ADVANCED_FACE('',(#174),#175,.T.);
#72=PRESENTATION_STYLE_ASSIGNMENT((#176));
#73=VERTEX_POINT('',#177);
#74=PRESENTATION_STYLE_ASSIGNMENT((#178));
#75=EDGE_CURVE('',#149,#73,#179,.T.);
#76=PRESENTATION_STYLE_ASSIGNMENT((#180));
#77=VERTEX_POINT('',#181);
#78=PRESENTATION_STYLE_ASSIGNMENT((#182));
#79=VERTEX_POINT('',#183);
#80=PRESENTATION_STYLE_ASSIGNMENT((#184));
#81=VERTEX_POINT('',#185);
#82=PRESENTATION_STYLE_ASSIGNMENT((#186));
#83=ADVANCED_FACE('',(#187,#188),#189,.T.);
#84=PRESENTATION_STYLE_ASSIGNMENT((#190));
#85=ADVANCED_FACE('',(#191),#192,.F.);
#86=PRESENTATION_STYLE_ASSIGNMENT((#193));
#87=EDGE_CURVE('',#115,#89,#194,.T.);
#88=PRESENTATION_STYLE_ASSIGNMENT((#195));
#89=VERTEX_POINT('',#196);
#90=PRESENTATION_STYLE_ASSIGNMENT((#197));
#91=EDGE_CURVE('',#79,#151,#198,.T.);
#92=PRESENTATION_STYLE_ASSIGNMENT((#199));
#93=ADVANCED_FACE('',(#200),#201,.F.);
#94=PRESENTATION_STYLE_ASSIGNMENT((#202));
#95=EDGE_CURVE('',#151,#77,#203,.T.);
#96=PRESENTATION_STYLE_ASSIGNMENT((#204));
#97=EDGE_CURVE('',#141,#79,#205,.T.);
#98=PRESENTATION_STYLE_ASSIGNMENT((#206));
#99=EDGE_CURVE('',#77,#151,#207,.T.);
#100=PRESENTATION_STYLE_ASSIGNMENT((#208));
#101=MANIFOLD_SOLID_BREP('1',#209);
#102=PRESENTATION_STYLE_ASSIGNMENT((#210));
#103=EDGE_CURVE('',#77,#141,#211,.T.);
#104=PRESENTATION_STYLE_ASSIGNMENT((#212));
#105=ADVANCED_FACE('',(#213),#214,.T.);
#106=PRESENTATION_STYLE_ASSIGNMENT((#215));
#107=ADVANCED_FACE('',(#216,#217),#218,.T.);
#108=PRESENTATION_STYLE_ASSIGNMENT((#219));
#109=EDGE_CURVE('',#147,#127,#220,.T.);
#110=PRESENTATION_STYLE_ASSIGNMENT((#221));
#111=EDGE_CURVE('',#89,#115,#222,.T.);
#112=PRESENTATION_STYLE_ASSIGNMENT((#223));
#113=EDGE_CURVE('',#115,#149,#224,.T.);
#114=PRESENTATION_STYLE_ASSIGNMENT((#225));
#115=VERTEX_POINT('',#226);
#116=PRESENTATION_STYLE_ASSIGNMENT((#227));
#117=EDGE_CURVE('',#81,#137,#228,.T.);
#118=PRESENTATION_STYLE_ASSIGNMENT((#229));
#119=EDGE_CURVE('',#141,#137,#230,.T.);
#120=PRESENTATION_STYLE_ASSIGNMENT((#231));
#121=EDGE_CURVE('',#89,#127,#232,.T.);
#122=PRESENTATION_STYLE_ASSIGNMENT((#233));
#123=EDGE_CURVE('',#127,#147,#234,.T.);
#124=PRESENTATION_STYLE_ASSIGNMENT((#235));
#125=ADVANCED_FACE('',(#236),#237,.T.);
#126=PRESENTATION_STYLE_ASSIGNMENT((#238));
#127=VERTEX_POINT('',#239);
#128=PRESENTATION_STYLE_ASSIGNMENT((#240));
#129=EDGE_CURVE('',#73,#89,#241,.T.);
#130=PRESENTATION_STYLE_ASSIGNMENT((#242));
#131=ADVANCED_FACE('',(#243),#244,.T.);
#132=PRESENTATION_STYLE_ASSIGNMENT((#245));
#133=EDGE_CURVE('',#147,#115,#246,.T.);
#134=PRESENTATION_STYLE_ASSIGNMENT((#247));
#135=EDGE_CURVE('',#73,#149,#248,.T.);
#136=PRESENTATION_STYLE_ASSIGNMENT((#249));
#137=VERTEX_POINT('',#250);
#138=PRESENTATION_STYLE_ASSIGNMENT((#251));
#139=ADVANCED_FACE('',(#252),#253,.F.);
#140=PRESENTATION_STYLE_ASSIGNMENT((#254));
#141=VERTEX_POINT('',#255);
#142=PRESENTATION_STYLE_ASSIGNMENT((#256));
#143=EDGE_CURVE('',#79,#141,#257,.T.);
#144=PRESENTATION_STYLE_ASSIGNMENT((#258));
#145=EDGE_CURVE('',#81,#79,#259,.T.);
#146=PRESENTATION_STYLE_ASSIGNMENT((#260));
#147=VERTEX_POINT('',#261);
#148=PRESENTATION_STYLE_ASSIGNMENT((#262));
#149=VERTEX_POINT('',#263);
#150=PRESENTATION_STYLE_ASSIGNMENT((#264));
#151=VERTEX_POINT('',#265);
#152=PRODUCT('1','1','PART-1-DESC',(#266));
#153=PRODUCT_DEFINITION('NONE','NONE',#267,#2);
#154=AXIS2_PLACEMENT_3D('',#268,#269,#270);
#157=LENGTH_MEASURE_WITH_UNIT(LENGTH_MEASURE(1.0),#271);
#160=DIMENSIONAL_EXPONENTS(1.0,0.0,0.0,0.0,0.0,0.0,0.0);
#162=DIMENSIONAL_EXPONENTS(0.0,0.0,0.0,0.0,0.0,0.0,0.0);
#168=CURVE_STYLE('',#272,POSITIVE_LENGTH_MEASURE(1.0E-006),#273);
#169=CIRCLE('',#274,6.50000000000003);
#170=SURFACE_STYLE_USAGE(.BOTH.,#275);
#171=FACE_OUTER_BOUND('',#276,.T.);
#172=CONICAL_SURFACE('',#277,6.75000000000003,0.785398163397448);
#173=SURFACE_STYLE_USAGE(.BOTH.,#278);
#174=FACE_OUTER_BOUND('',#279,.T.);
#175=CYLINDRICAL_SURFACE('',#280,12.0);
#176=POINT_STYLE(' ',#281,POSITIVE_LENGTH_MEASURE(1.0E-006),#282);
#177=CARTESIAN_POINT('',(-12.0,4.64585029209369E-015,4.59999999999999));
#178=CURVE_STYLE('',#283,POSITIVE_LENGTH_MEASURE(1.0E-006),#284);
#179=CIRCLE('',#285,12.0);
#180=POINT_STYLE(' ',#286,POSITIVE_LENGTH_MEASURE(1.0E-006),#287);
#181=CARTESIAN_POINT('',(-7.0,5.25815346900488E-015,4.59999999999999));
#182=POINT_STYLE(' ',#288,POSITIVE_LENGTH_MEASURE(1.0E-006),#289);
#183=CARTESIAN_POINT('',(6.50000000000006,7.98871685353667E-015,4.09999999999999));
#184=POINT_STYLE(' ',#290,POSITIVE_LENGTH_MEASURE(1.0E-006),#291);
#185=CARTESIAN_POINT('',(6.50000000000006,7.98871685353667E-015,-2.8421709430404E-014));
#186=SURFACE_STYLE_USAGE(.BOTH.,#292);
#187=FACE_OUTER_BOUND('',#293,.T.);
#188=FACE_BOUND('',#294,.T.);
#189=PLANE('',#295);
#190=SURFACE_STYLE_USAGE(.BOTH.,#296);
#191=FACE_OUTER_BOUND('',#297,.T.);
#192=CYLINDRICAL_SURFACE('',#298,6.50000000000003);
#193=CURVE_STYLE('',#299,POSITIVE_LENGTH_MEASURE(1.0E-006),#300);
#194=CIRCLE('',#301,12.0);
#195=POINT_STYLE(' ',#302,POSITIVE_LENGTH_MEASURE(1.0E-006),#303);
#196=CARTESIAN_POINT('',(-12.0,4.57849694263346E-015,3.49999999999996));
#197=CURVE_STYLE('',#304,POSITIVE_LENGTH_MEASURE(1.0E-006),#305);
#198=LINE('',#306,#307);
#199=SURFACE_STYLE_USAGE(.BOTH.,#308);
#200=FACE_OUTER_BOUND('',#309,.T.);
#201=CONICAL_SURFACE('',#310,6.75000000000003,0.785398163397448);
#202=CURVE_STYLE('',#311,POSITIVE_LENGTH_MEASURE(1.0E-006),#312);
#203=CIRCLE('',#313,7.00000000000003);
#204=CURVE_STYLE('',#314,POSITIVE_LENGTH_MEASURE(1.0E-006),#315);
#205=CIRCLE('',#316,6.50000000000003);
#206=CURVE_STYLE('',#317,POSITIVE_LENGTH_MEASURE(1.0E-006),#318);
#207=CIRCLE('',#319,7.00000000000003);
#208=SURFACE_STYLE_USAGE(.BOTH.,#320);
#209=CLOSED_SHELL('',(#139,#125,#69,#131,#105,#93,#83,#71,#107,#85));
#210=CURVE_STYLE('',#321,POSITIVE_LENGTH_MEASURE(1.0E-006),#322);
#211=LINE('',#323,#324);
#212=SURFACE_STYLE_USAGE(.BOTH.,#325);
#213=FACE_OUTER_BOUND('',#326,.T.);
#214=SPHERICAL_SURFACE('',#327,17.0);
#215=SURFACE_STYLE_USAGE(.BOTH.,#328);
#216=FACE_OUTER_BOUND('',#329,.T.);
#217=FACE_BOUND('',#330,.T.);
#218=PLANE('',#331);
#219=CURVE_STYLE('',#332,POSITIVE_LENGTH_MEASURE(1.0E-006),#333);
#220=CIRCLE('',#334,6.88903751974513);
#221=CURVE_STYLE('',#335,POSITIVE_LENGTH_MEASURE(1.0E-006),#336);
#222=CIRCLE('',#337,12.0);
#223=CURVE_STYLE('',#338,POSITIVE_LENGTH_MEASURE(1.0E-006),#339);
#224=LINE('',#340,#341);
#225=POINT_STYLE(' ',#342,POSITIVE_LENGTH_MEASURE(1.0E-006),#343);
#226=CARTESIAN_POINT('',(12.0000000000001,9.72439047796114E-015,3.49999999999987));
#227=CURVE_STYLE('',#344,POSITIVE_LENGTH_MEASURE(1.0E-006),#345);
#228=CIRCLE('',#346,6.50000000000003);
#229=CURVE_STYLE('',#347,POSITIVE_LENGTH_MEASURE(1.0E-006),#348);
#230=LINE('',#349,#350);
#231=CURVE_STYLE('',#351,POSITIVE_LENGTH_MEASURE(1.0E-006),#352);
#232=CIRCLE('',#353,17.0);
#233=CURVE_STYLE('',#354,POSITIVE_LENGTH_MEASURE(1.0E-006),#355);
#234=CIRCLE('',#356,6.88903751974513);
#235=SURFACE_STYLE_USAGE(.BOTH.,#357);
#236=FACE_OUTER_BOUND('',#358,.T.);
#237=CYLINDRICAL_SURFACE('',#359,12.0);
#238=POINT_STYLE(' ',#360,POSITIVE_LENGTH_MEASURE(1.0E-006),#361);
#239=CARTESIAN_POINT('',(-6.88903751974492,4.99008254346135E-015,-3.5527136788005E-014));
#240=CURVE_STYLE('',#362,POSITIVE_LENGTH_MEASURE(1.0E-006),#363);
#241=LINE('',#364,#365);
#242=SURFACE_STYLE_USAGE(.BOTH.,#366);
#243=FACE_OUTER_BOUND('',#367,.T.);
#244=SPHERICAL_SURFACE('',#368,17.0);
#245=CURVE_STYLE('',#369,POSITIVE_LENGTH_MEASURE(1.0E-006),#370);
#246=CIRCLE('',#371,17.0);
#247=CURVE_STYLE('',#372,POSITIVE_LENGTH_MEASURE(1.0E-006),#373);
#248=CIRCLE('',#374,12.0);
#249=POINT_STYLE(' ',#375,POSITIVE_LENGTH_MEASURE(1.0E-006),#376);
#250=CARTESIAN_POINT('',(-6.5,5.03772432531685E-015,-2.8421709430404E-014));
#251=SURFACE_STYLE_USAGE(.BOTH.,#377);
#252=FACE_OUTER_BOUND('',#378,.T.);
#253=CYLINDRICAL_SURFACE('',#379,6.50000000000003);
#254=POINT_STYLE(' ',#380,POSITIVE_LENGTH_MEASURE(1.0E-006),#381);
#255=CARTESIAN_POINT('',(-6.5,5.28876862785044E-015,4.09999999999999));
#256=CURVE_STYLE('',#382,POSITIVE_LENGTH_MEASURE(1.0E-006),#383);
#257=CIRCLE('',#384,6.50000000000003);
#258=CURVE_STYLE('',#385,POSITIVE_LENGTH_MEASURE(1.0E-006),#386);
#259=LINE('',#387,#388);
#260=POINT_STYLE(' ',#389,POSITIVE_LENGTH_MEASURE(1.0E-006),#390);
#261=CARTESIAN_POINT('',(6.88903751974507,8.47260705246753E-015,-1.4210854715202E-014));
#262=POINT_STYLE(' ',#391,POSITIVE_LENGTH_MEASURE(1.0E-006),#392);
#263=CARTESIAN_POINT('',(12.0000000000001,9.57384980010723E-015,4.59999999999999));
#264=POINT_STYLE(' ',#393,POSITIVE_LENGTH_MEASURE(1.0E-006),#394);
#265=CARTESIAN_POINT('',(7.00000000000006,8.13281984867945E-015,4.59999999999999));
#266=PRODUCT_CONTEXT('',#53,'mechanical');
#267=PRODUCT_DEFINITION_FORMATION_WITH_SPECIFIED_SOURCE(' ','NONE',#152,.NOT_KNOWN.);
#268=CARTESIAN_POINT('',(0.0,0.0,0.0));
#269=DIRECTION('',(0.0,0.0,1.0));
#270=DIRECTION('',(1.0,0.0,0.0));
#271= (NAMED_UNIT(#160)LENGTH_UNIT()SI_UNIT(.MILLI.,.METRE.));
#272=DRAUGHTING_PRE_DEFINED_CURVE_FONT('continuous');
#273=COLOUR_RGB('',0.509803950786591,0.509803950786591,0.588235318660736);
#274=AXIS2_PLACEMENT_3D('',#396,#397,#398);
#275=SURFACE_SIDE_STYLE('',(#399));
#276=EDGE_LOOP('',(#400,#401,#402,#403));
#277=AXIS2_PLACEMENT_3D('',#404,#405,#406);
#278=SURFACE_SIDE_STYLE('',(#407));
#279=EDGE_LOOP('',(#408,#409,#410,#411));
#280=AXIS2_PLACEMENT_3D('',#412,#413,#414);
#281=PRE_DEFINED_MARKER('');
#282=COLOUR_RGB('',0.509803950786591,0.509803950786591,0.588235318660736);
#283=DRAUGHTING_PRE_DEFINED_CURVE_FONT('continuous');
#284=COLOUR_RGB('',0.509803950786591,0.509803950786591,0.588235318660736);
#285=AXIS2_PLACEMENT_3D('',#415,#416,#417);
#286=PRE_DEFINED_MARKER('');
#287=COLOUR_RGB('',0.509803950786591,0.509803950786591,0.588235318660736);
#288=PRE_DEFINED_MARKER('');
#289=COLOUR_RGB('',0.509803950786591,0.509803950786591,0.588235318660736);
#290=PRE_DEFINED_MARKER('');
#291=COLOUR_RGB('',0.509803950786591,0.509803950786591,0.588235318660736);
#292=SURFACE_SIDE_STYLE('',(#418));
#293=EDGE_LOOP('',(#419,#420));
#294=EDGE_LOOP('',(#421,#422));
#295=AXIS2_PLACEMENT_3D('',#423,#424,#425);
#296=SURFACE_SIDE_STYLE('',(#426));
#297=EDGE_LOOP('',(#427,#428,#429,#430));
#298=AXIS2_PLACEMENT_3D('',#431,#432,#433);
#299=DRAUGHTING_PRE_DEFINED_CURVE_FONT('continuous');
#300=COLOUR_RGB('',0.509803950786591,0.509803950786591,0.588235318660736);
#301=AXIS2_PLACEMENT_3D('',#434,#435,#436);
#302=PRE_DEFINED_MARKER('');
#303=COLOUR_RGB('',0.509803950786591,0.509803950786591,0.588235318660736);
#304=DRAUGHTING_PRE_DEFINED_CURVE_FONT('continuous');
#305=COLOUR_RGB('',0.509803950786591,0.509803950786591,0.588235318660736);
#306=CARTESIAN_POINT('',(6.75000000000006,8.06076835110806E-015,4.34999999999999));
#307=VECTOR('',#437,1.0);
#308=SURFACE_SIDE_STYLE('',(#438));
#309=EDGE_LOOP('',(#439,#440,#441,#442));
#310=AXIS2_PLACEMENT_3D('',#443,#444,#445);
#311=DRAUGHTING_PRE_DEFINED_CURVE_FONT('continuous');
#312=COLOUR_RGB('',0.509803950786591,0.509803950786591,0.588235318660736);
#313=AXIS2_PLACEMENT_3D('',#446,#447,#448);
#314=DRAUGHTING_PRE_DEFINED_CURVE_FONT('continuous');
#315=COLOUR_RGB('',0.509803950786591,0.509803950786591,0.588235318660736);
#316=AXIS2_PLACEMENT_3D('',#449,#450,#451);
#317=DRAUGHTING_PRE_DEFINED_CURVE_FONT('continuous');
#318=COLOUR_RGB('',0.509803950786591,0.509803950786591,0.588235318660736);
#319=AXIS2_PLACEMENT_3D('',#452,#453,#454);
#320=SURFACE_SIDE_STYLE('',(#455));
#321=DRAUGHTING_PRE_DEFINED_CURVE_FONT('continuous');
#322=COLOUR_RGB('',0.509803950786591,0.509803950786591,0.588235318660736);
#323=CARTESIAN_POINT('',(-6.75,4.16998748225302E-015,4.34999999999999));
#324=VECTOR('',#456,1.0);
#325=SURFACE_SIDE_STYLE('',(#457));
#326=EDGE_LOOP('',(#458,#459,#460,#461));
#327=AXIS2_PLACEMENT_3D('',#462,#463,#464);
#328=SURFACE_SIDE_STYLE('',(#465));
#329=EDGE_LOOP('',(#466,#467));
#330=EDGE_LOOP('',(#468,#469));
#331=AXIS2_PLACEMENT_3D('',#470,#471,#472);
#332=DRAUGHTING_PRE_DEFINED_CURVE_FONT('continuous');
#333=COLOUR_RGB('',0.509803950786591,0.509803950786591,0.588235318660736);
#334=AXIS2_PLACEMENT_3D('',#473,#474,#475);
#335=DRAUGHTING_PRE_DEFINED_CURVE_FONT('continuous');
#336=COLOUR_RGB('',0.509803950786591,0.509803950786591,0.588235318660736);
#337=AXIS2_PLACEMENT_3D('',#476,#477,#478);
#338=DRAUGHTING_PRE_DEFINED_CURVE_FONT('continuous');
#339=COLOUR_RGB('',0.509803950786591,0.509803950786591,0.588235318660736);
#340=CARTESIAN_POINT('',(12.0000000000001,9.57384980010723E-015,4.04999999999993));
#341=VECTOR('',#479,1.0);
#342=PRE_DEFINED_MARKER('');
#343=COLOUR_RGB('',0.509803950786591,0.509803950786591,0.588235318660736);
#344=DRAUGHTING_PRE_DEFINED_CURVE_FONT('continuous');
#345=COLOUR_RGB('',0.509803950786591,0.509803950786591,0.588235318660736);
#346=AXIS2_PLACEMENT_3D('',#480,#481,#482);
#347=DRAUGHTING_PRE_DEFINED_CURVE_FONT('continuous');
#348=COLOUR_RGB('',0.509803950786591,0.509803950786591,0.588235318660736);
#349=CARTESIAN_POINT('',(-6.5,4.24203897982441E-015,2.04999999999998));
#350=VECTOR('',#483,1.0);
#351=DRAUGHTING_PRE_DEFINED_CURVE_FONT('continuous');
#352=COLOUR_RGB('',0.509803950786591,0.509803950786591,0.588235318660736);
#353=AXIS2_PLACEMENT_3D('',#484,#485,#486);
#354=DRAUGHTING_PRE_DEFINED_CURVE_FONT('continuous');
#355=COLOUR_RGB('',0.509803950786591,0.509803950786591,0.588235318660736);
#356=AXIS2_PLACEMENT_3D('',#487,#488,#489);
#357=SURFACE_SIDE_STYLE('',(#490));
#358=EDGE_LOOP('',(#491,#492,#493,#494));
#359=AXIS2_PLACEMENT_3D('',#495,#496,#497);
#360=PRE_DEFINED_MARKER('');
#361=COLOUR_RGB('',0.509803950786591,0.509803950786591,0.588235318660736);
#362=DRAUGHTING_PRE_DEFINED_CURVE_FONT('continuous');
#363=COLOUR_RGB('',0.509803950786591,0.509803950786591,0.588235318660736);
#364=CARTESIAN_POINT('',(-12.0,2.65690603325385E-015,4.04999999999993));
#365=VECTOR('',#498,1.0);
#366=SURFACE_SIDE_STYLE('',(#499));
#367=EDGE_LOOP('',(#500,#501,#502,#503));
#368=AXIS2_PLACEMENT_3D('',#504,#505,#506);
#369=DRAUGHTING_PRE_DEFINED_CURVE_FONT('continuous');
#370=COLOUR_RGB('',0.509803950786591,0.509803950786591,0.588235318660736);
#371=AXIS2_PLACEMENT_3D('',#507,#508,#509);
#372=DRAUGHTING_PRE_DEFINED_CURVE_FONT('continuous');
#373=COLOUR_RGB('',0.509803950786591,0.509803950786591,0.588235318660736);
#374=AXIS2_PLACEMENT_3D('',#510,#511,#512);
#375=PRE_DEFINED_MARKER('');
#376=COLOUR_RGB('',0.509803950786591,0.509803950786591,0.588235318660736);
#377=SURFACE_SIDE_STYLE('',(#513));
#378=EDGE_LOOP('',(#514,#515,#516,#517));
#379=AXIS2_PLACEMENT_3D('',#518,#519,#520);
#380=PRE_DEFINED_MARKER('');
#381=COLOUR_RGB('',0.509803950786591,0.509803950786591,0.588235318660736);
#382=DRAUGHTING_PRE_DEFINED_CURVE_FONT('continuous');
#383=COLOUR_RGB('',0.509803950786591,0.509803950786591,0.588235318660736);
#384=AXIS2_PLACEMENT_3D('',#521,#522,#523);
#385=DRAUGHTING_PRE_DEFINED_CURVE_FONT('continuous');
#386=COLOUR_RGB('',0.509803950786591,0.509803950786591,0.588235318660736);
#387=CARTESIAN_POINT('',(6.50000000000006,7.98871685353667E-015,2.04999999999998));
#388=VECTOR('',#524,1.0);
#389=PRE_DEFINED_MARKER('');
#390=COLOUR_RGB('',0.509803950786591,0.509803950786591,0.588235318660736);
#391=PRE_DEFINED_MARKER('');
#392=COLOUR_RGB('',0.509803950786591,0.509803950786591,0.588235318660736);
#393=PRE_DEFINED_MARKER('');
#394=COLOUR_RGB('',0.509803950786591,0.509803950786591,0.588235318660736);
#396=CARTESIAN_POINT('',(2.8421709430404E-014,6.11537791668054E-015,-2.8421709430404E-014));
#397=DIRECTION('',(-0.0,0.0,-1.0));
#398=DIRECTION('',(-1.0,-1.65745354903319E-016,0.0));
#399=SURFACE_STYLE_FILL_AREA(#525);
#400=ORIENTED_EDGE('',*,*,#103,.F.);
#401=ORIENTED_EDGE('',*,*,#95,.F.);
#402=ORIENTED_EDGE('',*,*,#91,.F.);
#403=ORIENTED_EDGE('',*,*,#143,.T.);
#404=CARTESIAN_POINT('',(2.8421709430404E-014,6.11537791668054E-015,4.34999999999999));
#405=DIRECTION('',(0.0,-0.0,1.0));
#406=DIRECTION('',(-1.0,-1.65745354903319E-016,0.0));
#407=SURFACE_STYLE_FILL_AREA(#526);
#408=ORIENTED_EDGE('',*,*,#129,.T.);
#409=ORIENTED_EDGE('',*,*,#111,.T.);
#410=ORIENTED_EDGE('',*,*,#113,.T.);
#411=ORIENTED_EDGE('',*,*,#75,.T.);
#412=CARTESIAN_POINT('',(2.8421709430404E-014,6.11537791668054E-015,2.3));
#413=DIRECTION('',(0.0,-0.0,1.0));
#414=DIRECTION('',(-1.0,-1.65745354903319E-016,0.0));
#415=CARTESIAN_POINT('',(2.8421709430404E-014,6.11537791668054E-015,4.59999999999999));
#416=DIRECTION('',(-0.0,0.0,-1.0));
#417=DIRECTION('',(-1.0,-1.65745354903319E-016,0.0));
#418=SURFACE_STYLE_FILL_AREA(#527);
#419=ORIENTED_EDGE('',*,*,#135,.F.);
#420=ORIENTED_EDGE('',*,*,#75,.F.);
#421=ORIENTED_EDGE('',*,*,#99,.T.);
#422=ORIENTED_EDGE('',*,*,#95,.T.);
#423=CARTESIAN_POINT('',(-9.5,4.95200188054928E-015,4.59999999999999));
#424=DIRECTION('',(0.0,0.0,1.0));
#425=DIRECTION('',(-1.0,-1.22460635382238E-016,0.0));
#426=SURFACE_STYLE_FILL_AREA(#528);
#427=ORIENTED_EDGE('',*,*,#119,.T.);
#428=ORIENTED_EDGE('',*,*,#67,.T.);
#429=ORIENTED_EDGE('',*,*,#145,.T.);
#430=ORIENTED_EDGE('',*,*,#97,.F.);
#431=CARTESIAN_POINT('',(2.8421709430404E-014,6.11537791668054E-015,2.04999999999998));
#432=DIRECTION('',(0.0,-0.0,1.0));
#433=DIRECTION('',(-1.0,-1.65745354903319E-016,0.0));
#434=CARTESIAN_POINT('',(2.8421709430404E-014,6.11537791668054E-015,3.49999999999987));
#435=DIRECTION('',(0.0,0.0,1.0));
#436=DIRECTION('',(-1.0,-1.65745354903319E-016,0.0));
#437=DIRECTION('',(0.707106781186548,2.03792410109501E-016,0.707106781186547));
#438=SURFACE_STYLE_FILL_AREA(#529);
#439=ORIENTED_EDGE('',*,*,#103,.T.);
#440=ORIENTED_EDGE('',*,*,#97,.T.);
#441=ORIENTED_EDGE('',*,*,#91,.T.);
#442=ORIENTED_EDGE('',*,*,#99,.F.);
#443=CARTESIAN_POINT('',(2.8421709430404E-014,6.11537791668054E-015,4.34999999999999));
#444=DIRECTION('',(0.0,-0.0,1.0));
#445=DIRECTION('',(-1.0,-1.65745354903319E-016,0.0));
#446=CARTESIAN_POINT('',(2.8421709430404E-014,6.11537791668054E-015,4.59999999999999));
#447=DIRECTION('',(-0.0,0.0,-1.0));
#448=DIRECTION('',(-1.0,-1.65745354903319E-016,0.0));
#449=CARTESIAN_POINT('',(2.8421709430404E-014,6.11537791668054E-015,4.09999999999999));
#450=DIRECTION('',(-0.0,0.0,-1.0));
#451=DIRECTION('',(-1.0,-1.65745354903319E-016,0.0));
#452=CARTESIAN_POINT('',(2.8421709430404E-014,6.11537791668054E-015,4.59999999999999));
#453=DIRECTION('',(-0.0,0.0,-1.0));
#454=DIRECTION('',(-1.0,-1.65745354903319E-016,0.0));
#455=SURFACE_STYLE_FILL_AREA(#530);
#456=DIRECTION('',(0.707106781186548,2.03792410109501E-016,-0.707106781186547));
#457=SURFACE_STYLE_FILL_AREA(#531);
#458=ORIENTED_EDGE('',*,*,#133,.T.);
#459=ORIENTED_EDGE('',*,*,#111,.F.);
#460=ORIENTED_EDGE('',*,*,#121,.T.);
#461=ORIENTED_EDGE('',*,*,#109,.F.);
#462=CARTESIAN_POINT('',(-5.15143483426073E-014,6.7853352287874E-015,15.5415945787922));
#463=DIRECTION('',(0.0,0.0,-1.0));
#464=DIRECTION('',(1.0,1.22460635382238E-016,0.0));
#465=SURFACE_STYLE_FILL_AREA(#532);
#466=ORIENTED_EDGE('',*,*,#123,.T.);
#467=ORIENTED_EDGE('',*,*,#109,.T.);
#468=ORIENTED_EDGE('',*,*,#67,.F.);
#469=ORIENTED_EDGE('',*,*,#117,.F.);
#470=CARTESIAN_POINT('',(-9.25,4.70095757801569E-015,-1.4210854715202E-014));
#471=DIRECTION('',(0.0,0.0,-1.0));
#472=DIRECTION('',(1.0,1.22460635382238E-016,0.0));
#473=CARTESIAN_POINT('',(-5.15143483426073E-014,6.7853352287874E-015,-1.4210854715202E-014));
#474=DIRECTION('',(0.0,0.0,-1.0));
#475=DIRECTION('',(0.0,-1.0,0.0));
#476=CARTESIAN_POINT('',(2.8421709430404E-014,6.11537791668054E-015,3.49999999999987));
#477=DIRECTION('',(0.0,0.0,1.0));
#478=DIRECTION('',(-1.0,-1.65745354903319E-016,0.0));
#479=DIRECTION('',(-0.0,-0.0,1.0));
#480=CARTESIAN_POINT('',(2.8421709430404E-014,6.11537791668054E-015,-2.8421709430404E-014));
#481=DIRECTION('',(-0.0,0.0,-1.0));
#482=DIRECTION('',(-1.0,-1.65745354903319E-016,0.0));
#483=DIRECTION('',(0.0,0.0,-1.0));
#484=CARTESIAN_POINT('',(-5.15143483426073E-014,6.7853352287874E-015,15.5415945787922));
#485=DIRECTION('',(2.44921270764475E-016,-1.0,0.0));
#486=DIRECTION('',(-0.0,0.0,1.0));
#487=CARTESIAN_POINT('',(-5.15143483426073E-014,6.7853352287874E-015,-1.4210854715202E-014));
#488=DIRECTION('',(0.0,0.0,-1.0));
#489=DIRECTION('',(0.0,-1.0,0.0));
#490=SURFACE_STYLE_FILL_AREA(#533);
#491=ORIENTED_EDGE('',*,*,#129,.F.);
#492=ORIENTED_EDGE('',*,*,#135,.T.);
#493=ORIENTED_EDGE('',*,*,#113,.F.);
#494=ORIENTED_EDGE('',*,*,#87,.T.);
#495=CARTESIAN_POINT('',(2.8421709430404E-014,6.11537791668054E-015,2.3));
#496=DIRECTION('',(0.0,-0.0,1.0));
#497=DIRECTION('',(-1.0,-1.65745354903319E-016,0.0));
#498=DIRECTION('',(0.0,0.0,-1.0));
#499=SURFACE_STYLE_FILL_AREA(#534);
#500=ORIENTED_EDGE('',*,*,#133,.F.);
#501=ORIENTED_EDGE('',*,*,#123,.F.);
#502=ORIENTED_EDGE('',*,*,#121,.F.);
#503=ORIENTED_EDGE('',*,*,#87,.F.);
#504=CARTESIAN_POINT('',(-5.15143483426073E-014,6.7853352287874E-015,15.5415945787922));
#505=DIRECTION('',(0.0,0.0,-1.0));
#506=DIRECTION('',(1.0,1.22460635382238E-016,0.0));
#507=CARTESIAN_POINT('',(-5.15143483426073E-014,6.7853352287874E-015,15.5415945787922));
#508=DIRECTION('',(2.44921270764475E-016,-1.0,0.0));
#509=DIRECTION('',(-0.0,0.0,1.0));
#510=CARTESIAN_POINT('',(2.8421709430404E-014,6.11537791668054E-015,4.59999999999999));
#511=DIRECTION('',(-0.0,0.0,-1.0));
#512=DIRECTION('',(-1.0,-1.65745354903319E-016,0.0));
#513=SURFACE_STYLE_FILL_AREA(#535);
#514=ORIENTED_EDGE('',*,*,#119,.F.);
#515=ORIENTED_EDGE('',*,*,#143,.F.);
#516=ORIENTED_EDGE('',*,*,#145,.F.);
#517=ORIENTED_EDGE('',*,*,#117,.T.);
#518=CARTESIAN_POINT('',(2.8421709430404E-014,6.11537791668054E-015,2.04999999999998));
#519=DIRECTION('',(0.0,-0.0,1.0));
#520=DIRECTION('',(-1.0,-1.65745354903319E-016,0.0));
#521=CARTESIAN_POINT('',(2.8421709430404E-014,6.11537791668054E-015,4.09999999999999));
#522=DIRECTION('',(-0.0,0.0,-1.0));
#523=DIRECTION('',(-1.0,-1.65745354903319E-016,0.0));
#524=DIRECTION('',(0.0,0.0,1.0));
#525=FILL_AREA_STYLE('',(#536));
#526=FILL_AREA_STYLE('',(#537));
#527=FILL_AREA_STYLE('',(#538));
#528=FILL_AREA_STYLE('',(#539));
#529=FILL_AREA_STYLE('',(#540));
#530=FILL_AREA_STYLE('',(#541));
#531=FILL_AREA_STYLE('',(#542));
#532=FILL_AREA_STYLE('',(#543));
#533=FILL_AREA_STYLE('',(#544));
#534=FILL_AREA_STYLE('',(#545));
#535=FILL_AREA_STYLE('',(#546));
#536=FILL_AREA_STYLE_COLOUR('',#547);
#537=FILL_AREA_STYLE_COLOUR('',#548);
#538=FILL_AREA_STYLE_COLOUR('',#549);
#539=FILL_AREA_STYLE_COLOUR('',#550);
#540=FILL_AREA_STYLE_COLOUR('',#551);
#541=FILL_AREA_STYLE_COLOUR('',#552);
#542=FILL_AREA_STYLE_COLOUR('',#553);
#543=FILL_AREA_STYLE_COLOUR('',#554);
#544=FILL_AREA_STYLE_COLOUR('',#555);
#545=FILL_AREA_STYLE_COLOUR('',#556);
#546=FILL_AREA_STYLE_COLOUR('',#557);
#547=COLOUR_RGB('',0.509803950786591,0.509803950786591,0.588235318660736);
#548=COLOUR_RGB('',0.509803950786591,0.509803950786591,0.588235318660736);
#549=COLOUR_RGB('',0.509803950786591,0.509803950786591,0.588235318660736);
#550=COLOUR_RGB('',0.509803950786591,0.509803950786591,0.588235318660736);
#551=COLOUR_RGB('',0.509803950786591,0.509803950786591,0.588235318660736);
#552=COLOUR_RGB('',0.509803950786591,0.509803950786591,0.588235318660736);
#553=COLOUR_RGB('',0.509803950786591,0.509803950786591,0.588235318660736);
#554=COLOUR_RGB('',0.509803950786591,0.509803950786591,0.588235318660736);
#555=COLOUR_RGB('',0.509803950786591,0.509803950786591,0.588235318660736);
#556=COLOUR_RGB('',0.509803950786591,0.509803950786591,0.588235318660736);
#557=COLOUR_RGB('',0.509803950786591,0.509803950786591,0.588235318660736);
ENDSEC;
END-ISO-10303-21;
