ISO-10303-21;
HEADER;
FILE_DESCRIPTION(('STEP AP214'),'1');
FILE_NAME(' ','  ',('TraceParts'),('TraceParts S.A.'),'XStep 1.0',' ',' ');
FILE_SCHEMA(('automotive_design'));
ENDSEC;
DATA;
#1=MECHANICAL_DESIGN_GEOMETRIC_PRESENTATION_REPRESENTATION(' ',(#10,#11,#12,#13,#14,#15,#16,#17,#18,#19,#20,#21,#22,#23,#24,#25,#26,#27,#28,#29,#30,#31,#32,#33,#34,#35,#36,#37,#38,#39,#40,#41,#42,#43,#44,#45,#46,#47,#48,#49,#50,#51,#52),#6);
#2=PRODUCT_DEFINITION_CONTEXT('',#53,'design');
#3=APPLICATION_PROTOCOL_DEFINITION('INTERNATIONAL STANDARD','automotive_design',1994,#53);
#4=PRODUCT_CATEGORY_RELATIONSHIP('NONE','NONE',#54,#55);
#5=SHAPE_DEFINITION_REPRESENTATION(#56,#57);
#6= (GEOMETRIC_REPRESENTATION_CONTEXT(3)GLOBAL_UNCERTAINTY_ASSIGNED_CONTEXT((#60))GLOBAL_UNIT_ASSIGNED_CONTEXT((#62,#63,#64))REPRESENTATION_CONTEXT('NONE','WORKSPACE'));
#10=STYLED_ITEM('',(#66),#67);
#11=STYLED_ITEM('',(#68),#69);
#12=STYLED_ITEM('',(#70),#71);
#13=STYLED_ITEM('',(#72),#73);
#14=STYLED_ITEM('',(#74),#75);
#15=STYLED_ITEM('',(#76),#77);
#16=STYLED_ITEM('',(#78),#79);
#17=STYLED_ITEM('',(#80),#81);
#18=STYLED_ITEM('',(#82),#83);
#19=STYLED_ITEM('',(#84),#85);
#20=STYLED_ITEM('',(#86),#87);
#21=STYLED_ITEM('',(#88),#89);
#22=STYLED_ITEM('',(#90),#91);
#23=STYLED_ITEM('',(#92),#93);
#24=STYLED_ITEM('',(#94),#95);
#25=STYLED_ITEM('',(#96),#97);
#26=STYLED_ITEM('',(#98),#99);
#27=STYLED_ITEM('',(#100),#101);
#28=STYLED_ITEM('',(#102),#103);
#29=STYLED_ITEM('',(#104),#105);
#30=STYLED_ITEM('',(#106),#107);
#31=STYLED_ITEM('',(#108),#109);
#32=STYLED_ITEM('',(#110),#111);
#33=STYLED_ITEM('',(#112),#113);
#34=STYLED_ITEM('',(#114),#115);
#35=STYLED_ITEM('',(#116),#117);
#36=STYLED_ITEM('',(#118),#119);
#37=STYLED_ITEM('',(#120),#121);
#38=STYLED_ITEM('',(#122),#123);
#39=STYLED_ITEM('',(#124),#125);
#40=STYLED_ITEM('',(#126),#127);
#41=STYLED_ITEM('',(#128),#129);
#42=STYLED_ITEM('',(#130),#131);
#43=STYLED_ITEM('',(#132),#133);
#44=STYLED_ITEM('',(#134),#135);
#45=STYLED_ITEM('',(#136),#137);
#46=STYLED_ITEM('',(#138),#139);
#47=STYLED_ITEM('',(#140),#141);
#48=STYLED_ITEM('',(#142),#143);
#49=STYLED_ITEM('',(#144),#145);
#50=STYLED_ITEM('',(#146),#147);
#51=STYLED_ITEM('',(#148),#149);
#52=STYLED_ITEM('',(#150),#151);
#53=APPLICATION_CONTEXT(' ');
#54=PRODUCT_CATEGORY('part','NONE');
#55=PRODUCT_RELATED_PRODUCT_CATEGORY('detail',' ',(#152));
#56=PRODUCT_DEFINITION_SHAPE('NONE','NONE',#153);
#57=ADVANCED_BREP_SHAPE_REPRESENTATION('1',(#137,#154),#6);
#60=UNCERTAINTY_MEASURE_WITH_UNIT(LENGTH_MEASURE(1.0E-006),#62,'','');
#62= (CONVERSION_BASED_UNIT('MILLIMETRE',#157)LENGTH_UNIT()NAMED_UNIT(#160));
#63= (NAMED_UNIT(#162)PLANE_ANGLE_UNIT()SI_UNIT($,.RADIAN.));
#64= (NAMED_UNIT(#162)SOLID_ANGLE_UNIT()SI_UNIT($,.STERADIAN.));
#66=PRESENTATION_STYLE_ASSIGNMENT((#168));
#67=ADVANCED_FACE('',(#169),#170,.F.);
#68=PRESENTATION_STYLE_ASSIGNMENT((#171));
#69=EDGE_CURVE('',#151,#123,#172,.T.);
#70=PRESENTATION_STYLE_ASSIGNMENT((#173));
#71=ADVANCED_FACE('',(#174),#175,.F.);
#72=PRESENTATION_STYLE_ASSIGNMENT((#176));
#73=EDGE_CURVE('',#111,#93,#177,.T.);
#74=PRESENTATION_STYLE_ASSIGNMENT((#178));
#75=ADVANCED_FACE('',(#179),#180,.T.);
#76=PRESENTATION_STYLE_ASSIGNMENT((#181));
#77=EDGE_CURVE('',#113,#111,#182,.T.);
#78=PRESENTATION_STYLE_ASSIGNMENT((#183));
#79=EDGE_CURVE('',#107,#89,#184,.T.);
#80=PRESENTATION_STYLE_ASSIGNMENT((#185));
#81=ADVANCED_FACE('',(#186),#187,.F.);
#82=PRESENTATION_STYLE_ASSIGNMENT((#188));
#83=EDGE_CURVE('',#111,#113,#189,.T.);
#84=PRESENTATION_STYLE_ASSIGNMENT((#190));
#85=EDGE_CURVE('',#151,#133,#191,.T.);
#86=PRESENTATION_STYLE_ASSIGNMENT((#192));
#87=ADVANCED_FACE('',(#193),#194,.F.);
#88=PRESENTATION_STYLE_ASSIGNMENT((#195));
#89=VERTEX_POINT('',#196);
#90=PRESENTATION_STYLE_ASSIGNMENT((#197));
#91=EDGE_CURVE('',#131,#123,#198,.T.);
#92=PRESENTATION_STYLE_ASSIGNMENT((#199));
#93=VERTEX_POINT('',#200);
#94=PRESENTATION_STYLE_ASSIGNMENT((#201));
#95=EDGE_CURVE('',#149,#139,#202,.T.);
#96=PRESENTATION_STYLE_ASSIGNMENT((#203));
#97=EDGE_CURVE('',#89,#107,#204,.T.);
#98=PRESENTATION_STYLE_ASSIGNMENT((#205));
#99=EDGE_CURVE('',#123,#131,#206,.T.);
#100=PRESENTATION_STYLE_ASSIGNMENT((#207));
#101=EDGE_CURVE('',#145,#113,#208,.T.);
#102=PRESENTATION_STYLE_ASSIGNMENT((#209));
#103=ADVANCED_FACE('',(#210),#211,.T.);
#104=PRESENTATION_STYLE_ASSIGNMENT((#212));
#105=ADVANCED_FACE('',(#213,#214),#215,.T.);
#106=PRESENTATION_STYLE_ASSIGNMENT((#216));
#107=VERTEX_POINT('',#217);
#108=PRESENTATION_STYLE_ASSIGNMENT((#218));
#109=EDGE_CURVE('',#93,#145,#219,.T.);
#110=PRESENTATION_STYLE_ASSIGNMENT((#220));
#111=VERTEX_POINT('',#221);
#112=PRESENTATION_STYLE_ASSIGNMENT((#222));
#113=VERTEX_POINT('',#223);
#114=PRESENTATION_STYLE_ASSIGNMENT((#224));
#115=EDGE_CURVE('',#131,#133,#225,.T.);
#116=PRESENTATION_STYLE_ASSIGNMENT((#226));
#117=EDGE_CURVE('',#93,#139,#227,.T.);
#118=PRESENTATION_STYLE_ASSIGNMENT((#228));
#119=EDGE_CURVE('',#133,#151,#229,.T.);
#120=PRESENTATION_STYLE_ASSIGNMENT((#230));
#121=EDGE_CURVE('',#145,#93,#231,.T.);
#122=PRESENTATION_STYLE_ASSIGNMENT((#232));
#123=VERTEX_POINT('',#233);
#124=PRESENTATION_STYLE_ASSIGNMENT((#234));
#125=EDGE_CURVE('',#123,#89,#235,.T.);
#126=PRESENTATION_STYLE_ASSIGNMENT((#236));
#127=EDGE_CURVE('',#139,#149,#237,.T.);
#128=PRESENTATION_STYLE_ASSIGNMENT((#238));
#129=ADVANCED_FACE('',(#239,#240),#241,.T.);
#130=PRESENTATION_STYLE_ASSIGNMENT((#242));
#131=VERTEX_POINT('',#243);
#132=PRESENTATION_STYLE_ASSIGNMENT((#244));
#133=VERTEX_POINT('',#245);
#134=PRESENTATION_STYLE_ASSIGNMENT((#246));
#135=EDGE_CURVE('',#107,#131,#247,.T.);
#136=PRESENTATION_STYLE_ASSIGNMENT((#248));
#137=MANIFOLD_SOLID_BREP('1',#249);
#138=PRESENTATION_STYLE_ASSIGNMENT((#250));
#139=VERTEX_POINT('',#251);
#140=PRESENTATION_STYLE_ASSIGNMENT((#252));
#141=ADVANCED_FACE('',(#253),#254,.T.);
#142=PRESENTATION_STYLE_ASSIGNMENT((#255));
#143=EDGE_CURVE('',#149,#145,#256,.T.);
#144=PRESENTATION_STYLE_ASSIGNMENT((#257));
#145=VERTEX_POINT('',#258);
#146=PRESENTATION_STYLE_ASSIGNMENT((#259));
#147=ADVANCED_FACE('',(#260),#261,.T.);
#148=PRESENTATION_STYLE_ASSIGNMENT((#262));
#149=VERTEX_POINT('',#263);
#150=PRESENTATION_STYLE_ASSIGNMENT((#264));
#151=VERTEX_POINT('',#265);
#152=PRODUCT('1','1','PART-1-DESC',(#266));
#153=PRODUCT_DEFINITION('NONE','NONE',#267,#2);
#154=AXIS2_PLACEMENT_3D('',#268,#269,#270);
#157=LENGTH_MEASURE_WITH_UNIT(LENGTH_MEASURE(1.0),#271);
#160=DIMENSIONAL_EXPONENTS(1.0,0.0,0.0,0.0,0.0,0.0,0.0);
#162=DIMENSIONAL_EXPONENTS(0.0,0.0,0.0,0.0,0.0,0.0,0.0);
#168=SURFACE_STYLE_USAGE(.BOTH.,#272);
#169=FACE_OUTER_BOUND('',#273,.T.);
#170=CONICAL_SURFACE('',#274,5.50000000000003,0.785398163397448);
#171=CURVE_STYLE('',#275,POSITIVE_LENGTH_MEASURE(1.0E-006),#276);
#172=LINE('',#277,#278);
#173=SURFACE_STYLE_USAGE(.BOTH.,#279);
#174=FACE_OUTER_BOUND('',#280,.T.);
#175=CYLINDRICAL_SURFACE('',#281,5.25000000000003);
#176=CURVE_STYLE('',#282,POSITIVE_LENGTH_MEASURE(1.0E-006),#283);
#177=LINE('',#284,#285);
#178=SURFACE_STYLE_USAGE(.BOTH.,#286);
#179=FACE_OUTER_BOUND('',#287,.T.);
#180=SPHERICAL_SURFACE('',#288,15.0000000000001);
#181=CURVE_STYLE('',#289,POSITIVE_LENGTH_MEASURE(1.0E-006),#290);
#182=CIRCLE('',#291,10.5);
#183=CURVE_STYLE('',#292,POSITIVE_LENGTH_MEASURE(1.0E-006),#293);
#184=CIRCLE('',#294,5.75000000000003);
#185=SURFACE_STYLE_USAGE(.BOTH.,#295);
#186=FACE_OUTER_BOUND('',#296,.T.);
#187=CYLINDRICAL_SURFACE('',#297,5.25000000000003);
#188=CURVE_STYLE('',#298,POSITIVE_LENGTH_MEASURE(1.0E-006),#299);
#189=CIRCLE('',#300,10.5);
#190=CURVE_STYLE('',#301,POSITIVE_LENGTH_MEASURE(1.0E-006),#302);
#191=CIRCLE('',#303,5.25000000000003);
#192=SURFACE_STYLE_USAGE(.BOTH.,#304);
#193=FACE_OUTER_BOUND('',#305,.T.);
#194=CONICAL_SURFACE('',#306,5.50000000000003,0.785398163397448);
#195=POINT_STYLE(' ',#307,POSITIVE_LENGTH_MEASURE(1.0E-006),#308);
#196=CARTESIAN_POINT('',(5.75000000000006,7.60794267563039E-015,4.0));
#197=CURVE_STYLE('',#309,POSITIVE_LENGTH_MEASURE(1.0E-006),#310);
#198=CIRCLE('',#311,5.25000000000003);
#199=POINT_STYLE(' ',#312,POSITIVE_LENGTH_MEASURE(1.0E-006),#313);
#200=CARTESIAN_POINT('',(-10.4999999999999,4.5968660379408E-015,3.19999999999999));
#201=CURVE_STYLE('',#314,POSITIVE_LENGTH_MEASURE(1.0E-006),#315);
#202=CIRCLE('',#316,5.60823386513009);
#203=CURVE_STYLE('',#317,POSITIVE_LENGTH_MEASURE(1.0E-006),#318);
#204=CIRCLE('',#319,5.75000000000003);
#205=CURVE_STYLE('',#320,POSITIVE_LENGTH_MEASURE(1.0E-006),#321);
#206=CIRCLE('',#322,5.25000000000003);
#207=CURVE_STYLE('',#323,POSITIVE_LENGTH_MEASURE(1.0E-006),#324);
#208=LINE('',#325,#326);
#209=SURFACE_STYLE_USAGE(.BOTH.,#327);
#210=FACE_OUTER_BOUND('',#328,.T.);
#211=CYLINDRICAL_SURFACE('',#329,10.5);
#212=SURFACE_STYLE_USAGE(.BOTH.,#330);
#213=FACE_OUTER_BOUND('',#331,.T.);
#214=FACE_BOUND('',#332,.T.);
#215=PLANE('',#333);
#216=POINT_STYLE(' ',#334,POSITIVE_LENGTH_MEASURE(1.0E-006),#335);
#217=CARTESIAN_POINT('',(-5.75,5.22753831015932E-015,4.0));
#218=CURVE_STYLE('',#336,POSITIVE_LENGTH_MEASURE(1.0E-006),#337);
#219=CIRCLE('',#338,10.5);
#220=POINT_STYLE(' ',#339,POSITIVE_LENGTH_MEASURE(1.0E-006),#340);
#221=CARTESIAN_POINT('',(-10.5,4.64585029209369E-015,4.0));
#222=POINT_STYLE(' ',#341,POSITIVE_LENGTH_MEASURE(1.0E-006),#342);
#223=CARTESIAN_POINT('',(10.5000000000001,8.99267565512781E-015,4.0));
#224=CURVE_STYLE('',#343,POSITIVE_LENGTH_MEASURE(1.0E-006),#344);
#225=LINE('',#345,#346);
#226=CURVE_STYLE('',#347,POSITIVE_LENGTH_MEASURE(1.0E-006),#348);
#227=CIRCLE('',#349,15.0000000000001);
#228=CURVE_STYLE('',#350,POSITIVE_LENGTH_MEASURE(1.0E-006),#351);
#229=CIRCLE('',#352,5.25000000000003);
#230=CURVE_STYLE('',#353,POSITIVE_LENGTH_MEASURE(1.0E-006),#354);
#231=CIRCLE('',#355,10.5);
#232=POINT_STYLE(' ',#356,POSITIVE_LENGTH_MEASURE(1.0E-006),#357);
#233=CARTESIAN_POINT('',(5.25000000000006,7.4621813093675E-015,3.5));
#234=CURVE_STYLE('',#358,POSITIVE_LENGTH_MEASURE(1.0E-006),#359);
#235=LINE('',#360,#361);
#236=CURVE_STYLE('',#362,POSITIVE_LENGTH_MEASURE(1.0E-006),#363);
#237=CIRCLE('',#364,5.60823386513009);
#238=SURFACE_STYLE_USAGE(.BOTH.,#365);
#239=FACE_OUTER_BOUND('',#366,.T.);
#240=FACE_BOUND('',#367,.T.);
#241=PLANE('',#368);
#242=POINT_STYLE(' ',#369,POSITIVE_LENGTH_MEASURE(1.0E-006),#370);
#243=CARTESIAN_POINT('',(-5.25,5.25815346900488E-015,3.5));
#244=POINT_STYLE(' ',#371,POSITIVE_LENGTH_MEASURE(1.0E-006),#372);
#245=CARTESIAN_POINT('',(-5.25,5.04384735708596E-015,-2.8421709430404E-014));
#246=CURVE_STYLE('',#373,POSITIVE_LENGTH_MEASURE(1.0E-006),#374);
#247=LINE('',#375,#376);
#248=SURFACE_STYLE_USAGE(.BOTH.,#377);
#249=CLOSED_SHELL('',(#81,#147,#67,#141,#75,#87,#105,#103,#129,#71));
#250=POINT_STYLE(' ',#378,POSITIVE_LENGTH_MEASURE(1.0E-006),#379);
#251=CARTESIAN_POINT('',(-5.6082338651297,4.99997781034674E-015,-3.19744231092045E-014));
#252=SURFACE_STYLE_USAGE(.BOTH.,#380);
#253=FACE_OUTER_BOUND('',#381,.T.);
#254=SPHERICAL_SURFACE('',#382,15.0000000000001);
#255=CURVE_STYLE('',#383,POSITIVE_LENGTH_MEASURE(1.0E-006),#384);
#256=CIRCLE('',#385,15.0000000000001);
#257=POINT_STYLE(' ',#386,POSITIVE_LENGTH_MEASURE(1.0E-006),#387);
#258=CARTESIAN_POINT('',(10.5000000000001,9.11028394965338E-015,3.19999999999995));
#259=SURFACE_STYLE_USAGE(.BOTH.,#388);
#260=FACE_OUTER_BOUND('',#389,.T.);
#261=CYLINDRICAL_SURFACE('',#390,10.5);
#262=POINT_STYLE(' ',#391,POSITIVE_LENGTH_MEASURE(1.0E-006),#392);
#263=CARTESIAN_POINT('',(5.6082338651302,7.91218637161843E-015,-1.4210854715202E-014));
#264=POINT_STYLE(' ',#393,POSITIVE_LENGTH_MEASURE(1.0E-006),#394);
#265=CARTESIAN_POINT('',(5.25000000000006,7.4621813093675E-015,-2.8421709430404E-014));
#266=PRODUCT_CONTEXT('',#53,'mechanical');
#267=PRODUCT_DEFINITION_FORMATION_WITH_SPECIFIED_SOURCE(' ','NONE',#152,.NOT_KNOWN.);
#268=CARTESIAN_POINT('',(0.0,0.0,0.0));
#269=DIRECTION('',(0.0,0.0,1.0));
#270=DIRECTION('',(1.0,0.0,0.0));
#271= (NAMED_UNIT(#160)LENGTH_UNIT()SI_UNIT(.MILLI.,.METRE.));
#272=SURFACE_SIDE_STYLE('',(#396));
#273=EDGE_LOOP('',(#397,#398,#399,#400));
#274=AXIS2_PLACEMENT_3D('',#401,#402,#403);
#275=DRAUGHTING_PRE_DEFINED_CURVE_FONT('continuous');
#276=COLOUR_RGB('',0.509803950786591,0.509803950786591,0.588235318660736);
#277=CARTESIAN_POINT('',(5.25000000000006,7.4621813093675E-015,1.74999999999999));
#278=VECTOR('',#404,1.0);
#279=SURFACE_SIDE_STYLE('',(#405));
#280=EDGE_LOOP('',(#406,#407,#408,#409));
#281=AXIS2_PLACEMENT_3D('',#410,#411,#412);
#282=DRAUGHTING_PRE_DEFINED_CURVE_FONT('continuous');
#283=COLOUR_RGB('',0.509803950786591,0.509803950786591,0.588235318660736);
#284=CARTESIAN_POINT('',(-10.5,2.87069827208656E-015,3.59999999999997));
#285=VECTOR('',#413,1.0);
#286=SURFACE_SIDE_STYLE('',(#414));
#287=EDGE_LOOP('',(#415,#416,#417,#418));
#288=AXIS2_PLACEMENT_3D('',#419,#420,#421);
#289=DRAUGHTING_PRE_DEFINED_CURVE_FONT('continuous');
#290=COLOUR_RGB('',0.509803950786591,0.509803950786591,0.588235318660736);
#291=AXIS2_PLACEMENT_3D('',#422,#423,#424);
#292=DRAUGHTING_PRE_DEFINED_CURVE_FONT('continuous');
#293=COLOUR_RGB('',0.509803950786591,0.509803950786591,0.588235318660736);
#294=AXIS2_PLACEMENT_3D('',#425,#426,#427);
#295=SURFACE_SIDE_STYLE('',(#428));
#296=EDGE_LOOP('',(#429,#430,#431,#432));
#297=AXIS2_PLACEMENT_3D('',#433,#434,#435);
#298=DRAUGHTING_PRE_DEFINED_CURVE_FONT('continuous');
#299=COLOUR_RGB('',0.509803950786591,0.509803950786591,0.588235318660736);
#300=AXIS2_PLACEMENT_3D('',#436,#437,#438);
#301=DRAUGHTING_PRE_DEFINED_CURVE_FONT('continuous');
#302=COLOUR_RGB('',0.509803950786591,0.509803950786591,0.588235318660736);
#303=AXIS2_PLACEMENT_3D('',#439,#440,#441);
#304=SURFACE_SIDE_STYLE('',(#442));
#305=EDGE_LOOP('',(#443,#444,#445,#446));
#306=AXIS2_PLACEMENT_3D('',#447,#448,#449);
#307=PRE_DEFINED_MARKER('');
#308=COLOUR_RGB('',0.509803950786591,0.509803950786591,0.588235318660736);
#309=DRAUGHTING_PRE_DEFINED_CURVE_FONT('continuous');
#310=COLOUR_RGB('',0.509803950786591,0.509803950786591,0.588235318660736);
#311=AXIS2_PLACEMENT_3D('',#450,#451,#452);
#312=PRE_DEFINED_MARKER('');
#313=COLOUR_RGB('',0.509803950786591,0.509803950786591,0.588235318660736);
#314=DRAUGHTING_PRE_DEFINED_CURVE_FONT('continuous');
#315=COLOUR_RGB('',0.509803950786591,0.509803950786591,0.588235318660736);
#316=AXIS2_PLACEMENT_3D('',#453,#454,#455);
#317=DRAUGHTING_PRE_DEFINED_CURVE_FONT('continuous');
#318=COLOUR_RGB('',0.509803950786591,0.509803950786591,0.588235318660736);
#319=AXIS2_PLACEMENT_3D('',#456,#457,#458);
#320=DRAUGHTING_PRE_DEFINED_CURVE_FONT('continuous');
#321=COLOUR_RGB('',0.509803950786591,0.509803950786591,0.588235318660736);
#322=AXIS2_PLACEMENT_3D('',#459,#460,#461);
#323=DRAUGHTING_PRE_DEFINED_CURVE_FONT('continuous');
#324=COLOUR_RGB('',0.509803950786591,0.509803950786591,0.588235318660736);
#325=CARTESIAN_POINT('',(10.5000000000001,8.99267565512781E-015,3.59999999999997));
#326=VECTOR('',#462,1.0);
#327=SURFACE_SIDE_STYLE('',(#463));
#328=EDGE_LOOP('',(#464,#465,#466,#467));
#329=AXIS2_PLACEMENT_3D('',#468,#469,#470);
#330=SURFACE_SIDE_STYLE('',(#471));
#331=EDGE_LOOP('',(#472,#473));
#332=EDGE_LOOP('',(#474,#475));
#333=AXIS2_PLACEMENT_3D('',#476,#477,#478);
#334=PRE_DEFINED_MARKER('');
#335=COLOUR_RGB('',0.509803950786591,0.509803950786591,0.588235318660736);
#336=DRAUGHTING_PRE_DEFINED_CURVE_FONT('continuous');
#337=COLOUR_RGB('',0.509803950786591,0.509803950786591,0.588235318660736);
#338=AXIS2_PLACEMENT_3D('',#479,#480,#481);
#339=PRE_DEFINED_MARKER('');
#340=COLOUR_RGB('',0.509803950786591,0.509803950786591,0.588235318660736);
#341=PRE_DEFINED_MARKER('');
#342=COLOUR_RGB('',0.509803950786591,0.509803950786591,0.588235318660736);
#343=DRAUGHTING_PRE_DEFINED_CURVE_FONT('continuous');
#344=COLOUR_RGB('',0.509803950786591,0.509803950786591,0.588235318660736);
#345=CARTESIAN_POINT('',(-5.25,4.40119261784687E-015,1.74999999999999));
#346=VECTOR('',#482,1.0);
#347=DRAUGHTING_PRE_DEFINED_CURVE_FONT('continuous');
#348=COLOUR_RGB('',0.509803950786591,0.509803950786591,0.588235318660736);
#349=AXIS2_PLACEMENT_3D('',#483,#484,#485);
#350=DRAUGHTING_PRE_DEFINED_CURVE_FONT('continuous');
#351=COLOUR_RGB('',0.509803950786591,0.509803950786591,0.588235318660736);
#352=AXIS2_PLACEMENT_3D('',#486,#487,#488);
#353=DRAUGHTING_PRE_DEFINED_CURVE_FONT('continuous');
#354=COLOUR_RGB('',0.509803950786591,0.509803950786591,0.588235318660736);
#355=AXIS2_PLACEMENT_3D('',#489,#490,#491);
#356=PRE_DEFINED_MARKER('');
#357=COLOUR_RGB('',0.509803950786591,0.509803950786591,0.588235318660736);
#358=DRAUGHTING_PRE_DEFINED_CURVE_FONT('continuous');
#359=COLOUR_RGB('',0.509803950786591,0.509803950786591,0.588235318660736);
#360=CARTESIAN_POINT('',(5.50000000000006,7.53506199249895E-015,3.75));
#361=VECTOR('',#492,1.0);
#362=DRAUGHTING_PRE_DEFINED_CURVE_FONT('continuous');
#363=COLOUR_RGB('',0.509803950786591,0.509803950786591,0.588235318660736);
#364=AXIS2_PLACEMENT_3D('',#493,#494,#495);
#365=SURFACE_SIDE_STYLE('',(#496));
#366=EDGE_LOOP('',(#497,#498));
#367=EDGE_LOOP('',(#499,#500));
#368=AXIS2_PLACEMENT_3D('',#501,#502,#503);
#369=PRE_DEFINED_MARKER('');
#370=COLOUR_RGB('',0.509803950786591,0.509803950786591,0.588235318660736);
#371=PRE_DEFINED_MARKER('');
#372=COLOUR_RGB('',0.509803950786591,0.509803950786591,0.588235318660736);
#373=DRAUGHTING_PRE_DEFINED_CURVE_FONT('continuous');
#374=COLOUR_RGB('',0.509803950786591,0.509803950786591,0.588235318660736);
#375=CARTESIAN_POINT('',(-5.5,4.32831193471542E-015,3.75));
#376=VECTOR('',#504,1.0);
#377=SURFACE_SIDE_STYLE('',(#505));
#378=PRE_DEFINED_MARKER('');
#379=COLOUR_RGB('',0.509803950786591,0.509803950786591,0.588235318660736);
#380=SURFACE_SIDE_STYLE('',(#506));
#381=EDGE_LOOP('',(#507,#508,#509,#510));
#382=AXIS2_PLACEMENT_3D('',#511,#512,#513);
#383=DRAUGHTING_PRE_DEFINED_CURVE_FONT('continuous');
#384=COLOUR_RGB('',0.509803950786591,0.509803950786591,0.588235318660736);
#385=AXIS2_PLACEMENT_3D('',#514,#515,#516);
#386=PRE_DEFINED_MARKER('');
#387=COLOUR_RGB('',0.509803950786591,0.509803950786591,0.588235318660736);
#388=SURFACE_SIDE_STYLE('',(#517));
#389=EDGE_LOOP('',(#518,#519,#520,#521));
#390=AXIS2_PLACEMENT_3D('',#522,#523,#524);
#391=PRE_DEFINED_MARKER('');
#392=COLOUR_RGB('',0.509803950786591,0.509803950786591,0.588235318660736);
#393=PRE_DEFINED_MARKER('');
#394=COLOUR_RGB('',0.509803950786591,0.509803950786591,0.588235318660736);
#396=SURFACE_STYLE_FILL_AREA(#525);
#397=ORIENTED_EDGE('',*,*,#135,.F.);
#398=ORIENTED_EDGE('',*,*,#97,.F.);
#399=ORIENTED_EDGE('',*,*,#125,.F.);
#400=ORIENTED_EDGE('',*,*,#99,.T.);
#401=CARTESIAN_POINT('',(2.8421709430404E-014,5.93168696360719E-015,3.75));
#402=DIRECTION('',(0.0,-0.0,1.0));
#403=DIRECTION('',(-1.0,-1.69062097143536E-016,0.0));
#404=DIRECTION('',(0.0,0.0,1.0));
#405=SURFACE_STYLE_FILL_AREA(#526);
#406=ORIENTED_EDGE('',*,*,#115,.T.);
#407=ORIENTED_EDGE('',*,*,#119,.T.);
#408=ORIENTED_EDGE('',*,*,#69,.T.);
#409=ORIENTED_EDGE('',*,*,#91,.F.);
#410=CARTESIAN_POINT('',(2.8421709430404E-014,5.93168696360719E-015,1.74999999999999));
#411=DIRECTION('',(0.0,-0.0,1.0));
#412=DIRECTION('',(-1.0,-1.69062097143536E-016,0.0));
#413=DIRECTION('',(0.0,0.0,-1.0));
#414=SURFACE_STYLE_FILL_AREA(#527);
#415=ORIENTED_EDGE('',*,*,#143,.T.);
#416=ORIENTED_EDGE('',*,*,#109,.F.);
#417=ORIENTED_EDGE('',*,*,#117,.T.);
#418=ORIENTED_EDGE('',*,*,#95,.F.);
#419=CARTESIAN_POINT('',(1.14575016141316E-013,6.5386106066264E-015,13.9121426428142));
#420=DIRECTION('',(0.0,0.0,-1.0));
#421=DIRECTION('',(1.0,1.22460635382238E-016,0.0));
#422=CARTESIAN_POINT('',(2.8421709430404E-014,5.93168696360719E-015,4.0));
#423=DIRECTION('',(-0.0,0.0,-1.0));
#424=DIRECTION('',(-1.0,-1.69062097143536E-016,0.0));
#425=CARTESIAN_POINT('',(2.8421709430404E-014,5.93168696360719E-015,4.0));
#426=DIRECTION('',(-0.0,0.0,-1.0));
#427=DIRECTION('',(-1.0,-1.69062097143536E-016,0.0));
#428=SURFACE_STYLE_FILL_AREA(#528);
#429=ORIENTED_EDGE('',*,*,#115,.F.);
#430=ORIENTED_EDGE('',*,*,#99,.F.);
#431=ORIENTED_EDGE('',*,*,#69,.F.);
#432=ORIENTED_EDGE('',*,*,#85,.T.);
#433=CARTESIAN_POINT('',(2.8421709430404E-014,5.93168696360719E-015,1.74999999999999));
#434=DIRECTION('',(0.0,-0.0,1.0));
#435=DIRECTION('',(-1.0,-1.69062097143536E-016,0.0));
#436=CARTESIAN_POINT('',(2.8421709430404E-014,5.93168696360719E-015,4.0));
#437=DIRECTION('',(-0.0,0.0,-1.0));
#438=DIRECTION('',(-1.0,-1.69062097143536E-016,0.0));
#439=CARTESIAN_POINT('',(2.8421709430404E-014,5.93168696360719E-015,-2.8421709430404E-014));
#440=DIRECTION('',(-0.0,0.0,-1.0));
#441=DIRECTION('',(-1.0,-1.69062097143536E-016,0.0));
#442=SURFACE_STYLE_FILL_AREA(#529);
#443=ORIENTED_EDGE('',*,*,#135,.T.);
#444=ORIENTED_EDGE('',*,*,#91,.T.);
#445=ORIENTED_EDGE('',*,*,#125,.T.);
#446=ORIENTED_EDGE('',*,*,#79,.F.);
#447=CARTESIAN_POINT('',(2.8421709430404E-014,5.93168696360719E-015,3.75));
#448=DIRECTION('',(0.0,-0.0,1.0));
#449=DIRECTION('',(-1.0,-1.69062097143536E-016,0.0));
#450=CARTESIAN_POINT('',(2.8421709430404E-014,5.93168696360719E-015,3.5));
#451=DIRECTION('',(-0.0,0.0,-1.0));
#452=DIRECTION('',(-1.0,-1.69062097143536E-016,0.0));
#453=CARTESIAN_POINT('',(1.14575016141316E-013,6.5386106066264E-015,-1.4210854715202E-014));
#454=DIRECTION('',(0.0,0.0,-1.0));
#455=DIRECTION('',(0.0,-1.0,0.0));
#456=CARTESIAN_POINT('',(2.8421709430404E-014,5.93168696360719E-015,4.0));
#457=DIRECTION('',(-0.0,0.0,-1.0));
#458=DIRECTION('',(-1.0,-1.69062097143536E-016,0.0));
#459=CARTESIAN_POINT('',(2.8421709430404E-014,5.93168696360719E-015,3.5));
#460=DIRECTION('',(-0.0,0.0,-1.0));
#461=DIRECTION('',(-1.0,-1.69062097143536E-016,0.0));
#462=DIRECTION('',(-0.0,-0.0,1.0));
#463=SURFACE_STYLE_FILL_AREA(#530);
#464=ORIENTED_EDGE('',*,*,#73,.T.);
#465=ORIENTED_EDGE('',*,*,#109,.T.);
#466=ORIENTED_EDGE('',*,*,#101,.T.);
#467=ORIENTED_EDGE('',*,*,#77,.T.);
#468=CARTESIAN_POINT('',(2.8421709430404E-014,5.93168696360719E-015,2.0));
#469=DIRECTION('',(0.0,-0.0,1.0));
#470=DIRECTION('',(-1.0,-1.69062097143536E-016,0.0));
#471=SURFACE_STYLE_FILL_AREA(#531);
#472=ORIENTED_EDGE('',*,*,#83,.F.);
#473=ORIENTED_EDGE('',*,*,#77,.F.);
#474=ORIENTED_EDGE('',*,*,#79,.T.);
#475=ORIENTED_EDGE('',*,*,#97,.T.);
#476=CARTESIAN_POINT('',(-8.125,4.9366943011265E-015,4.0));
#477=DIRECTION('',(0.0,0.0,1.0));
#478=DIRECTION('',(-1.0,-1.22460635382238E-016,0.0));
#479=CARTESIAN_POINT('',(2.8421709430404E-014,5.93168696360719E-015,3.19999999999995));
#480=DIRECTION('',(0.0,0.0,1.0));
#481=DIRECTION('',(-1.0,-1.69062097143536E-016,0.0));
#482=DIRECTION('',(0.0,0.0,-1.0));
#483=CARTESIAN_POINT('',(1.14575016141316E-013,6.5386106066264E-015,13.9121426428142));
#484=DIRECTION('',(2.44921270764475E-016,-1.0,0.0));
#485=DIRECTION('',(-0.0,0.0,1.0));
#486=CARTESIAN_POINT('',(2.8421709430404E-014,5.93168696360719E-015,-2.8421709430404E-014));
#487=DIRECTION('',(-0.0,0.0,-1.0));
#488=DIRECTION('',(-1.0,-1.69062097143536E-016,0.0));
#489=CARTESIAN_POINT('',(2.8421709430404E-014,5.93168696360719E-015,3.19999999999995));
#490=DIRECTION('',(0.0,0.0,1.0));
#491=DIRECTION('',(-1.0,-1.69062097143536E-016,0.0));
#492=DIRECTION('',(0.707106781186548,2.06137701039006E-016,0.707106781186547));
#493=CARTESIAN_POINT('',(1.14575016141316E-013,6.5386106066264E-015,-1.4210854715202E-014));
#494=DIRECTION('',(0.0,0.0,-1.0));
#495=DIRECTION('',(0.0,-1.0,0.0));
#496=SURFACE_STYLE_FILL_AREA(#532);
#497=ORIENTED_EDGE('',*,*,#127,.T.);
#498=ORIENTED_EDGE('',*,*,#95,.T.);
#499=ORIENTED_EDGE('',*,*,#119,.F.);
#500=ORIENTED_EDGE('',*,*,#85,.F.);
#501=CARTESIAN_POINT('',(-7.875,4.72238818920758E-015,-1.4210854715202E-014));
#502=DIRECTION('',(0.0,0.0,-1.0));
#503=DIRECTION('',(1.0,1.22460635382238E-016,0.0));
#504=DIRECTION('',(0.707106781186548,2.06137701039006E-016,-0.707106781186547));
#505=SURFACE_STYLE_FILL_AREA(#533);
#506=SURFACE_STYLE_FILL_AREA(#534);
#507=ORIENTED_EDGE('',*,*,#143,.F.);
#508=ORIENTED_EDGE('',*,*,#127,.F.);
#509=ORIENTED_EDGE('',*,*,#117,.F.);
#510=ORIENTED_EDGE('',*,*,#121,.F.);
#511=CARTESIAN_POINT('',(1.14575016141316E-013,6.5386106066264E-015,13.9121426428142));
#512=DIRECTION('',(0.0,0.0,-1.0));
#513=DIRECTION('',(1.0,1.22460635382238E-016,0.0));
#514=CARTESIAN_POINT('',(1.14575016141316E-013,6.5386106066264E-015,13.9121426428142));
#515=DIRECTION('',(2.44921270764475E-016,-1.0,0.0));
#516=DIRECTION('',(-0.0,0.0,1.0));
#517=SURFACE_STYLE_FILL_AREA(#535);
#518=ORIENTED_EDGE('',*,*,#73,.F.);
#519=ORIENTED_EDGE('',*,*,#83,.T.);
#520=ORIENTED_EDGE('',*,*,#101,.F.);
#521=ORIENTED_EDGE('',*,*,#121,.T.);
#522=CARTESIAN_POINT('',(2.8421709430404E-014,5.93168696360719E-015,2.0));
#523=DIRECTION('',(0.0,-0.0,1.0));
#524=DIRECTION('',(-1.0,-1.69062097143536E-016,0.0));
#525=FILL_AREA_STYLE('',(#536));
#526=FILL_AREA_STYLE('',(#537));
#527=FILL_AREA_STYLE('',(#538));
#528=FILL_AREA_STYLE('',(#539));
#529=FILL_AREA_STYLE('',(#540));
#530=FILL_AREA_STYLE('',(#541));
#531=FILL_AREA_STYLE('',(#542));
#532=FILL_AREA_STYLE('',(#543));
#533=FILL_AREA_STYLE('',(#544));
#534=FILL_AREA_STYLE('',(#545));
#535=FILL_AREA_STYLE('',(#546));
#536=FILL_AREA_STYLE_COLOUR('',#547);
#537=FILL_AREA_STYLE_COLOUR('',#548);
#538=FILL_AREA_STYLE_COLOUR('',#549);
#539=FILL_AREA_STYLE_COLOUR('',#550);
#540=FILL_AREA_STYLE_COLOUR('',#551);
#541=FILL_AREA_STYLE_COLOUR('',#552);
#542=FILL_AREA_STYLE_COLOUR('',#553);
#543=FILL_AREA_STYLE_COLOUR('',#554);
#544=FILL_AREA_STYLE_COLOUR('',#555);
#545=FILL_AREA_STYLE_COLOUR('',#556);
#546=FILL_AREA_STYLE_COLOUR('',#557);
#547=COLOUR_RGB('',0.509803950786591,0.509803950786591,0.588235318660736);
#548=COLOUR_RGB('',0.509803950786591,0.509803950786591,0.588235318660736);
#549=COLOUR_RGB('',0.509803950786591,0.509803950786591,0.588235318660736);
#550=COLOUR_RGB('',0.509803950786591,0.509803950786591,0.588235318660736);
#551=COLOUR_RGB('',0.509803950786591,0.509803950786591,0.588235318660736);
#552=COLOUR_RGB('',0.509803950786591,0.509803950786591,0.588235318660736);
#553=COLOUR_RGB('',0.509803950786591,0.509803950786591,0.588235318660736);
#554=COLOUR_RGB('',0.509803950786591,0.509803950786591,0.588235318660736);
#555=COLOUR_RGB('',0.509803950786591,0.509803950786591,0.588235318660736);
#556=COLOUR_RGB('',0.509803950786591,0.509803950786591,0.588235318660736);
#557=COLOUR_RGB('',0.509803950786591,0.509803950786591,0.588235318660736);
ENDSEC;
END-ISO-10303-21;
