ISO-10303-21;
HEADER;
FILE_DESCRIPTION(('STEP AP214'),'1');
FILE_NAME(' ','  ',('TraceParts'),('TraceParts S.A.'),'XStep 1.0',' ',' ');
FILE_SCHEMA(('automotive_design'));
ENDSEC;
DATA;
#1=MECHANICAL_DESIGN_GEOMETRIC_PRESENTATION_REPRESENTATION(' ',(#10,#11,#12,#13,#14,#15,#16,#17,#18,#19,#20,#21,#22,#23,#24,#25,#26,#27,#28,#29,#30,#31,#32,#33,#34,#35,#36,#37,#38,#39,#40,#41,#42,#43,#44),#6);
#2=PRODUCT_DEFINITION_CONTEXT('',#45,'design');
#3=APPLICATION_PROTOCOL_DEFINITION('INTERNATIONAL STANDARD','automotive_design',1994,#45);
#4=PRODUCT_CATEGORY_RELATIONSHIP('NONE','NONE',#46,#47);
#5=SHAPE_DEFINITION_REPRESENTATION(#48,#49);
#6= (GEOMETRIC_REPRESENTATION_CONTEXT(3)GLOBAL_UNCERTAINTY_ASSIGNED_CONTEXT((#52))GLOBAL_UNIT_ASSIGNED_CONTEXT((#54,#55,#56))REPRESENTATION_CONTEXT('NONE','WORKSPACE'));
#10=STYLED_ITEM('',(#58),#59);
#11=STYLED_ITEM('',(#60),#61);
#12=STYLED_ITEM('',(#62),#63);
#13=STYLED_ITEM('',(#64),#65);
#14=STYLED_ITEM('',(#66),#67);
#15=STYLED_ITEM('',(#68),#69);
#16=STYLED_ITEM('',(#70),#71);
#17=STYLED_ITEM('',(#72),#73);
#18=STYLED_ITEM('',(#74),#75);
#19=STYLED_ITEM('',(#76),#77);
#20=STYLED_ITEM('',(#78),#79);
#21=STYLED_ITEM('',(#80),#81);
#22=STYLED_ITEM('',(#82),#83);
#23=STYLED_ITEM('',(#84),#85);
#24=STYLED_ITEM('',(#86),#87);
#25=STYLED_ITEM('',(#88),#89);
#26=STYLED_ITEM('',(#90),#91);
#27=STYLED_ITEM('',(#92),#93);
#28=STYLED_ITEM('',(#94),#95);
#29=STYLED_ITEM('',(#96),#97);
#30=STYLED_ITEM('',(#98),#99);
#31=STYLED_ITEM('',(#100),#101);
#32=STYLED_ITEM('',(#102),#103);
#33=STYLED_ITEM('',(#104),#105);
#34=STYLED_ITEM('',(#106),#107);
#35=STYLED_ITEM('',(#108),#109);
#36=STYLED_ITEM('',(#110),#111);
#37=STYLED_ITEM('',(#112),#113);
#38=STYLED_ITEM('',(#114),#115);
#39=STYLED_ITEM('',(#116),#117);
#40=STYLED_ITEM('',(#118),#119);
#41=STYLED_ITEM('',(#120),#121);
#42=STYLED_ITEM('',(#122),#123);
#43=STYLED_ITEM('',(#124),#125);
#44=STYLED_ITEM('',(#126),#127);
#45=APPLICATION_CONTEXT(' ');
#46=PRODUCT_CATEGORY('part','NONE');
#47=PRODUCT_RELATED_PRODUCT_CATEGORY('detail',' ',(#128));
#48=PRODUCT_DEFINITION_SHAPE('NONE','NONE',#129);
#49=ADVANCED_BREP_SHAPE_REPRESENTATION('1',(#61,#130),#6);
#52=UNCERTAINTY_MEASURE_WITH_UNIT(LENGTH_MEASURE(1.0E-006),#54,'','');
#54= (CONVERSION_BASED_UNIT('MILLIMETRE',#133)LENGTH_UNIT()NAMED_UNIT(#136));
#55= (NAMED_UNIT(#138)PLANE_ANGLE_UNIT()SI_UNIT($,.RADIAN.));
#56= (NAMED_UNIT(#138)SOLID_ANGLE_UNIT()SI_UNIT($,.STERADIAN.));
#58=PRESENTATION_STYLE_ASSIGNMENT((#144));
#59=EDGE_CURVE('',#79,#91,#145,.T.);
#60=PRESENTATION_STYLE_ASSIGNMENT((#146));
#61=MANIFOLD_SOLID_BREP('1',#147);
#62=PRESENTATION_STYLE_ASSIGNMENT((#148));
#63=EDGE_CURVE('',#75,#125,#149,.T.);
#64=PRESENTATION_STYLE_ASSIGNMENT((#150));
#65=EDGE_CURVE('',#121,#125,#151,.T.);
#66=PRESENTATION_STYLE_ASSIGNMENT((#152));
#67=EDGE_CURVE('',#95,#75,#153,.T.);
#68=PRESENTATION_STYLE_ASSIGNMENT((#154));
#69=EDGE_CURVE('',#91,#85,#155,.T.);
#70=PRESENTATION_STYLE_ASSIGNMENT((#156));
#71=EDGE_CURVE('',#91,#79,#157,.T.);
#72=PRESENTATION_STYLE_ASSIGNMENT((#158));
#73=EDGE_CURVE('',#75,#95,#159,.T.);
#74=PRESENTATION_STYLE_ASSIGNMENT((#160));
#75=VERTEX_POINT('',#161);
#76=PRESENTATION_STYLE_ASSIGNMENT((#162));
#77=VERTEX_POINT('',#163);
#78=PRESENTATION_STYLE_ASSIGNMENT((#164));
#79=VERTEX_POINT('',#165);
#80=PRESENTATION_STYLE_ASSIGNMENT((#166));
#81=ADVANCED_FACE('',(#167,#168),#169,.T.);
#82=PRESENTATION_STYLE_ASSIGNMENT((#170));
#83=ADVANCED_FACE('',(#171),#172,.F.);
#84=PRESENTATION_STYLE_ASSIGNMENT((#173));
#85=VERTEX_POINT('',#174);
#86=PRESENTATION_STYLE_ASSIGNMENT((#175));
#87=ADVANCED_FACE('',(#176),#177,.F.);
#88=PRESENTATION_STYLE_ASSIGNMENT((#178));
#89=EDGE_CURVE('',#125,#121,#179,.T.);
#90=PRESENTATION_STYLE_ASSIGNMENT((#180));
#91=VERTEX_POINT('',#181);
#92=PRESENTATION_STYLE_ASSIGNMENT((#182));
#93=ADVANCED_FACE('',(#183,#184),#185,.T.);
#94=PRESENTATION_STYLE_ASSIGNMENT((#186));
#95=VERTEX_POINT('',#187);
#96=PRESENTATION_STYLE_ASSIGNMENT((#188));
#97=EDGE_CURVE('',#121,#95,#189,.T.);
#98=PRESENTATION_STYLE_ASSIGNMENT((#190));
#99=VERTEX_POINT('',#191);
#100=PRESENTATION_STYLE_ASSIGNMENT((#192));
#101=EDGE_CURVE('',#99,#123,#193,.T.);
#102=PRESENTATION_STYLE_ASSIGNMENT((#194));
#103=EDGE_CURVE('',#77,#85,#195,.T.);
#104=PRESENTATION_STYLE_ASSIGNMENT((#196));
#105=EDGE_CURVE('',#85,#123,#197,.T.);
#106=PRESENTATION_STYLE_ASSIGNMENT((#198));
#107=ADVANCED_FACE('',(#199),#200,.T.);
#108=PRESENTATION_STYLE_ASSIGNMENT((#201));
#109=EDGE_CURVE('',#85,#77,#202,.T.);
#110=PRESENTATION_STYLE_ASSIGNMENT((#203));
#111=ADVANCED_FACE('',(#204),#205,.T.);
#112=PRESENTATION_STYLE_ASSIGNMENT((#206));
#113=EDGE_CURVE('',#123,#99,#207,.T.);
#114=PRESENTATION_STYLE_ASSIGNMENT((#208));
#115=ADVANCED_FACE('',(#209),#210,.F.);
#116=PRESENTATION_STYLE_ASSIGNMENT((#211));
#117=ADVANCED_FACE('',(#212),#213,.F.);
#118=PRESENTATION_STYLE_ASSIGNMENT((#214));
#119=EDGE_CURVE('',#77,#79,#215,.T.);
#120=PRESENTATION_STYLE_ASSIGNMENT((#216));
#121=VERTEX_POINT('',#217);
#122=PRESENTATION_STYLE_ASSIGNMENT((#218));
#123=VERTEX_POINT('',#219);
#124=PRESENTATION_STYLE_ASSIGNMENT((#220));
#125=VERTEX_POINT('',#221);
#126=PRESENTATION_STYLE_ASSIGNMENT((#222));
#127=EDGE_CURVE('',#99,#77,#223,.T.);
#128=PRODUCT('1','1','PART-1-DESC',(#224));
#129=PRODUCT_DEFINITION('NONE','NONE',#225,#2);
#130=AXIS2_PLACEMENT_3D('',#226,#227,#228);
#133=LENGTH_MEASURE_WITH_UNIT(LENGTH_MEASURE(1.0),#229);
#136=DIMENSIONAL_EXPONENTS(1.0,0.0,0.0,0.0,0.0,0.0,0.0);
#138=DIMENSIONAL_EXPONENTS(0.0,0.0,0.0,0.0,0.0,0.0,0.0);
#144=CURVE_STYLE('',#230,POSITIVE_LENGTH_MEASURE(1.0E-006),#231);
#145=CIRCLE('',#232,9.5);
#146=SURFACE_STYLE_USAGE(.BOTH.,#233);
#147=CLOSED_SHELL('',(#117,#111,#87,#115,#81,#107,#93,#83));
#148=CURVE_STYLE('',#234,POSITIVE_LENGTH_MEASURE(1.0E-006),#235);
#149=LINE('',#236,#237);
#150=CURVE_STYLE('',#238,POSITIVE_LENGTH_MEASURE(1.0E-006),#239);
#151=CIRCLE('',#240,21.9999999999999);
#152=CURVE_STYLE('',#241,POSITIVE_LENGTH_MEASURE(1.0E-006),#242);
#153=CIRCLE('',#243,21.9999999999999);
#154=CURVE_STYLE('',#244,POSITIVE_LENGTH_MEASURE(1.0E-006),#245);
#155=LINE('',#246,#247);
#156=CURVE_STYLE('',#248,POSITIVE_LENGTH_MEASURE(1.0E-006),#249);
#157=CIRCLE('',#250,9.5);
#158=CURVE_STYLE('',#251,POSITIVE_LENGTH_MEASURE(1.0E-006),#252);
#159=CIRCLE('',#253,21.9999999999999);
#160=POINT_STYLE(' ',#254,POSITIVE_LENGTH_MEASURE(1.0E-006),#255);
#161=CARTESIAN_POINT('',(21.9999999999999,1.86896439509482E-014,-2.8421709430404E-014));
#162=POINT_STYLE(' ',#256,POSITIVE_LENGTH_MEASURE(1.0E-006),#257);
#163=CARTESIAN_POINT('',(-9.5,1.1022563024161E-014,4.97927405783628));
#164=POINT_STYLE(' ',#258,POSITIVE_LENGTH_MEASURE(1.0E-006),#259);
#165=CARTESIAN_POINT('',(-9.5,1.07176804917286E-014,-2.8421709430404E-014));
#166=SURFACE_STYLE_USAGE(.BOTH.,#260);
#167=FACE_OUTER_BOUND('',#261,.T.);
#168=FACE_BOUND('',#262,.T.);
#169=PLANE('',#263);
#170=SURFACE_STYLE_USAGE(.BOTH.,#264);
#171=FACE_OUTER_BOUND('',#265,.T.);
#172=CYLINDRICAL_SURFACE('',#266,9.5);
#173=POINT_STYLE(' ',#267,POSITIVE_LENGTH_MEASURE(1.0E-006),#268);
#174=CARTESIAN_POINT('',(9.5,1.50646580422831E-014,4.97927405783628));
#175=SURFACE_STYLE_USAGE(.BOTH.,#269);
#176=FACE_OUTER_BOUND('',#270,.T.);
#177=CONICAL_SURFACE('',#271,11.25,1.0471975511966);
#178=CURVE_STYLE('',#272,POSITIVE_LENGTH_MEASURE(1.0E-006),#273);
#179=CIRCLE('',#274,21.9999999999999);
#180=POINT_STYLE(' ',#275,POSITIVE_LENGTH_MEASURE(1.0E-006),#276);
#181=CARTESIAN_POINT('',(9.5,1.50646580422831E-014,-2.8421709430404E-014));
#182=SURFACE_STYLE_USAGE(.BOTH.,#277);
#183=FACE_BOUND('',#278,.T.);
#184=FACE_OUTER_BOUND('',#279,.T.);
#185=PLANE('',#280);
#186=POINT_STYLE(' ',#281,POSITIVE_LENGTH_MEASURE(1.0E-006),#282);
#187=CARTESIAN_POINT('',(-21.9999999999999,9.18692254945061E-015,-2.8421709430404E-014));
#188=CURVE_STYLE('',#283,POSITIVE_LENGTH_MEASURE(1.0E-006),#284);
#189=LINE('',#285,#286);
#190=POINT_STYLE(' ',#287,POSITIVE_LENGTH_MEASURE(1.0E-006),#288);
#191=CARTESIAN_POINT('',(-13.0000000000001,1.07176804917286E-014,6.99999999999997));
#192=CURVE_STYLE('',#289,POSITIVE_LENGTH_MEASURE(1.0E-006),#290);
#193=CIRCLE('',#291,13.0000000000001);
#194=CURVE_STYLE('',#292,POSITIVE_LENGTH_MEASURE(1.0E-006),#293);
#195=CIRCLE('',#294,9.5);
#196=CURVE_STYLE('',#295,POSITIVE_LENGTH_MEASURE(1.0E-006),#296);
#197=LINE('',#297,#298);
#198=SURFACE_STYLE_USAGE(.BOTH.,#299);
#199=FACE_OUTER_BOUND('',#300,.T.);
#200=CYLINDRICAL_SURFACE('',#301,21.9999999999999);
#201=CURVE_STYLE('',#302,POSITIVE_LENGTH_MEASURE(1.0E-006),#303);
#202=CIRCLE('',#304,9.5);
#203=SURFACE_STYLE_USAGE(.BOTH.,#305);
#204=FACE_OUTER_BOUND('',#306,.T.);
#205=CYLINDRICAL_SURFACE('',#307,21.9999999999999);
#206=CURVE_STYLE('',#308,POSITIVE_LENGTH_MEASURE(1.0E-006),#309);
#207=CIRCLE('',#310,13.0000000000001);
#208=SURFACE_STYLE_USAGE(.BOTH.,#311);
#209=FACE_OUTER_BOUND('',#312,.T.);
#210=CONICAL_SURFACE('',#313,11.25,1.0471975511966);
#211=SURFACE_STYLE_USAGE(.BOTH.,#314);
#212=FACE_OUTER_BOUND('',#315,.T.);
#213=CYLINDRICAL_SURFACE('',#316,9.5);
#214=CURVE_STYLE('',#317,POSITIVE_LENGTH_MEASURE(1.0E-006),#318);
#215=LINE('',#319,#320);
#216=POINT_STYLE(' ',#321,POSITIVE_LENGTH_MEASURE(1.0E-006),#322);
#217=CARTESIAN_POINT('',(-21.9999999999999,9.61553477328844E-015,6.99999999999997));
#218=POINT_STYLE(' ',#323,POSITIVE_LENGTH_MEASURE(1.0E-006),#324);
#219=CARTESIAN_POINT('',(13.0000000000001,1.60796540967094E-014,6.99999999999997));
#220=POINT_STYLE(' ',#325,POSITIVE_LENGTH_MEASURE(1.0E-006),#326);
#221=CARTESIAN_POINT('',(21.9999999999999,1.86896439509482E-014,6.99999999999997));
#222=CURVE_STYLE('',#327,POSITIVE_LENGTH_MEASURE(1.0E-006),#328);
#223=LINE('',#329,#330);
#224=PRODUCT_CONTEXT('',#45,'mechanical');
#225=PRODUCT_DEFINITION_FORMATION_WITH_SPECIFIED_SOURCE(' ','NONE',#128,.NOT_KNOWN.);
#226=CARTESIAN_POINT('',(0.0,0.0,0.0));
#227=DIRECTION('',(0.0,0.0,1.0));
#228=DIRECTION('',(1.0,0.0,0.0));
#229= (NAMED_UNIT(#136)LENGTH_UNIT()SI_UNIT(.MILLI.,.METRE.));
#230=DRAUGHTING_PRE_DEFINED_CURVE_FONT('continuous');
#231=COLOUR_RGB('',0.509803950786591,0.509803950786591,0.588235318660736);
#232=AXIS2_PLACEMENT_3D('',#332,#333,#334);
#233=SURFACE_SIDE_STYLE('',(#335));
#234=DRAUGHTING_PRE_DEFINED_CURVE_FONT('continuous');
#235=COLOUR_RGB('',0.509803950786591,0.509803950786591,0.588235318660736);
#236=CARTESIAN_POINT('',(21.9999999999999,1.86896439509482E-014,3.49999999999997));
#237=VECTOR('',#336,1.0);
#238=DRAUGHTING_PRE_DEFINED_CURVE_FONT('continuous');
#239=COLOUR_RGB('',0.509803950786591,0.509803950786591,0.588235318660736);
#240=AXIS2_PLACEMENT_3D('',#337,#338,#339);
#241=DRAUGHTING_PRE_DEFINED_CURVE_FONT('continuous');
#242=COLOUR_RGB('',0.509803950786591,0.509803950786591,0.588235318660736);
#243=AXIS2_PLACEMENT_3D('',#340,#341,#342);
#244=DRAUGHTING_PRE_DEFINED_CURVE_FONT('continuous');
#245=COLOUR_RGB('',0.509803950786591,0.509803950786591,0.588235318660736);
#246=CARTESIAN_POINT('',(9.5,1.50646580422831E-014,2.48963702891812));
#247=VECTOR('',#343,1.0);
#248=DRAUGHTING_PRE_DEFINED_CURVE_FONT('continuous');
#249=COLOUR_RGB('',0.509803950786591,0.509803950786591,0.588235318660736);
#250=AXIS2_PLACEMENT_3D('',#344,#345,#346);
#251=DRAUGHTING_PRE_DEFINED_CURVE_FONT('continuous');
#252=COLOUR_RGB('',0.509803950786591,0.509803950786591,0.588235318660736);
#253=AXIS2_PLACEMENT_3D('',#347,#348,#349);
#254=PRE_DEFINED_MARKER('');
#255=COLOUR_RGB('',0.509803950786591,0.509803950786591,0.588235318660736);
#256=PRE_DEFINED_MARKER('');
#257=COLOUR_RGB('',0.509803950786591,0.509803950786591,0.588235318660736);
#258=PRE_DEFINED_MARKER('');
#259=COLOUR_RGB('',0.509803950786591,0.509803950786591,0.588235318660736);
#260=SURFACE_SIDE_STYLE('',(#350));
#261=EDGE_LOOP('',(#351,#352));
#262=EDGE_LOOP('',(#353,#354));
#263=AXIS2_PLACEMENT_3D('',#355,#356,#357);
#264=SURFACE_SIDE_STYLE('',(#358));
#265=EDGE_LOOP('',(#359,#360,#361,#362));
#266=AXIS2_PLACEMENT_3D('',#363,#364,#365);
#267=PRE_DEFINED_MARKER('');
#268=COLOUR_RGB('',0.509803950786591,0.509803950786591,0.588235318660736);
#269=SURFACE_SIDE_STYLE('',(#366));
#270=EDGE_LOOP('',(#367,#368,#369,#370));
#271=AXIS2_PLACEMENT_3D('',#371,#372,#373);
#272=DRAUGHTING_PRE_DEFINED_CURVE_FONT('continuous');
#273=COLOUR_RGB('',0.509803950786591,0.509803950786591,0.588235318660736);
#274=AXIS2_PLACEMENT_3D('',#374,#375,#376);
#275=PRE_DEFINED_MARKER('');
#276=COLOUR_RGB('',0.509803950786591,0.509803950786591,0.588235318660736);
#277=SURFACE_SIDE_STYLE('',(#377));
#278=EDGE_LOOP('',(#378,#379));
#279=EDGE_LOOP('',(#380,#381));
#280=AXIS2_PLACEMENT_3D('',#382,#383,#384);
#281=PRE_DEFINED_MARKER('');
#282=COLOUR_RGB('',0.509803950786591,0.509803950786591,0.588235318660736);
#283=DRAUGHTING_PRE_DEFINED_CURVE_FONT('continuous');
#284=COLOUR_RGB('',0.509803950786591,0.509803950786591,0.588235318660736);
#285=CARTESIAN_POINT('',(-21.9999999999999,5.92969355244715E-015,3.49999999999997));
#286=VECTOR('',#385,1.0);
#287=PRE_DEFINED_MARKER('');
#288=COLOUR_RGB('',0.509803950786591,0.509803950786591,0.588235318660736);
#289=DRAUGHTING_PRE_DEFINED_CURVE_FONT('continuous');
#290=COLOUR_RGB('',0.509803950786591,0.509803950786591,0.588235318660736);
#291=AXIS2_PLACEMENT_3D('',#386,#387,#388);
#292=DRAUGHTING_PRE_DEFINED_CURVE_FONT('continuous');
#293=COLOUR_RGB('',0.509803950786591,0.509803950786591,0.588235318660736);
#294=AXIS2_PLACEMENT_3D('',#389,#390,#391);
#295=DRAUGHTING_PRE_DEFINED_CURVE_FONT('continuous');
#296=COLOUR_RGB('',0.509803950786591,0.509803950786591,0.588235318660736);
#297=CARTESIAN_POINT('',(11.25,1.55721560694962E-014,5.98963702891812));
#298=VECTOR('',#392,1.0);
#299=SURFACE_SIDE_STYLE('',(#393));
#300=EDGE_LOOP('',(#394,#395,#396,#397));
#301=AXIS2_PLACEMENT_3D('',#398,#399,#400);
#302=DRAUGHTING_PRE_DEFINED_CURVE_FONT('continuous');
#303=COLOUR_RGB('',0.509803950786591,0.509803950786591,0.588235318660736);
#304=AXIS2_PLACEMENT_3D('',#401,#402,#403);
#305=SURFACE_SIDE_STYLE('',(#404));
#306=EDGE_LOOP('',(#405,#406,#407,#408));
#307=AXIS2_PLACEMENT_3D('',#409,#410,#411);
#308=DRAUGHTING_PRE_DEFINED_CURVE_FONT('continuous');
#309=COLOUR_RGB('',0.509803950786591,0.509803950786591,0.588235318660736);
#310=AXIS2_PLACEMENT_3D('',#412,#413,#414);
#311=SURFACE_SIDE_STYLE('',(#415));
#312=EDGE_LOOP('',(#416,#417,#418,#419));
#313=AXIS2_PLACEMENT_3D('',#420,#421,#422);
#314=SURFACE_SIDE_STYLE('',(#423));
#315=EDGE_LOOP('',(#424,#425,#426,#427));
#316=AXIS2_PLACEMENT_3D('',#428,#429,#430);
#317=DRAUGHTING_PRE_DEFINED_CURVE_FONT('continuous');
#318=COLOUR_RGB('',0.509803950786591,0.509803950786591,0.588235318660736);
#319=CARTESIAN_POINT('',(-9.5,9.55467946111221E-015,2.48963702891812));
#320=VECTOR('',#431,1.0);
#321=PRE_DEFINED_MARKER('');
#322=COLOUR_RGB('',0.509803950786591,0.509803950786591,0.588235318660736);
#323=PRE_DEFINED_MARKER('');
#324=COLOUR_RGB('',0.509803950786591,0.509803950786591,0.588235318660736);
#325=PRE_DEFINED_MARKER('');
#326=COLOUR_RGB('',0.509803950786591,0.509803950786591,0.588235318660736);
#327=DRAUGHTING_PRE_DEFINED_CURVE_FONT('continuous');
#328=COLOUR_RGB('',0.509803950786591,0.509803950786591,0.588235318660736);
#329=CARTESIAN_POINT('',(-11.25,9.04718143389909E-015,5.98963702891812));
#330=VECTOR('',#432,1.0);
#332=CARTESIAN_POINT('',(0.0,1.23096687516977E-014,-2.8421709430404E-014));
#333=DIRECTION('',(-0.0,0.0,-1.0));
#334=DIRECTION('',(-1.0,-1.67538237310968E-016,0.0));
#335=SURFACE_STYLE_FILL_AREA(#433);
#336=DIRECTION('',(-0.0,-0.0,1.0));
#337=CARTESIAN_POINT('',(0.0,1.23096687516977E-014,6.99999999999997));
#338=DIRECTION('',(-0.0,0.0,-1.0));
#339=DIRECTION('',(-1.0,-1.67538237310968E-016,0.0));
#340=CARTESIAN_POINT('',(0.0,1.23096687516977E-014,-2.8421709430404E-014));
#341=DIRECTION('',(-0.0,0.0,-1.0));
#342=DIRECTION('',(-1.0,-1.67538237310968E-016,0.0));
#343=DIRECTION('',(0.0,0.0,1.0));
#344=CARTESIAN_POINT('',(0.0,1.23096687516977E-014,-2.8421709430404E-014));
#345=DIRECTION('',(-0.0,0.0,-1.0));
#346=DIRECTION('',(-1.0,-1.67538237310968E-016,0.0));
#347=CARTESIAN_POINT('',(0.0,1.23096687516977E-014,-2.8421709430404E-014));
#348=DIRECTION('',(-0.0,0.0,-1.0));
#349=DIRECTION('',(-1.0,-1.67538237310968E-016,0.0));
#350=SURFACE_STYLE_FILL_AREA(#434);
#351=ORIENTED_EDGE('',*,*,#65,.F.);
#352=ORIENTED_EDGE('',*,*,#89,.F.);
#353=ORIENTED_EDGE('',*,*,#101,.T.);
#354=ORIENTED_EDGE('',*,*,#113,.T.);
#355=CARTESIAN_POINT('',(-17.5,1.01666076325085E-014,6.99999999999997));
#356=DIRECTION('',(0.0,0.0,1.0));
#357=DIRECTION('',(-1.0,-1.22460635382238E-016,0.0));
#358=SURFACE_STYLE_FILL_AREA(#435);
#359=ORIENTED_EDGE('',*,*,#119,.T.);
#360=ORIENTED_EDGE('',*,*,#59,.T.);
#361=ORIENTED_EDGE('',*,*,#69,.T.);
#362=ORIENTED_EDGE('',*,*,#103,.F.);
#363=CARTESIAN_POINT('',(0.0,1.23096687516977E-014,2.48963702891812));
#364=DIRECTION('',(0.0,-0.0,1.0));
#365=DIRECTION('',(-1.0,-1.67538237310968E-016,0.0));
#366=SURFACE_STYLE_FILL_AREA(#436);
#367=ORIENTED_EDGE('',*,*,#127,.F.);
#368=ORIENTED_EDGE('',*,*,#113,.F.);
#369=ORIENTED_EDGE('',*,*,#105,.F.);
#370=ORIENTED_EDGE('',*,*,#109,.T.);
#371=CARTESIAN_POINT('',(0.0,1.23096687516977E-014,5.98963702891812));
#372=DIRECTION('',(0.0,-0.0,1.0));
#373=DIRECTION('',(-1.0,-1.67538237310968E-016,0.0));
#374=CARTESIAN_POINT('',(0.0,1.23096687516977E-014,6.99999999999997));
#375=DIRECTION('',(-0.0,0.0,-1.0));
#376=DIRECTION('',(-1.0,-1.67538237310968E-016,0.0));
#377=SURFACE_STYLE_FILL_AREA(#437);
#378=ORIENTED_EDGE('',*,*,#59,.F.);
#379=ORIENTED_EDGE('',*,*,#71,.F.);
#380=ORIENTED_EDGE('',*,*,#67,.T.);
#381=ORIENTED_EDGE('',*,*,#73,.T.);
#382=CARTESIAN_POINT('',(-15.75,9.95230152058959E-015,-2.8421709430404E-014));
#383=DIRECTION('',(0.0,0.0,-1.0));
#384=DIRECTION('',(1.0,1.22460635382238E-016,0.0));
#385=DIRECTION('',(0.0,0.0,-1.0));
#386=CARTESIAN_POINT('',(0.0,1.23096687516977E-014,6.99999999999997));
#387=DIRECTION('',(-0.0,0.0,-1.0));
#388=DIRECTION('',(-1.0,-1.67538237310968E-016,0.0));
#389=CARTESIAN_POINT('',(0.0,1.23096687516977E-014,4.97927405783628));
#390=DIRECTION('',(-0.0,0.0,-1.0));
#391=DIRECTION('',(-1.0,-1.67538237310968E-016,0.0));
#392=DIRECTION('',(0.866025403784442,2.51146390821167E-016,0.499999999999995));
#393=SURFACE_STYLE_FILL_AREA(#438);
#394=ORIENTED_EDGE('',*,*,#97,.T.);
#395=ORIENTED_EDGE('',*,*,#73,.F.);
#396=ORIENTED_EDGE('',*,*,#63,.T.);
#397=ORIENTED_EDGE('',*,*,#89,.T.);
#398=CARTESIAN_POINT('',(0.0,1.23096687516977E-014,3.49999999999997));
#399=DIRECTION('',(0.0,-0.0,1.0));
#400=DIRECTION('',(-1.0,-1.67538237310968E-016,0.0));
#401=CARTESIAN_POINT('',(0.0,1.23096687516977E-014,4.97927405783628));
#402=DIRECTION('',(-0.0,0.0,-1.0));
#403=DIRECTION('',(-1.0,-1.67538237310968E-016,0.0));
#404=SURFACE_STYLE_FILL_AREA(#439);
#405=ORIENTED_EDGE('',*,*,#97,.F.);
#406=ORIENTED_EDGE('',*,*,#65,.T.);
#407=ORIENTED_EDGE('',*,*,#63,.F.);
#408=ORIENTED_EDGE('',*,*,#67,.F.);
#409=CARTESIAN_POINT('',(0.0,1.23096687516977E-014,3.49999999999997));
#410=DIRECTION('',(0.0,-0.0,1.0));
#411=DIRECTION('',(-1.0,-1.67538237310968E-016,0.0));
#412=CARTESIAN_POINT('',(0.0,1.23096687516977E-014,6.99999999999997));
#413=DIRECTION('',(-0.0,0.0,-1.0));
#414=DIRECTION('',(-1.0,-1.67538237310968E-016,0.0));
#415=SURFACE_STYLE_FILL_AREA(#440);
#416=ORIENTED_EDGE('',*,*,#127,.T.);
#417=ORIENTED_EDGE('',*,*,#103,.T.);
#418=ORIENTED_EDGE('',*,*,#105,.T.);
#419=ORIENTED_EDGE('',*,*,#101,.F.);
#420=CARTESIAN_POINT('',(0.0,1.23096687516977E-014,5.98963702891812));
#421=DIRECTION('',(0.0,-0.0,1.0));
#422=DIRECTION('',(-1.0,-1.67538237310968E-016,0.0));
#423=SURFACE_STYLE_FILL_AREA(#441);
#424=ORIENTED_EDGE('',*,*,#119,.F.);
#425=ORIENTED_EDGE('',*,*,#109,.F.);
#426=ORIENTED_EDGE('',*,*,#69,.F.);
#427=ORIENTED_EDGE('',*,*,#71,.T.);
#428=CARTESIAN_POINT('',(0.0,1.23096687516977E-014,2.48963702891812));
#429=DIRECTION('',(0.0,-0.0,1.0));
#430=DIRECTION('',(-1.0,-1.67538237310968E-016,0.0));
#431=DIRECTION('',(0.0,0.0,-1.0));
#432=DIRECTION('',(0.866025403784442,2.51146390821167E-016,-0.499999999999995));
#433=FILL_AREA_STYLE('',(#442));
#434=FILL_AREA_STYLE('',(#443));
#435=FILL_AREA_STYLE('',(#444));
#436=FILL_AREA_STYLE('',(#445));
#437=FILL_AREA_STYLE('',(#446));
#438=FILL_AREA_STYLE('',(#447));
#439=FILL_AREA_STYLE('',(#448));
#440=FILL_AREA_STYLE('',(#449));
#441=FILL_AREA_STYLE('',(#450));
#442=FILL_AREA_STYLE_COLOUR('',#451);
#443=FILL_AREA_STYLE_COLOUR('',#452);
#444=FILL_AREA_STYLE_COLOUR('',#453);
#445=FILL_AREA_STYLE_COLOUR('',#454);
#446=FILL_AREA_STYLE_COLOUR('',#455);
#447=FILL_AREA_STYLE_COLOUR('',#456);
#448=FILL_AREA_STYLE_COLOUR('',#457);
#449=FILL_AREA_STYLE_COLOUR('',#458);
#450=FILL_AREA_STYLE_COLOUR('',#459);
#451=COLOUR_RGB('',0.509803950786591,0.509803950786591,0.588235318660736);
#452=COLOUR_RGB('',0.509803950786591,0.509803950786591,0.588235318660736);
#453=COLOUR_RGB('',0.509803950786591,0.509803950786591,0.588235318660736);
#454=COLOUR_RGB('',0.509803950786591,0.509803950786591,0.588235318660736);
#455=COLOUR_RGB('',0.509803950786591,0.509803950786591,0.588235318660736);
#456=COLOUR_RGB('',0.509803950786591,0.509803950786591,0.588235318660736);
#457=COLOUR_RGB('',0.509803950786591,0.509803950786591,0.588235318660736);
#458=COLOUR_RGB('',0.509803950786591,0.509803950786591,0.588235318660736);
#459=COLOUR_RGB('',0.509803950786591,0.509803950786591,0.588235318660736);
ENDSEC;
END-ISO-10303-21;
