ISO-10303-21;
HEADER;
FILE_DESCRIPTION(('STEP AP214'),'1');
FILE_NAME(' ','  ',('TraceParts'),('TraceParts S.A.'),'XStep 1.0',' ',' ');
FILE_SCHEMA(('automotive_design'));
ENDSEC;
DATA;
#1=MECHANICAL_DESIGN_GEOMETRIC_PRESENTATION_REPRESENTATION(' ',(#10,#11,#12,#13,#14,#15,#16,#17,#18,#19,#20,#21,#22,#23,#24,#25,#26,#27,#28,#29,#30,#31,#32,#33,#34,#35,#36,#37,#38,#39,#40,#41,#42,#43,#44),#6);
#2=PRODUCT_DEFINITION_CONTEXT('',#45,'design');
#3=APPLICATION_PROTOCOL_DEFINITION('INTERNATIONAL STANDARD','automotive_design',1994,#45);
#4=PRODUCT_CATEGORY_RELATIONSHIP('NONE','NONE',#46,#47);
#5=SHAPE_DEFINITION_REPRESENTATION(#48,#49);
#6= (GEOMETRIC_REPRESENTATION_CONTEXT(3)GLOBAL_UNCERTAINTY_ASSIGNED_CONTEXT((#52))GLOBAL_UNIT_ASSIGNED_CONTEXT((#54,#55,#56))REPRESENTATION_CONTEXT('NONE','WORKSPACE'));
#10=STYLED_ITEM('',(#58),#59);
#11=STYLED_ITEM('',(#60),#61);
#12=STYLED_ITEM('',(#62),#63);
#13=STYLED_ITEM('',(#64),#65);
#14=STYLED_ITEM('',(#66),#67);
#15=STYLED_ITEM('',(#68),#69);
#16=STYLED_ITEM('',(#70),#71);
#17=STYLED_ITEM('',(#72),#73);
#18=STYLED_ITEM('',(#74),#75);
#19=STYLED_ITEM('',(#76),#77);
#20=STYLED_ITEM('',(#78),#79);
#21=STYLED_ITEM('',(#80),#81);
#22=STYLED_ITEM('',(#82),#83);
#23=STYLED_ITEM('',(#84),#85);
#24=STYLED_ITEM('',(#86),#87);
#25=STYLED_ITEM('',(#88),#89);
#26=STYLED_ITEM('',(#90),#91);
#27=STYLED_ITEM('',(#92),#93);
#28=STYLED_ITEM('',(#94),#95);
#29=STYLED_ITEM('',(#96),#97);
#30=STYLED_ITEM('',(#98),#99);
#31=STYLED_ITEM('',(#100),#101);
#32=STYLED_ITEM('',(#102),#103);
#33=STYLED_ITEM('',(#104),#105);
#34=STYLED_ITEM('',(#106),#107);
#35=STYLED_ITEM('',(#108),#109);
#36=STYLED_ITEM('',(#110),#111);
#37=STYLED_ITEM('',(#112),#113);
#38=STYLED_ITEM('',(#114),#115);
#39=STYLED_ITEM('',(#116),#117);
#40=STYLED_ITEM('',(#118),#119);
#41=STYLED_ITEM('',(#120),#121);
#42=STYLED_ITEM('',(#122),#123);
#43=STYLED_ITEM('',(#124),#125);
#44=STYLED_ITEM('',(#126),#127);
#45=APPLICATION_CONTEXT(' ');
#46=PRODUCT_CATEGORY('part','NONE');
#47=PRODUCT_RELATED_PRODUCT_CATEGORY('detail',' ',(#128));
#48=PRODUCT_DEFINITION_SHAPE('NONE','NONE',#129);
#49=ADVANCED_BREP_SHAPE_REPRESENTATION('1',(#73,#130),#6);
#52=UNCERTAINTY_MEASURE_WITH_UNIT(LENGTH_MEASURE(1.0E-006),#54,'','');
#54= (CONVERSION_BASED_UNIT('MILLIMETRE',#133)LENGTH_UNIT()NAMED_UNIT(#136));
#55= (NAMED_UNIT(#138)PLANE_ANGLE_UNIT()SI_UNIT($,.RADIAN.));
#56= (NAMED_UNIT(#138)SOLID_ANGLE_UNIT()SI_UNIT($,.STERADIAN.));
#58=PRESENTATION_STYLE_ASSIGNMENT((#144));
#59=EDGE_CURVE('',#67,#69,#145,.T.);
#60=PRESENTATION_STYLE_ASSIGNMENT((#146));
#61=ADVANCED_FACE('',(#147),#148,.F.);
#62=PRESENTATION_STYLE_ASSIGNMENT((#149));
#63=ADVANCED_FACE('',(#150,#151),#152,.T.);
#64=PRESENTATION_STYLE_ASSIGNMENT((#153));
#65=ADVANCED_FACE('',(#154),#155,.F.);
#66=PRESENTATION_STYLE_ASSIGNMENT((#156));
#67=VERTEX_POINT('',#157);
#68=PRESENTATION_STYLE_ASSIGNMENT((#158));
#69=VERTEX_POINT('',#159);
#70=PRESENTATION_STYLE_ASSIGNMENT((#160));
#71=EDGE_CURVE('',#119,#121,#161,.T.);
#72=PRESENTATION_STYLE_ASSIGNMENT((#162));
#73=MANIFOLD_SOLID_BREP('1',#163);
#74=PRESENTATION_STYLE_ASSIGNMENT((#164));
#75=EDGE_CURVE('',#123,#87,#165,.T.);
#76=PRESENTATION_STYLE_ASSIGNMENT((#166));
#77=EDGE_CURVE('',#69,#67,#167,.T.);
#78=PRESENTATION_STYLE_ASSIGNMENT((#168));
#79=EDGE_CURVE('',#127,#117,#169,.T.);
#80=PRESENTATION_STYLE_ASSIGNMENT((#170));
#81=ADVANCED_FACE('',(#171),#172,.F.);
#82=PRESENTATION_STYLE_ASSIGNMENT((#173));
#83=EDGE_CURVE('',#87,#123,#174,.T.);
#84=PRESENTATION_STYLE_ASSIGNMENT((#175));
#85=VERTEX_POINT('',#176);
#86=PRESENTATION_STYLE_ASSIGNMENT((#177));
#87=VERTEX_POINT('',#178);
#88=PRESENTATION_STYLE_ASSIGNMENT((#179));
#89=EDGE_CURVE('',#115,#85,#180,.T.);
#90=PRESENTATION_STYLE_ASSIGNMENT((#181));
#91=EDGE_CURVE('',#119,#123,#182,.T.);
#92=PRESENTATION_STYLE_ASSIGNMENT((#183));
#93=ADVANCED_FACE('',(#184),#185,.T.);
#94=PRESENTATION_STYLE_ASSIGNMENT((#186));
#95=EDGE_CURVE('',#87,#121,#187,.T.);
#96=PRESENTATION_STYLE_ASSIGNMENT((#188));
#97=EDGE_CURVE('',#85,#115,#189,.T.);
#98=PRESENTATION_STYLE_ASSIGNMENT((#190));
#99=ADVANCED_FACE('',(#191,#192),#193,.T.);
#100=PRESENTATION_STYLE_ASSIGNMENT((#194));
#101=EDGE_CURVE('',#121,#119,#195,.T.);
#102=PRESENTATION_STYLE_ASSIGNMENT((#196));
#103=ADVANCED_FACE('',(#197),#198,.T.);
#104=PRESENTATION_STYLE_ASSIGNMENT((#199));
#105=EDGE_CURVE('',#69,#115,#200,.T.);
#106=PRESENTATION_STYLE_ASSIGNMENT((#201));
#107=EDGE_CURVE('',#115,#117,#202,.T.);
#108=PRESENTATION_STYLE_ASSIGNMENT((#203));
#109=EDGE_CURVE('',#85,#67,#204,.T.);
#110=PRESENTATION_STYLE_ASSIGNMENT((#205));
#111=EDGE_CURVE('',#117,#127,#206,.T.);
#112=PRESENTATION_STYLE_ASSIGNMENT((#207));
#113=ADVANCED_FACE('',(#208),#209,.F.);
#114=PRESENTATION_STYLE_ASSIGNMENT((#210));
#115=VERTEX_POINT('',#211);
#116=PRESENTATION_STYLE_ASSIGNMENT((#212));
#117=VERTEX_POINT('',#213);
#118=PRESENTATION_STYLE_ASSIGNMENT((#214));
#119=VERTEX_POINT('',#215);
#120=PRESENTATION_STYLE_ASSIGNMENT((#216));
#121=VERTEX_POINT('',#217);
#122=PRESENTATION_STYLE_ASSIGNMENT((#218));
#123=VERTEX_POINT('',#219);
#124=PRESENTATION_STYLE_ASSIGNMENT((#220));
#125=EDGE_CURVE('',#127,#85,#221,.T.);
#126=PRESENTATION_STYLE_ASSIGNMENT((#222));
#127=VERTEX_POINT('',#223);
#128=PRODUCT('1','1','PART-1-DESC',(#224));
#129=PRODUCT_DEFINITION('NONE','NONE',#225,#2);
#130=AXIS2_PLACEMENT_3D('',#226,#227,#228);
#133=LENGTH_MEASURE_WITH_UNIT(LENGTH_MEASURE(1.0),#229);
#136=DIMENSIONAL_EXPONENTS(1.0,0.0,0.0,0.0,0.0,0.0,0.0);
#138=DIMENSIONAL_EXPONENTS(0.0,0.0,0.0,0.0,0.0,0.0,0.0);
#144=CURVE_STYLE('',#230,POSITIVE_LENGTH_MEASURE(1.0E-006),#231);
#145=CIRCLE('',#232,37.5);
#146=SURFACE_STYLE_USAGE(.BOTH.,#233);
#147=FACE_OUTER_BOUND('',#234,.T.);
#148=CONICAL_SURFACE('',#235,46.25,1.04719755119659);
#149=SURFACE_STYLE_USAGE(.BOTH.,#236);
#150=FACE_BOUND('',#237,.T.);
#151=FACE_OUTER_BOUND('',#238,.T.);
#152=PLANE('',#239);
#153=SURFACE_STYLE_USAGE(.BOTH.,#240);
#154=FACE_OUTER_BOUND('',#241,.T.);
#155=CONICAL_SURFACE('',#242,46.25,1.04719755119659);
#156=POINT_STYLE(' ',#243,POSITIVE_LENGTH_MEASURE(1.0E-006),#244);
#157=CARTESIAN_POINT('',(-37.5,7.74983155556154E-015,-2.8421709430404E-014));
#158=POINT_STYLE(' ',#245,POSITIVE_LENGTH_MEASURE(1.0E-006),#246);
#159=CARTESIAN_POINT('',(37.5,2.51989736364098E-014,-2.8421709430404E-014));
#160=CURVE_STYLE('',#247,POSITIVE_LENGTH_MEASURE(1.0E-006),#248);
#161=CIRCLE('',#249,59.9999999999999);
#162=SURFACE_STYLE_USAGE(.BOTH.,#250);
#163=CLOSED_SHELL('',(#113,#103,#65,#61,#99,#93,#63,#81));
#164=CURVE_STYLE('',#251,POSITIVE_LENGTH_MEASURE(1.0E-006),#252);
#165=CIRCLE('',#253,59.9999999999999);
#166=CURVE_STYLE('',#254,POSITIVE_LENGTH_MEASURE(1.0E-006),#255);
#167=CIRCLE('',#256,37.5);
#168=CURVE_STYLE('',#257,POSITIVE_LENGTH_MEASURE(1.0E-006),#258);
#169=CIRCLE('',#259,54.9999999999999);
#170=SURFACE_STYLE_USAGE(.BOTH.,#260);
#171=FACE_OUTER_BOUND('',#261,.T.);
#172=CYLINDRICAL_SURFACE('',#262,37.5);
#173=CURVE_STYLE('',#263,POSITIVE_LENGTH_MEASURE(1.0E-006),#264);
#174=CIRCLE('',#265,59.9999999999999);
#175=POINT_STYLE(' ',#266,POSITIVE_LENGTH_MEASURE(1.0E-006),#267);
#176=CARTESIAN_POINT('',(-37.5,8.96809262926826E-015,19.8963702891814));
#177=POINT_STYLE(' ',#268,POSITIVE_LENGTH_MEASURE(1.0E-006),#269);
#178=CARTESIAN_POINT('',(-59.9999999999999,6.83137679019477E-015,30.0));
#179=CURVE_STYLE('',#270,POSITIVE_LENGTH_MEASURE(1.0E-006),#271);
#180=CIRCLE('',#272,37.5);
#181=CURVE_STYLE('',#273,POSITIVE_LENGTH_MEASURE(1.0E-006),#274);
#182=LINE('',#275,#276);
#183=SURFACE_STYLE_USAGE(.BOTH.,#277);
#184=FACE_OUTER_BOUND('',#278,.T.);
#185=CYLINDRICAL_SURFACE('',#279,59.9999999999999);
#186=CURVE_STYLE('',#280,POSITIVE_LENGTH_MEASURE(1.0E-006),#281);
#187=LINE('',#282,#283);
#188=CURVE_STYLE('',#284,POSITIVE_LENGTH_MEASURE(1.0E-006),#285);
#189=CIRCLE('',#286,37.5);
#190=SURFACE_STYLE_USAGE(.BOTH.,#287);
#191=FACE_OUTER_BOUND('',#288,.T.);
#192=FACE_BOUND('',#289,.T.);
#193=PLANE('',#290);
#194=CURVE_STYLE('',#291,POSITIVE_LENGTH_MEASURE(1.0E-006),#292);
#195=CIRCLE('',#293,59.9999999999999);
#196=SURFACE_STYLE_USAGE(.BOTH.,#294);
#197=FACE_OUTER_BOUND('',#295,.T.);
#198=CYLINDRICAL_SURFACE('',#296,59.9999999999999);
#199=CURVE_STYLE('',#297,POSITIVE_LENGTH_MEASURE(1.0E-006),#298);
#200=LINE('',#299,#300);
#201=CURVE_STYLE('',#301,POSITIVE_LENGTH_MEASURE(1.0E-006),#302);
#202=LINE('',#303,#304);
#203=CURVE_STYLE('',#305,POSITIVE_LENGTH_MEASURE(1.0E-006),#306);
#204=LINE('',#307,#308);
#205=CURVE_STYLE('',#309,POSITIVE_LENGTH_MEASURE(1.0E-006),#310);
#206=CIRCLE('',#311,54.9999999999999);
#207=SURFACE_STYLE_USAGE(.BOTH.,#312);
#208=FACE_OUTER_BOUND('',#313,.T.);
#209=CYLINDRICAL_SURFACE('',#314,37.5);
#210=POINT_STYLE(' ',#315,POSITIVE_LENGTH_MEASURE(1.0E-006),#316);
#211=CARTESIAN_POINT('',(37.5,2.51989736364098E-014,19.8963702891814));
#212=POINT_STYLE(' ',#317,POSITIVE_LENGTH_MEASURE(1.0E-006),#318);
#213=CARTESIAN_POINT('',(54.9999999999999,3.03416210406074E-014,30.0));
#214=POINT_STYLE(' ',#319,POSITIVE_LENGTH_MEASURE(1.0E-006),#320);
#215=CARTESIAN_POINT('',(59.9999999999999,3.18109488703782E-014,-2.8421709430404E-014));
#216=POINT_STYLE(' ',#321,POSITIVE_LENGTH_MEASURE(1.0E-006),#322);
#217=CARTESIAN_POINT('',(-59.9999999999999,4.9944672594612E-015,-2.8421709430404E-014));
#218=POINT_STYLE(' ',#323,POSITIVE_LENGTH_MEASURE(1.0E-006),#324);
#219=CARTESIAN_POINT('',(59.9999999999999,3.18109488703782E-014,30.0));
#220=CURVE_STYLE('',#325,POSITIVE_LENGTH_MEASURE(1.0E-006),#326);
#221=LINE('',#327,#328);
#222=POINT_STYLE(' ',#329,POSITIVE_LENGTH_MEASURE(1.0E-006),#330);
#223=CARTESIAN_POINT('',(-54.9999999999999,7.44367996710596E-015,30.0));
#224=PRODUCT_CONTEXT('',#45,'mechanical');
#225=PRODUCT_DEFINITION_FORMATION_WITH_SPECIFIED_SOURCE(' ','NONE',#128,.NOT_KNOWN.);
#226=CARTESIAN_POINT('',(0.0,0.0,0.0));
#227=DIRECTION('',(0.0,0.0,1.0));
#228=DIRECTION('',(1.0,0.0,0.0));
#229= (NAMED_UNIT(#136)LENGTH_UNIT()SI_UNIT(.MILLI.,.METRE.));
#230=DRAUGHTING_PRE_DEFINED_CURVE_FONT('continuous');
#231=COLOUR_RGB('',0.509803950786591,0.509803950786591,0.588235318660736);
#232=AXIS2_PLACEMENT_3D('',#332,#333,#334);
#233=SURFACE_SIDE_STYLE('',(#335));
#234=EDGE_LOOP('',(#336,#337,#338,#339));
#235=AXIS2_PLACEMENT_3D('',#340,#341,#342);
#236=SURFACE_SIDE_STYLE('',(#343));
#237=EDGE_LOOP('',(#344,#345));
#238=EDGE_LOOP('',(#346,#347));
#239=AXIS2_PLACEMENT_3D('',#348,#349,#350);
#240=SURFACE_SIDE_STYLE('',(#351));
#241=EDGE_LOOP('',(#352,#353,#354,#355));
#242=AXIS2_PLACEMENT_3D('',#356,#357,#358);
#243=PRE_DEFINED_MARKER('');
#244=COLOUR_RGB('',0.509803950786591,0.509803950786591,0.588235318660736);
#245=PRE_DEFINED_MARKER('');
#246=COLOUR_RGB('',0.509803950786591,0.509803950786591,0.588235318660736);
#247=DRAUGHTING_PRE_DEFINED_CURVE_FONT('continuous');
#248=COLOUR_RGB('',0.509803950786591,0.509803950786591,0.588235318660736);
#249=AXIS2_PLACEMENT_3D('',#359,#360,#361);
#250=SURFACE_SIDE_STYLE('',(#362));
#251=DRAUGHTING_PRE_DEFINED_CURVE_FONT('continuous');
#252=COLOUR_RGB('',0.509803950786591,0.509803950786591,0.588235318660736);
#253=AXIS2_PLACEMENT_3D('',#363,#364,#365);
#254=DRAUGHTING_PRE_DEFINED_CURVE_FONT('continuous');
#255=COLOUR_RGB('',0.509803950786591,0.509803950786591,0.588235318660736);
#256=AXIS2_PLACEMENT_3D('',#366,#367,#368);
#257=DRAUGHTING_PRE_DEFINED_CURVE_FONT('continuous');
#258=COLOUR_RGB('',0.509803950786591,0.509803950786591,0.588235318660736);
#259=AXIS2_PLACEMENT_3D('',#369,#370,#371);
#260=SURFACE_SIDE_STYLE('',(#372));
#261=EDGE_LOOP('',(#373,#374,#375,#376));
#262=AXIS2_PLACEMENT_3D('',#377,#378,#379);
#263=DRAUGHTING_PRE_DEFINED_CURVE_FONT('continuous');
#264=COLOUR_RGB('',0.509803950786591,0.509803950786591,0.588235318660736);
#265=AXIS2_PLACEMENT_3D('',#380,#381,#382);
#266=PRE_DEFINED_MARKER('');
#267=COLOUR_RGB('',0.509803950786591,0.509803950786591,0.588235318660736);
#268=PRE_DEFINED_MARKER('');
#269=COLOUR_RGB('',0.509803950786591,0.509803950786591,0.588235318660736);
#270=DRAUGHTING_PRE_DEFINED_CURVE_FONT('continuous');
#271=COLOUR_RGB('',0.509803950786591,0.509803950786591,0.588235318660736);
#272=AXIS2_PLACEMENT_3D('',#383,#384,#385);
#273=DRAUGHTING_PRE_DEFINED_CURVE_FONT('continuous');
#274=COLOUR_RGB('',0.509803950786591,0.509803950786591,0.588235318660736);
#275=CARTESIAN_POINT('',(59.9999999999999,3.18109488703782E-014,15.0));
#276=VECTOR('',#386,1.0);
#277=SURFACE_SIDE_STYLE('',(#387));
#278=EDGE_LOOP('',(#388,#389,#390,#391));
#279=AXIS2_PLACEMENT_3D('',#392,#393,#394);
#280=DRAUGHTING_PRE_DEFINED_CURVE_FONT('continuous');
#281=COLOUR_RGB('',0.509803950786591,0.509803950786591,0.588235318660736);
#282=CARTESIAN_POINT('',(-59.9999999999999,-3.45291904412014E-015,15.0));
#283=VECTOR('',#395,1.0);
#284=DRAUGHTING_PRE_DEFINED_CURVE_FONT('continuous');
#285=COLOUR_RGB('',0.509803950786591,0.509803950786591,0.588235318660736);
#286=AXIS2_PLACEMENT_3D('',#396,#397,#398);
#287=SURFACE_SIDE_STYLE('',(#399));
#288=EDGE_LOOP('',(#400,#401));
#289=EDGE_LOOP('',(#402,#403));
#290=AXIS2_PLACEMENT_3D('',#404,#405,#406);
#291=DRAUGHTING_PRE_DEFINED_CURVE_FONT('continuous');
#292=COLOUR_RGB('',0.509803950786591,0.509803950786591,0.588235318660736);
#293=AXIS2_PLACEMENT_3D('',#407,#408,#409);
#294=SURFACE_SIDE_STYLE('',(#410));
#295=EDGE_LOOP('',(#411,#412,#413,#414));
#296=AXIS2_PLACEMENT_3D('',#415,#416,#417);
#297=DRAUGHTING_PRE_DEFINED_CURVE_FONT('continuous');
#298=COLOUR_RGB('',0.509803950786591,0.509803950786591,0.588235318660736);
#299=CARTESIAN_POINT('',(37.5,2.51989736364098E-014,9.94818514459068));
#300=VECTOR('',#418,1.0);
#301=DRAUGHTING_PRE_DEFINED_CURVE_FONT('continuous');
#302=COLOUR_RGB('',0.509803950786591,0.509803950786591,0.588235318660736);
#303=CARTESIAN_POINT('',(46.25,2.77702973385086E-014,24.9481851445907));
#304=VECTOR('',#419,1.0);
#305=DRAUGHTING_PRE_DEFINED_CURVE_FONT('continuous');
#306=COLOUR_RGB('',0.509803950786591,0.509803950786591,0.588235318660736);
#307=CARTESIAN_POINT('',(-37.5,3.15905618984829E-015,9.94818514459068));
#308=VECTOR('',#420,1.0);
#309=DRAUGHTING_PRE_DEFINED_CURVE_FONT('continuous');
#310=COLOUR_RGB('',0.509803950786591,0.509803950786591,0.588235318660736);
#311=AXIS2_PLACEMENT_3D('',#421,#422,#423);
#312=SURFACE_SIDE_STYLE('',(#424));
#313=EDGE_LOOP('',(#425,#426,#427,#428));
#314=AXIS2_PLACEMENT_3D('',#429,#430,#431);
#315=PRE_DEFINED_MARKER('');
#316=COLOUR_RGB('',0.509803950786591,0.509803950786591,0.588235318660736);
#317=PRE_DEFINED_MARKER('');
#318=COLOUR_RGB('',0.509803950786591,0.509803950786591,0.588235318660736);
#319=PRE_DEFINED_MARKER('');
#320=COLOUR_RGB('',0.509803950786591,0.509803950786591,0.588235318660736);
#321=PRE_DEFINED_MARKER('');
#322=COLOUR_RGB('',0.509803950786591,0.509803950786591,0.588235318660736);
#323=PRE_DEFINED_MARKER('');
#324=COLOUR_RGB('',0.509803950786591,0.509803950786591,0.588235318660736);
#325=DRAUGHTING_PRE_DEFINED_CURVE_FONT('continuous');
#326=COLOUR_RGB('',0.509803950786591,0.509803950786591,0.588235318660736);
#327=CARTESIAN_POINT('',(-46.25,5.87732487749459E-016,24.9481851445907));
#328=VECTOR('',#432,1.0);
#329=PRE_DEFINED_MARKER('');
#330=COLOUR_RGB('',0.509803950786591,0.509803950786591,0.588235318660736);
#332=CARTESIAN_POINT('',(0.0,1.4179014913129E-014,-2.8421709430404E-014));
#333=DIRECTION('',(-0.0,0.0,-1.0));
#334=DIRECTION('',(-1.0,-1.71404930571915E-016,0.0));
#335=SURFACE_STYLE_FILL_AREA(#433);
#336=ORIENTED_EDGE('',*,*,#125,.T.);
#337=ORIENTED_EDGE('',*,*,#97,.T.);
#338=ORIENTED_EDGE('',*,*,#107,.T.);
#339=ORIENTED_EDGE('',*,*,#79,.F.);
#340=CARTESIAN_POINT('',(0.0,1.4179014913129E-014,24.9481851445907));
#341=DIRECTION('',(0.0,-0.0,1.0));
#342=DIRECTION('',(-1.0,-1.71404930571915E-016,0.0));
#343=SURFACE_STYLE_FILL_AREA(#434);
#344=ORIENTED_EDGE('',*,*,#59,.F.);
#345=ORIENTED_EDGE('',*,*,#77,.F.);
#346=ORIENTED_EDGE('',*,*,#101,.T.);
#347=ORIENTED_EDGE('',*,*,#71,.T.);
#348=CARTESIAN_POINT('',(-48.75,6.37214940751137E-015,-2.8421709430404E-014));
#349=DIRECTION('',(0.0,0.0,-1.0));
#350=DIRECTION('',(1.0,1.22460635382238E-016,0.0));
#351=SURFACE_STYLE_FILL_AREA(#435);
#352=ORIENTED_EDGE('',*,*,#125,.F.);
#353=ORIENTED_EDGE('',*,*,#111,.F.);
#354=ORIENTED_EDGE('',*,*,#107,.F.);
#355=ORIENTED_EDGE('',*,*,#89,.T.);
#356=CARTESIAN_POINT('',(0.0,1.4179014913129E-014,24.9481851445907));
#357=DIRECTION('',(0.0,-0.0,1.0));
#358=DIRECTION('',(-1.0,-1.71404930571915E-016,0.0));
#359=CARTESIAN_POINT('',(0.0,1.4179014913129E-014,-2.8421709430404E-014));
#360=DIRECTION('',(-0.0,0.0,-1.0));
#361=DIRECTION('',(-1.0,-1.71404930571915E-016,0.0));
#362=SURFACE_STYLE_FILL_AREA(#436);
#363=CARTESIAN_POINT('',(0.0,1.4179014913129E-014,30.0));
#364=DIRECTION('',(-0.0,0.0,-1.0));
#365=DIRECTION('',(-1.0,-1.71404930571915E-016,0.0));
#366=CARTESIAN_POINT('',(0.0,1.4179014913129E-014,-2.8421709430404E-014));
#367=DIRECTION('',(-0.0,0.0,-1.0));
#368=DIRECTION('',(-1.0,-1.71404930571915E-016,0.0));
#369=CARTESIAN_POINT('',(0.0,1.4179014913129E-014,30.0));
#370=DIRECTION('',(-0.0,0.0,-1.0));
#371=DIRECTION('',(-1.0,-1.71404930571915E-016,0.0));
#372=SURFACE_STYLE_FILL_AREA(#437);
#373=ORIENTED_EDGE('',*,*,#109,.T.);
#374=ORIENTED_EDGE('',*,*,#59,.T.);
#375=ORIENTED_EDGE('',*,*,#105,.T.);
#376=ORIENTED_EDGE('',*,*,#97,.F.);
#377=CARTESIAN_POINT('',(0.0,1.4179014913129E-014,9.94818514459068));
#378=DIRECTION('',(0.0,-0.0,1.0));
#379=DIRECTION('',(-1.0,-1.71404930571915E-016,0.0));
#380=CARTESIAN_POINT('',(0.0,1.4179014913129E-014,30.0));
#381=DIRECTION('',(-0.0,0.0,-1.0));
#382=DIRECTION('',(-1.0,-1.71404930571915E-016,0.0));
#383=CARTESIAN_POINT('',(0.0,1.4179014913129E-014,19.8963702891814));
#384=DIRECTION('',(-0.0,0.0,-1.0));
#385=DIRECTION('',(-1.0,-1.71404930571915E-016,0.0));
#386=DIRECTION('',(-0.0,-0.0,1.0));
#387=SURFACE_STYLE_FILL_AREA(#438);
#388=ORIENTED_EDGE('',*,*,#95,.T.);
#389=ORIENTED_EDGE('',*,*,#71,.F.);
#390=ORIENTED_EDGE('',*,*,#91,.T.);
#391=ORIENTED_EDGE('',*,*,#75,.T.);
#392=CARTESIAN_POINT('',(0.0,1.4179014913129E-014,15.0));
#393=DIRECTION('',(0.0,-0.0,1.0));
#394=DIRECTION('',(-1.0,-1.71404930571915E-016,0.0));
#395=DIRECTION('',(0.0,0.0,-1.0));
#396=CARTESIAN_POINT('',(0.0,1.4179014913129E-014,19.8963702891814));
#397=DIRECTION('',(-0.0,0.0,-1.0));
#398=DIRECTION('',(-1.0,-1.71404930571915E-016,0.0));
#399=SURFACE_STYLE_FILL_AREA(#439);
#400=ORIENTED_EDGE('',*,*,#83,.F.);
#401=ORIENTED_EDGE('',*,*,#75,.F.);
#402=ORIENTED_EDGE('',*,*,#79,.T.);
#403=ORIENTED_EDGE('',*,*,#111,.T.);
#404=CARTESIAN_POINT('',(-57.4999999999999,7.13752837865036E-015,30.0));
#405=DIRECTION('',(0.0,0.0,1.0));
#406=DIRECTION('',(-1.0,-1.22460635382238E-016,0.0));
#407=CARTESIAN_POINT('',(0.0,1.4179014913129E-014,-2.8421709430404E-014));
#408=DIRECTION('',(-0.0,0.0,-1.0));
#409=DIRECTION('',(-1.0,-1.71404930571915E-016,0.0));
#410=SURFACE_STYLE_FILL_AREA(#440);
#411=ORIENTED_EDGE('',*,*,#95,.F.);
#412=ORIENTED_EDGE('',*,*,#83,.T.);
#413=ORIENTED_EDGE('',*,*,#91,.F.);
#414=ORIENTED_EDGE('',*,*,#101,.F.);
#415=CARTESIAN_POINT('',(0.0,1.4179014913129E-014,15.0));
#416=DIRECTION('',(0.0,-0.0,1.0));
#417=DIRECTION('',(-1.0,-1.71404930571915E-016,0.0));
#418=DIRECTION('',(0.0,0.0,1.0));
#419=DIRECTION('',(0.866025403784435,2.54495045413787E-016,0.500000000000006));
#420=DIRECTION('',(0.0,0.0,-1.0));
#421=CARTESIAN_POINT('',(0.0,1.4179014913129E-014,30.0));
#422=DIRECTION('',(-0.0,0.0,-1.0));
#423=DIRECTION('',(-1.0,-1.71404930571915E-016,0.0));
#424=SURFACE_STYLE_FILL_AREA(#441);
#425=ORIENTED_EDGE('',*,*,#109,.F.);
#426=ORIENTED_EDGE('',*,*,#89,.F.);
#427=ORIENTED_EDGE('',*,*,#105,.F.);
#428=ORIENTED_EDGE('',*,*,#77,.T.);
#429=CARTESIAN_POINT('',(0.0,1.4179014913129E-014,9.94818514459068));
#430=DIRECTION('',(0.0,-0.0,1.0));
#431=DIRECTION('',(-1.0,-1.71404930571915E-016,0.0));
#432=DIRECTION('',(0.866025403784435,2.54495045413787E-016,-0.500000000000006));
#433=FILL_AREA_STYLE('',(#442));
#434=FILL_AREA_STYLE('',(#443));
#435=FILL_AREA_STYLE('',(#444));
#436=FILL_AREA_STYLE('',(#445));
#437=FILL_AREA_STYLE('',(#446));
#438=FILL_AREA_STYLE('',(#447));
#439=FILL_AREA_STYLE('',(#448));
#440=FILL_AREA_STYLE('',(#449));
#441=FILL_AREA_STYLE('',(#450));
#442=FILL_AREA_STYLE_COLOUR('',#451);
#443=FILL_AREA_STYLE_COLOUR('',#452);
#444=FILL_AREA_STYLE_COLOUR('',#453);
#445=FILL_AREA_STYLE_COLOUR('',#454);
#446=FILL_AREA_STYLE_COLOUR('',#455);
#447=FILL_AREA_STYLE_COLOUR('',#456);
#448=FILL_AREA_STYLE_COLOUR('',#457);
#449=FILL_AREA_STYLE_COLOUR('',#458);
#450=FILL_AREA_STYLE_COLOUR('',#459);
#451=COLOUR_RGB('',0.509803950786591,0.509803950786591,0.588235318660736);
#452=COLOUR_RGB('',0.509803950786591,0.509803950786591,0.588235318660736);
#453=COLOUR_RGB('',0.509803950786591,0.509803950786591,0.588235318660736);
#454=COLOUR_RGB('',0.509803950786591,0.509803950786591,0.588235318660736);
#455=COLOUR_RGB('',0.509803950786591,0.509803950786591,0.588235318660736);
#456=COLOUR_RGB('',0.509803950786591,0.509803950786591,0.588235318660736);
#457=COLOUR_RGB('',0.509803950786591,0.509803950786591,0.588235318660736);
#458=COLOUR_RGB('',0.509803950786591,0.509803950786591,0.588235318660736);
#459=COLOUR_RGB('',0.509803950786591,0.509803950786591,0.588235318660736);
ENDSEC;
END-ISO-10303-21;
