ISO-10303-21;
HEADER;
FILE_DESCRIPTION(('STEP AP214'),'1');
FILE_NAME(' ','  ',('TraceParts'),('TraceParts S.A.'),'XStep 1.0',' ',' ');
FILE_SCHEMA(('automotive_design'));
ENDSEC;
DATA;
#1=MECHANICAL_DESIGN_GEOMETRIC_PRESENTATION_REPRESENTATION(' ',(#10,#11,#12,#13,#14,#15,#16,#17,#18,#19,#20,#21,#22,#23,#24,#25,#26,#27,#28,#29,#30,#31,#32,#33,#34,#35,#36,#37,#38,#39,#40,#41,#42,#43,#44),#6);
#2=PRODUCT_DEFINITION_CONTEXT('',#45,'design');
#3=APPLICATION_PROTOCOL_DEFINITION('INTERNATIONAL STANDARD','automotive_design',1994,#45);
#4=PRODUCT_CATEGORY_RELATIONSHIP('NONE','NONE',#46,#47);
#5=SHAPE_DEFINITION_REPRESENTATION(#48,#49);
#6= (GEOMETRIC_REPRESENTATION_CONTEXT(3)GLOBAL_UNCERTAINTY_ASSIGNED_CONTEXT((#52))GLOBAL_UNIT_ASSIGNED_CONTEXT((#54,#55,#56))REPRESENTATION_CONTEXT('NONE','WORKSPACE'));
#10=STYLED_ITEM('',(#58),#59);
#11=STYLED_ITEM('',(#60),#61);
#12=STYLED_ITEM('',(#62),#63);
#13=STYLED_ITEM('',(#64),#65);
#14=STYLED_ITEM('',(#66),#67);
#15=STYLED_ITEM('',(#68),#69);
#16=STYLED_ITEM('',(#70),#71);
#17=STYLED_ITEM('',(#72),#73);
#18=STYLED_ITEM('',(#74),#75);
#19=STYLED_ITEM('',(#76),#77);
#20=STYLED_ITEM('',(#78),#79);
#21=STYLED_ITEM('',(#80),#81);
#22=STYLED_ITEM('',(#82),#83);
#23=STYLED_ITEM('',(#84),#85);
#24=STYLED_ITEM('',(#86),#87);
#25=STYLED_ITEM('',(#88),#89);
#26=STYLED_ITEM('',(#90),#91);
#27=STYLED_ITEM('',(#92),#93);
#28=STYLED_ITEM('',(#94),#95);
#29=STYLED_ITEM('',(#96),#97);
#30=STYLED_ITEM('',(#98),#99);
#31=STYLED_ITEM('',(#100),#101);
#32=STYLED_ITEM('',(#102),#103);
#33=STYLED_ITEM('',(#104),#105);
#34=STYLED_ITEM('',(#106),#107);
#35=STYLED_ITEM('',(#108),#109);
#36=STYLED_ITEM('',(#110),#111);
#37=STYLED_ITEM('',(#112),#113);
#38=STYLED_ITEM('',(#114),#115);
#39=STYLED_ITEM('',(#116),#117);
#40=STYLED_ITEM('',(#118),#119);
#41=STYLED_ITEM('',(#120),#121);
#42=STYLED_ITEM('',(#122),#123);
#43=STYLED_ITEM('',(#124),#125);
#44=STYLED_ITEM('',(#126),#127);
#45=APPLICATION_CONTEXT(' ');
#46=PRODUCT_CATEGORY('part','NONE');
#47=PRODUCT_RELATED_PRODUCT_CATEGORY('detail',' ',(#128));
#48=PRODUCT_DEFINITION_SHAPE('NONE','NONE',#129);
#49=ADVANCED_BREP_SHAPE_REPRESENTATION('1',(#65,#130),#6);
#52=UNCERTAINTY_MEASURE_WITH_UNIT(LENGTH_MEASURE(1.0E-006),#54,'','');
#54= (CONVERSION_BASED_UNIT('MILLIMETRE',#133)LENGTH_UNIT()NAMED_UNIT(#136));
#55= (NAMED_UNIT(#138)PLANE_ANGLE_UNIT()SI_UNIT($,.RADIAN.));
#56= (NAMED_UNIT(#138)SOLID_ANGLE_UNIT()SI_UNIT($,.STERADIAN.));
#58=PRESENTATION_STYLE_ASSIGNMENT((#144));
#59=EDGE_CURVE('',#91,#93,#145,.T.);
#60=PRESENTATION_STYLE_ASSIGNMENT((#146));
#61=ADVANCED_FACE('',(#147),#148,.F.);
#62=PRESENTATION_STYLE_ASSIGNMENT((#149));
#63=EDGE_CURVE('',#107,#69,#150,.T.);
#64=PRESENTATION_STYLE_ASSIGNMENT((#151));
#65=MANIFOLD_SOLID_BREP('1',#152);
#66=PRESENTATION_STYLE_ASSIGNMENT((#153));
#67=ADVANCED_FACE('',(#154),#155,.F.);
#68=PRESENTATION_STYLE_ASSIGNMENT((#156));
#69=VERTEX_POINT('',#157);
#70=PRESENTATION_STYLE_ASSIGNMENT((#158));
#71=EDGE_CURVE('',#93,#91,#159,.T.);
#72=PRESENTATION_STYLE_ASSIGNMENT((#160));
#73=VERTEX_POINT('',#161);
#74=PRESENTATION_STYLE_ASSIGNMENT((#162));
#75=EDGE_CURVE('',#73,#95,#163,.T.);
#76=PRESENTATION_STYLE_ASSIGNMENT((#164));
#77=EDGE_CURVE('',#111,#95,#165,.T.);
#78=PRESENTATION_STYLE_ASSIGNMENT((#166));
#79=EDGE_CURVE('',#123,#111,#167,.T.);
#80=PRESENTATION_STYLE_ASSIGNMENT((#168));
#81=EDGE_CURVE('',#121,#119,#169,.T.);
#82=PRESENTATION_STYLE_ASSIGNMENT((#170));
#83=ADVANCED_FACE('',(#171),#172,.T.);
#84=PRESENTATION_STYLE_ASSIGNMENT((#173));
#85=EDGE_CURVE('',#69,#107,#174,.T.);
#86=PRESENTATION_STYLE_ASSIGNMENT((#175));
#87=ADVANCED_FACE('',(#176,#177),#178,.T.);
#88=PRESENTATION_STYLE_ASSIGNMENT((#179));
#89=ADVANCED_FACE('',(#180),#181,.T.);
#90=PRESENTATION_STYLE_ASSIGNMENT((#182));
#91=VERTEX_POINT('',#183);
#92=PRESENTATION_STYLE_ASSIGNMENT((#184));
#93=VERTEX_POINT('',#185);
#94=PRESENTATION_STYLE_ASSIGNMENT((#186));
#95=VERTEX_POINT('',#187);
#96=PRESENTATION_STYLE_ASSIGNMENT((#188));
#97=EDGE_CURVE('',#107,#119,#189,.T.);
#98=PRESENTATION_STYLE_ASSIGNMENT((#190));
#99=EDGE_CURVE('',#69,#93,#191,.T.);
#100=PRESENTATION_STYLE_ASSIGNMENT((#192));
#101=EDGE_CURVE('',#119,#121,#193,.T.);
#102=PRESENTATION_STYLE_ASSIGNMENT((#194));
#103=EDGE_CURVE('',#95,#73,#195,.T.);
#104=PRESENTATION_STYLE_ASSIGNMENT((#196));
#105=ADVANCED_FACE('',(#197),#198,.F.);
#106=PRESENTATION_STYLE_ASSIGNMENT((#199));
#107=VERTEX_POINT('',#200);
#108=PRESENTATION_STYLE_ASSIGNMENT((#201));
#109=EDGE_CURVE('',#91,#107,#202,.T.);
#110=PRESENTATION_STYLE_ASSIGNMENT((#203));
#111=VERTEX_POINT('',#204);
#112=PRESENTATION_STYLE_ASSIGNMENT((#205));
#113=EDGE_CURVE('',#73,#123,#206,.T.);
#114=PRESENTATION_STYLE_ASSIGNMENT((#207));
#115=EDGE_CURVE('',#111,#123,#208,.T.);
#116=PRESENTATION_STYLE_ASSIGNMENT((#209));
#117=ADVANCED_FACE('',(#210),#211,.F.);
#118=PRESENTATION_STYLE_ASSIGNMENT((#212));
#119=VERTEX_POINT('',#213);
#120=PRESENTATION_STYLE_ASSIGNMENT((#214));
#121=VERTEX_POINT('',#215);
#122=PRESENTATION_STYLE_ASSIGNMENT((#216));
#123=VERTEX_POINT('',#217);
#124=PRESENTATION_STYLE_ASSIGNMENT((#218));
#125=ADVANCED_FACE('',(#219,#220),#221,.T.);
#126=PRESENTATION_STYLE_ASSIGNMENT((#222));
#127=EDGE_CURVE('',#121,#69,#223,.T.);
#128=PRODUCT('1','1','PART-1-DESC',(#224));
#129=PRODUCT_DEFINITION('NONE','NONE',#225,#2);
#130=AXIS2_PLACEMENT_3D('',#226,#227,#228);
#133=LENGTH_MEASURE_WITH_UNIT(LENGTH_MEASURE(1.0),#229);
#136=DIMENSIONAL_EXPONENTS(1.0,0.0,0.0,0.0,0.0,0.0,0.0);
#138=DIMENSIONAL_EXPONENTS(0.0,0.0,0.0,0.0,0.0,0.0,0.0);
#144=CURVE_STYLE('',#230,POSITIVE_LENGTH_MEASURE(1.0E-006),#231);
#145=CIRCLE('',#232,24.5);
#146=SURFACE_STYLE_USAGE(.BOTH.,#233);
#147=FACE_OUTER_BOUND('',#234,.T.);
#148=CONICAL_SURFACE('',#235,29.75,1.04719755119659);
#149=CURVE_STYLE('',#236,POSITIVE_LENGTH_MEASURE(1.0E-006),#237);
#150=CIRCLE('',#238,24.5);
#151=SURFACE_STYLE_USAGE(.BOTH.,#239);
#152=CLOSED_SHELL('',(#105,#83,#67,#61,#125,#89,#87,#117));
#153=SURFACE_STYLE_USAGE(.BOTH.,#240);
#154=FACE_OUTER_BOUND('',#241,.T.);
#155=CONICAL_SURFACE('',#242,29.75,1.04719755119659);
#156=POINT_STYLE(' ',#243,POSITIVE_LENGTH_MEASURE(1.0E-006),#244);
#157=CARTESIAN_POINT('',(-24.5,9.70539455360795E-015,11.9378221735088));
#158=CURVE_STYLE('',#245,POSITIVE_LENGTH_MEASURE(1.0E-006),#246);
#159=CIRCLE('',#247,24.5);
#160=POINT_STYLE(' ',#248,POSITIVE_LENGTH_MEASURE(1.0E-006),#249);
#161=CARTESIAN_POINT('',(39.0,2.43818036128276E-014,-2.8421709430404E-014));
#162=CURVE_STYLE('',#250,POSITIVE_LENGTH_MEASURE(1.0E-006),#251);
#163=CIRCLE('',#252,39.0);
#164=CURVE_STYLE('',#253,POSITIVE_LENGTH_MEASURE(1.0E-006),#254);
#165=LINE('',#255,#256);
#166=CURVE_STYLE('',#257,POSITIVE_LENGTH_MEASURE(1.0E-006),#258);
#167=CIRCLE('',#259,39.0);
#168=CURVE_STYLE('',#260,POSITIVE_LENGTH_MEASURE(1.0E-006),#261);
#169=CIRCLE('',#262,35.0);
#170=SURFACE_STYLE_USAGE(.BOTH.,#263);
#171=FACE_OUTER_BOUND('',#264,.T.);
#172=CYLINDRICAL_SURFACE('',#265,39.0);
#173=CURVE_STYLE('',#266,POSITIVE_LENGTH_MEASURE(1.0E-006),#267);
#174=CIRCLE('',#268,24.5);
#175=SURFACE_STYLE_USAGE(.BOTH.,#269);
#176=FACE_BOUND('',#270,.T.);
#177=FACE_OUTER_BOUND('',#271,.T.);
#178=PLANE('',#272);
#179=SURFACE_STYLE_USAGE(.BOTH.,#273);
#180=FACE_OUTER_BOUND('',#274,.T.);
#181=CYLINDRICAL_SURFACE('',#275,39.0);
#182=POINT_STYLE(' ',#276,POSITIVE_LENGTH_MEASURE(1.0E-006),#277);
#183=CARTESIAN_POINT('',(24.5,2.01786869701863E-014,-2.8421709430404E-014));
#184=POINT_STYLE(' ',#278,POSITIVE_LENGTH_MEASURE(1.0E-006),#279);
#185=CARTESIAN_POINT('',(-24.5,8.97443790938392E-015,-2.8421709430404E-014));
#186=POINT_STYLE(' ',#280,POSITIVE_LENGTH_MEASURE(1.0E-006),#281);
#187=CARTESIAN_POINT('',(-39.0,7.19875869634147E-015,-2.8421709430404E-014));
#188=CURVE_STYLE('',#282,POSITIVE_LENGTH_MEASURE(1.0E-006),#283);
#189=LINE('',#284,#285);
#190=CURVE_STYLE('',#286,POSITIVE_LENGTH_MEASURE(1.0E-006),#287);
#191=LINE('',#288,#289);
#192=CURVE_STYLE('',#290,POSITIVE_LENGTH_MEASURE(1.0E-006),#291);
#193=CIRCLE('',#292,35.0);
#194=CURVE_STYLE('',#293,POSITIVE_LENGTH_MEASURE(1.0E-006),#294);
#195=CIRCLE('',#295,39.0);
#196=SURFACE_STYLE_USAGE(.BOTH.,#296);
#197=FACE_OUTER_BOUND('',#297,.T.);
#198=CYLINDRICAL_SURFACE('',#298,24.5);
#199=POINT_STYLE(' ',#299,POSITIVE_LENGTH_MEASURE(1.0E-006),#300);
#200=CARTESIAN_POINT('',(24.5,2.01786869701863E-014,11.9378221735088));
#201=CURVE_STYLE('',#301,POSITIVE_LENGTH_MEASURE(1.0E-006),#302);
#202=LINE('',#303,#304);
#203=POINT_STYLE(' ',#305,POSITIVE_LENGTH_MEASURE(1.0E-006),#306);
#204=CARTESIAN_POINT('',(-39.0,8.30090441478161E-015,18.0));
#205=CURVE_STYLE('',#307,POSITIVE_LENGTH_MEASURE(1.0E-006),#308);
#206=LINE('',#309,#310);
#207=CURVE_STYLE('',#311,POSITIVE_LENGTH_MEASURE(1.0E-006),#312);
#208=CIRCLE('',#313,39.0);
#209=SURFACE_STYLE_USAGE(.BOTH.,#314);
#210=FACE_OUTER_BOUND('',#315,.T.);
#211=CYLINDRICAL_SURFACE('',#316,24.5);
#212=POINT_STYLE(' ',#317,POSITIVE_LENGTH_MEASURE(1.0E-006),#318);
#213=CARTESIAN_POINT('',(35.0,2.32223231596852E-014,18.0));
#214=POINT_STYLE(' ',#319,POSITIVE_LENGTH_MEASURE(1.0E-006),#320);
#215=CARTESIAN_POINT('',(-35.0,8.79074695631056E-015,18.0));
#216=POINT_STYLE(' ',#321,POSITIVE_LENGTH_MEASURE(1.0E-006),#322);
#217=CARTESIAN_POINT('',(39.0,2.43818036128276E-014,18.0));
#218=SURFACE_STYLE_USAGE(.BOTH.,#323);
#219=FACE_OUTER_BOUND('',#324,.T.);
#220=FACE_BOUND('',#325,.T.);
#221=PLANE('',#326);
#222=CURVE_STYLE('',#327,POSITIVE_LENGTH_MEASURE(1.0E-006),#328);
#223=LINE('',#329,#330);
#224=PRODUCT_CONTEXT('',#45,'mechanical');
#225=PRODUCT_DEFINITION_FORMATION_WITH_SPECIFIED_SOURCE(' ','NONE',#128,.NOT_KNOWN.);
#226=CARTESIAN_POINT('',(0.0,0.0,0.0));
#227=DIRECTION('',(0.0,0.0,1.0));
#228=DIRECTION('',(1.0,0.0,0.0));
#229= (NAMED_UNIT(#136)LENGTH_UNIT()SI_UNIT(.MILLI.,.METRE.));
#230=DRAUGHTING_PRE_DEFINED_CURVE_FONT('continuous');
#231=COLOUR_RGB('',0.509803950786591,0.509803950786591,0.588235318660736);
#232=AXIS2_PLACEMENT_3D('',#332,#333,#334);
#233=SURFACE_SIDE_STYLE('',(#335));
#234=EDGE_LOOP('',(#336,#337,#338,#339));
#235=AXIS2_PLACEMENT_3D('',#340,#341,#342);
#236=DRAUGHTING_PRE_DEFINED_CURVE_FONT('continuous');
#237=COLOUR_RGB('',0.509803950786591,0.509803950786591,0.588235318660736);
#238=AXIS2_PLACEMENT_3D('',#343,#344,#345);
#239=SURFACE_SIDE_STYLE('',(#346));
#240=SURFACE_SIDE_STYLE('',(#347));
#241=EDGE_LOOP('',(#348,#349,#350,#351));
#242=AXIS2_PLACEMENT_3D('',#352,#353,#354);
#243=PRE_DEFINED_MARKER('');
#244=COLOUR_RGB('',0.509803950786591,0.509803950786591,0.588235318660736);
#245=DRAUGHTING_PRE_DEFINED_CURVE_FONT('continuous');
#246=COLOUR_RGB('',0.509803950786591,0.509803950786591,0.588235318660736);
#247=AXIS2_PLACEMENT_3D('',#355,#356,#357);
#248=PRE_DEFINED_MARKER('');
#249=COLOUR_RGB('',0.509803950786591,0.509803950786591,0.588235318660736);
#250=DRAUGHTING_PRE_DEFINED_CURVE_FONT('continuous');
#251=COLOUR_RGB('',0.509803950786591,0.509803950786591,0.588235318660736);
#252=AXIS2_PLACEMENT_3D('',#358,#359,#360);
#253=DRAUGHTING_PRE_DEFINED_CURVE_FONT('continuous');
#254=COLOUR_RGB('',0.509803950786591,0.509803950786591,0.588235318660736);
#255=CARTESIAN_POINT('',(-39.0,1.77193477655018E-015,8.99999999999997));
#256=VECTOR('',#361,1.0);
#257=DRAUGHTING_PRE_DEFINED_CURVE_FONT('continuous');
#258=COLOUR_RGB('',0.509803950786591,0.509803950786591,0.588235318660736);
#259=AXIS2_PLACEMENT_3D('',#362,#363,#364);
#260=DRAUGHTING_PRE_DEFINED_CURVE_FONT('continuous');
#261=COLOUR_RGB('',0.509803950786591,0.509803950786591,0.588235318660736);
#262=AXIS2_PLACEMENT_3D('',#365,#366,#367);
#263=SURFACE_SIDE_STYLE('',(#368));
#264=EDGE_LOOP('',(#369,#370,#371,#372));
#265=AXIS2_PLACEMENT_3D('',#373,#374,#375);
#266=DRAUGHTING_PRE_DEFINED_CURVE_FONT('continuous');
#267=COLOUR_RGB('',0.509803950786591,0.509803950786591,0.588235318660736);
#268=AXIS2_PLACEMENT_3D('',#376,#377,#378);
#269=SURFACE_SIDE_STYLE('',(#379));
#270=EDGE_LOOP('',(#380,#381));
#271=EDGE_LOOP('',(#382,#383));
#272=AXIS2_PLACEMENT_3D('',#384,#385,#386);
#273=SURFACE_SIDE_STYLE('',(#387));
#274=EDGE_LOOP('',(#388,#389,#390,#391));
#275=AXIS2_PLACEMENT_3D('',#392,#393,#394);
#276=PRE_DEFINED_MARKER('');
#277=COLOUR_RGB('',0.509803950786591,0.509803950786591,0.588235318660736);
#278=PRE_DEFINED_MARKER('');
#279=COLOUR_RGB('',0.509803950786591,0.509803950786591,0.588235318660736);
#280=PRE_DEFINED_MARKER('');
#281=COLOUR_RGB('',0.509803950786591,0.509803950786591,0.588235318660736);
#282=DRAUGHTING_PRE_DEFINED_CURVE_FONT('continuous');
#283=COLOUR_RGB('',0.509803950786591,0.509803950786591,0.588235318660736);
#284=CARTESIAN_POINT('',(29.75,2.17005050649357E-014,14.9689110867544));
#285=VECTOR('',#395,1.0);
#286=DRAUGHTING_PRE_DEFINED_CURVE_FONT('continuous');
#287=COLOUR_RGB('',0.509803950786591,0.509803950786591,0.588235318660736);
#288=CARTESIAN_POINT('',(-24.5,5.97505141919149E-015,5.96891108675439));
#289=VECTOR('',#396,1.0);
#290=DRAUGHTING_PRE_DEFINED_CURVE_FONT('continuous');
#291=COLOUR_RGB('',0.509803950786591,0.509803950786591,0.588235318660736);
#292=AXIS2_PLACEMENT_3D('',#397,#398,#399);
#293=DRAUGHTING_PRE_DEFINED_CURVE_FONT('continuous');
#294=COLOUR_RGB('',0.509803950786591,0.509803950786591,0.588235318660736);
#295=AXIS2_PLACEMENT_3D('',#400,#401,#402);
#296=SURFACE_SIDE_STYLE('',(#403));
#297=EDGE_LOOP('',(#404,#405,#406,#407));
#298=AXIS2_PLACEMENT_3D('',#408,#409,#410);
#299=PRE_DEFINED_MARKER('');
#300=COLOUR_RGB('',0.509803950786591,0.509803950786591,0.588235318660736);
#301=DRAUGHTING_PRE_DEFINED_CURVE_FONT('continuous');
#302=COLOUR_RGB('',0.509803950786591,0.509803950786591,0.588235318660736);
#303=CARTESIAN_POINT('',(24.5,2.01786869701863E-014,5.96891108675439));
#304=VECTOR('',#411,1.0);
#305=PRE_DEFINED_MARKER('');
#306=COLOUR_RGB('',0.509803950786591,0.509803950786591,0.588235318660736);
#307=DRAUGHTING_PRE_DEFINED_CURVE_FONT('continuous');
#308=COLOUR_RGB('',0.509803950786591,0.509803950786591,0.588235318660736);
#309=CARTESIAN_POINT('',(39.0,2.43818036128276E-014,8.99999999999997));
#310=VECTOR('',#412,1.0);
#311=DRAUGHTING_PRE_DEFINED_CURVE_FONT('continuous');
#312=COLOUR_RGB('',0.509803950786591,0.509803950786591,0.588235318660736);
#313=AXIS2_PLACEMENT_3D('',#413,#414,#415);
#314=SURFACE_SIDE_STYLE('',(#416));
#315=EDGE_LOOP('',(#417,#418,#419,#420));
#316=AXIS2_PLACEMENT_3D('',#421,#422,#423);
#317=PRE_DEFINED_MARKER('');
#318=COLOUR_RGB('',0.509803950786591,0.509803950786591,0.588235318660736);
#319=PRE_DEFINED_MARKER('');
#320=COLOUR_RGB('',0.509803950786591,0.509803950786591,0.588235318660736);
#321=PRE_DEFINED_MARKER('');
#322=COLOUR_RGB('',0.509803950786591,0.509803950786591,0.588235318660736);
#323=SURFACE_SIDE_STYLE('',(#424));
#324=EDGE_LOOP('',(#425,#426));
#325=EDGE_LOOP('',(#427,#428));
#326=AXIS2_PLACEMENT_3D('',#429,#430,#431);
#327=DRAUGHTING_PRE_DEFINED_CURVE_FONT('continuous');
#328=COLOUR_RGB('',0.509803950786591,0.509803950786591,0.588235318660736);
#329=CARTESIAN_POINT('',(-29.75,4.45323332444205E-015,14.9689110867544));
#330=VECTOR('',#432,1.0);
#332=CARTESIAN_POINT('',(0.0,1.30768691946889E-014,-2.8421709430404E-014));
#333=DIRECTION('',(-0.0,0.0,-1.0));
#334=DIRECTION('',(-1.0,-1.6740947790337E-016,0.0));
#335=SURFACE_STYLE_FILL_AREA(#433);
#336=ORIENTED_EDGE('',*,*,#127,.T.);
#337=ORIENTED_EDGE('',*,*,#85,.T.);
#338=ORIENTED_EDGE('',*,*,#97,.T.);
#339=ORIENTED_EDGE('',*,*,#81,.F.);
#340=CARTESIAN_POINT('',(0.0,1.30768691946889E-014,14.9689110867544));
#341=DIRECTION('',(0.0,-0.0,1.0));
#342=DIRECTION('',(-1.0,-1.6740947790337E-016,0.0));
#343=CARTESIAN_POINT('',(0.0,1.30768691946889E-014,11.9378221735088));
#344=DIRECTION('',(-0.0,0.0,-1.0));
#345=DIRECTION('',(-1.0,-1.6740947790337E-016,0.0));
#346=SURFACE_STYLE_FILL_AREA(#434);
#347=SURFACE_STYLE_FILL_AREA(#435);
#348=ORIENTED_EDGE('',*,*,#127,.F.);
#349=ORIENTED_EDGE('',*,*,#101,.F.);
#350=ORIENTED_EDGE('',*,*,#97,.F.);
#351=ORIENTED_EDGE('',*,*,#63,.T.);
#352=CARTESIAN_POINT('',(0.0,1.30768691946889E-014,14.9689110867544));
#353=DIRECTION('',(0.0,-0.0,1.0));
#354=DIRECTION('',(-1.0,-1.6740947790337E-016,0.0));
#355=CARTESIAN_POINT('',(0.0,1.30768691946889E-014,-2.8421709430404E-014));
#356=DIRECTION('',(-0.0,0.0,-1.0));
#357=DIRECTION('',(-1.0,-1.6740947790337E-016,0.0));
#358=CARTESIAN_POINT('',(0.0,1.30768691946889E-014,-2.8421709430404E-014));
#359=DIRECTION('',(-0.0,0.0,-1.0));
#360=DIRECTION('',(-1.0,-1.6740947790337E-016,0.0));
#361=DIRECTION('',(0.0,0.0,-1.0));
#362=CARTESIAN_POINT('',(0.0,1.30768691946889E-014,18.0));
#363=DIRECTION('',(-0.0,0.0,-1.0));
#364=DIRECTION('',(-1.0,-1.6740947790337E-016,0.0));
#365=CARTESIAN_POINT('',(0.0,1.30768691946889E-014,18.0));
#366=DIRECTION('',(-0.0,0.0,-1.0));
#367=DIRECTION('',(-1.0,-1.6740947790337E-016,0.0));
#368=SURFACE_STYLE_FILL_AREA(#436);
#369=ORIENTED_EDGE('',*,*,#77,.F.);
#370=ORIENTED_EDGE('',*,*,#115,.T.);
#371=ORIENTED_EDGE('',*,*,#113,.F.);
#372=ORIENTED_EDGE('',*,*,#103,.F.);
#373=CARTESIAN_POINT('',(0.0,1.30768691946889E-014,8.99999999999997));
#374=DIRECTION('',(0.0,-0.0,1.0));
#375=DIRECTION('',(-1.0,-1.6740947790337E-016,0.0));
#376=CARTESIAN_POINT('',(0.0,1.30768691946889E-014,11.9378221735088));
#377=DIRECTION('',(-0.0,0.0,-1.0));
#378=DIRECTION('',(-1.0,-1.6740947790337E-016,0.0));
#379=SURFACE_STYLE_FILL_AREA(#437);
#380=ORIENTED_EDGE('',*,*,#71,.F.);
#381=ORIENTED_EDGE('',*,*,#59,.F.);
#382=ORIENTED_EDGE('',*,*,#103,.T.);
#383=ORIENTED_EDGE('',*,*,#75,.T.);
#384=CARTESIAN_POINT('',(-31.75,8.0865983028627E-015,-2.8421709430404E-014));
#385=DIRECTION('',(0.0,0.0,-1.0));
#386=DIRECTION('',(1.0,1.22460635382238E-016,0.0));
#387=SURFACE_STYLE_FILL_AREA(#438);
#388=ORIENTED_EDGE('',*,*,#77,.T.);
#389=ORIENTED_EDGE('',*,*,#75,.F.);
#390=ORIENTED_EDGE('',*,*,#113,.T.);
#391=ORIENTED_EDGE('',*,*,#79,.T.);
#392=CARTESIAN_POINT('',(0.0,1.30768691946889E-014,8.99999999999997));
#393=DIRECTION('',(0.0,-0.0,1.0));
#394=DIRECTION('',(-1.0,-1.6740947790337E-016,0.0));
#395=DIRECTION('',(0.866025403784435,2.51034881903208E-016,0.500000000000006));
#396=DIRECTION('',(0.0,0.0,-1.0));
#397=CARTESIAN_POINT('',(0.0,1.30768691946889E-014,18.0));
#398=DIRECTION('',(-0.0,0.0,-1.0));
#399=DIRECTION('',(-1.0,-1.6740947790337E-016,0.0));
#400=CARTESIAN_POINT('',(0.0,1.30768691946889E-014,-2.8421709430404E-014));
#401=DIRECTION('',(-0.0,0.0,-1.0));
#402=DIRECTION('',(-1.0,-1.6740947790337E-016,0.0));
#403=SURFACE_STYLE_FILL_AREA(#439);
#404=ORIENTED_EDGE('',*,*,#99,.F.);
#405=ORIENTED_EDGE('',*,*,#63,.F.);
#406=ORIENTED_EDGE('',*,*,#109,.F.);
#407=ORIENTED_EDGE('',*,*,#59,.T.);
#408=CARTESIAN_POINT('',(0.0,1.30768691946889E-014,5.96891108675439));
#409=DIRECTION('',(0.0,-0.0,1.0));
#410=DIRECTION('',(-1.0,-1.6740947790337E-016,0.0));
#411=DIRECTION('',(0.0,0.0,1.0));
#412=DIRECTION('',(-0.0,-0.0,1.0));
#413=CARTESIAN_POINT('',(0.0,1.30768691946889E-014,18.0));
#414=DIRECTION('',(-0.0,0.0,-1.0));
#415=DIRECTION('',(-1.0,-1.6740947790337E-016,0.0));
#416=SURFACE_STYLE_FILL_AREA(#440);
#417=ORIENTED_EDGE('',*,*,#99,.T.);
#418=ORIENTED_EDGE('',*,*,#71,.T.);
#419=ORIENTED_EDGE('',*,*,#109,.T.);
#420=ORIENTED_EDGE('',*,*,#85,.F.);
#421=CARTESIAN_POINT('',(0.0,1.30768691946889E-014,5.96891108675439));
#422=DIRECTION('',(0.0,-0.0,1.0));
#423=DIRECTION('',(-1.0,-1.6740947790337E-016,0.0));
#424=SURFACE_STYLE_FILL_AREA(#441);
#425=ORIENTED_EDGE('',*,*,#115,.F.);
#426=ORIENTED_EDGE('',*,*,#79,.F.);
#427=ORIENTED_EDGE('',*,*,#81,.T.);
#428=ORIENTED_EDGE('',*,*,#101,.T.);
#429=CARTESIAN_POINT('',(-37.0,8.54582568554609E-015,18.0));
#430=DIRECTION('',(0.0,0.0,1.0));
#431=DIRECTION('',(-1.0,-1.22460635382238E-016,0.0));
#432=DIRECTION('',(0.866025403784435,2.51034881903208E-016,-0.500000000000006));
#433=FILL_AREA_STYLE('',(#442));
#434=FILL_AREA_STYLE('',(#443));
#435=FILL_AREA_STYLE('',(#444));
#436=FILL_AREA_STYLE('',(#445));
#437=FILL_AREA_STYLE('',(#446));
#438=FILL_AREA_STYLE('',(#447));
#439=FILL_AREA_STYLE('',(#448));
#440=FILL_AREA_STYLE('',(#449));
#441=FILL_AREA_STYLE('',(#450));
#442=FILL_AREA_STYLE_COLOUR('',#451);
#443=FILL_AREA_STYLE_COLOUR('',#452);
#444=FILL_AREA_STYLE_COLOUR('',#453);
#445=FILL_AREA_STYLE_COLOUR('',#454);
#446=FILL_AREA_STYLE_COLOUR('',#455);
#447=FILL_AREA_STYLE_COLOUR('',#456);
#448=FILL_AREA_STYLE_COLOUR('',#457);
#449=FILL_AREA_STYLE_COLOUR('',#458);
#450=FILL_AREA_STYLE_COLOUR('',#459);
#451=COLOUR_RGB('',0.509803950786591,0.509803950786591,0.588235318660736);
#452=COLOUR_RGB('',0.509803950786591,0.509803950786591,0.588235318660736);
#453=COLOUR_RGB('',0.509803950786591,0.509803950786591,0.588235318660736);
#454=COLOUR_RGB('',0.509803950786591,0.509803950786591,0.588235318660736);
#455=COLOUR_RGB('',0.509803950786591,0.509803950786591,0.588235318660736);
#456=COLOUR_RGB('',0.509803950786591,0.509803950786591,0.588235318660736);
#457=COLOUR_RGB('',0.509803950786591,0.509803950786591,0.588235318660736);
#458=COLOUR_RGB('',0.509803950786591,0.509803950786591,0.588235318660736);
#459=COLOUR_RGB('',0.509803950786591,0.509803950786591,0.588235318660736);
ENDSEC;
END-ISO-10303-21;
