ISO-10303-21;
HEADER;
FILE_DESCRIPTION(('STEP AP214'),'1');
FILE_NAME(' ','  ',('TraceParts'),('TraceParts S.A.'),'XStep 1.0',' ',' ');
FILE_SCHEMA(('automotive_design'));
ENDSEC;
DATA;
#1=MECHANICAL_DESIGN_GEOMETRIC_PRESENTATION_REPRESENTATION(' ',(#10,#11,#12,#13,#14,#15,#16,#17,#18,#19,#20,#21,#22,#23,#24,#25,#26,#27,#28,#29,#30,#31,#32,#33,#34,#35,#36,#37,#38,#39,#40,#41,#42,#43,#44),#6);
#2=PRODUCT_DEFINITION_CONTEXT('',#45,'design');
#3=APPLICATION_PROTOCOL_DEFINITION('INTERNATIONAL STANDARD','automotive_design',1994,#45);
#4=PRODUCT_CATEGORY_RELATIONSHIP('NONE','NONE',#46,#47);
#5=SHAPE_DEFINITION_REPRESENTATION(#48,#49);
#6= (GEOMETRIC_REPRESENTATION_CONTEXT(3)GLOBAL_UNCERTAINTY_ASSIGNED_CONTEXT((#52))GLOBAL_UNIT_ASSIGNED_CONTEXT((#54,#55,#56))REPRESENTATION_CONTEXT('NONE','WORKSPACE'));
#10=STYLED_ITEM('',(#58),#59);
#11=STYLED_ITEM('',(#60),#61);
#12=STYLED_ITEM('',(#62),#63);
#13=STYLED_ITEM('',(#64),#65);
#14=STYLED_ITEM('',(#66),#67);
#15=STYLED_ITEM('',(#68),#69);
#16=STYLED_ITEM('',(#70),#71);
#17=STYLED_ITEM('',(#72),#73);
#18=STYLED_ITEM('',(#74),#75);
#19=STYLED_ITEM('',(#76),#77);
#20=STYLED_ITEM('',(#78),#79);
#21=STYLED_ITEM('',(#80),#81);
#22=STYLED_ITEM('',(#82),#83);
#23=STYLED_ITEM('',(#84),#85);
#24=STYLED_ITEM('',(#86),#87);
#25=STYLED_ITEM('',(#88),#89);
#26=STYLED_ITEM('',(#90),#91);
#27=STYLED_ITEM('',(#92),#93);
#28=STYLED_ITEM('',(#94),#95);
#29=STYLED_ITEM('',(#96),#97);
#30=STYLED_ITEM('',(#98),#99);
#31=STYLED_ITEM('',(#100),#101);
#32=STYLED_ITEM('',(#102),#103);
#33=STYLED_ITEM('',(#104),#105);
#34=STYLED_ITEM('',(#106),#107);
#35=STYLED_ITEM('',(#108),#109);
#36=STYLED_ITEM('',(#110),#111);
#37=STYLED_ITEM('',(#112),#113);
#38=STYLED_ITEM('',(#114),#115);
#39=STYLED_ITEM('',(#116),#117);
#40=STYLED_ITEM('',(#118),#119);
#41=STYLED_ITEM('',(#120),#121);
#42=STYLED_ITEM('',(#122),#123);
#43=STYLED_ITEM('',(#124),#125);
#44=STYLED_ITEM('',(#126),#127);
#45=APPLICATION_CONTEXT(' ');
#46=PRODUCT_CATEGORY('part','NONE');
#47=PRODUCT_RELATED_PRODUCT_CATEGORY('detail',' ',(#128));
#48=PRODUCT_DEFINITION_SHAPE('NONE','NONE',#129);
#49=ADVANCED_BREP_SHAPE_REPRESENTATION('1',(#61,#130),#6);
#52=UNCERTAINTY_MEASURE_WITH_UNIT(LENGTH_MEASURE(1.0E-006),#54,'','');
#54= (CONVERSION_BASED_UNIT('MILLIMETRE',#133)LENGTH_UNIT()NAMED_UNIT(#136));
#55= (NAMED_UNIT(#138)PLANE_ANGLE_UNIT()SI_UNIT($,.RADIAN.));
#56= (NAMED_UNIT(#138)SOLID_ANGLE_UNIT()SI_UNIT($,.STERADIAN.));
#58=PRESENTATION_STYLE_ASSIGNMENT((#144));
#59=EDGE_CURVE('',#105,#77,#145,.T.);
#60=PRESENTATION_STYLE_ASSIGNMENT((#146));
#61=MANIFOLD_SOLID_BREP('1',#147);
#62=PRESENTATION_STYLE_ASSIGNMENT((#148));
#63=ADVANCED_FACE('',(#149),#150,.T.);
#64=PRESENTATION_STYLE_ASSIGNMENT((#151));
#65=ADVANCED_FACE('',(#152),#153,.F.);
#66=PRESENTATION_STYLE_ASSIGNMENT((#154));
#67=ADVANCED_FACE('',(#155,#156),#157,.T.);
#68=PRESENTATION_STYLE_ASSIGNMENT((#158));
#69=EDGE_CURVE('',#127,#107,#159,.T.);
#70=PRESENTATION_STYLE_ASSIGNMENT((#160));
#71=EDGE_CURVE('',#111,#127,#161,.T.);
#72=PRESENTATION_STYLE_ASSIGNMENT((#162));
#73=EDGE_CURVE('',#127,#111,#163,.T.);
#74=PRESENTATION_STYLE_ASSIGNMENT((#164));
#75=EDGE_CURVE('',#79,#109,#165,.T.);
#76=PRESENTATION_STYLE_ASSIGNMENT((#166));
#77=VERTEX_POINT('',#167);
#78=PRESENTATION_STYLE_ASSIGNMENT((#168));
#79=VERTEX_POINT('',#169);
#80=PRESENTATION_STYLE_ASSIGNMENT((#170));
#81=VERTEX_POINT('',#171);
#82=PRESENTATION_STYLE_ASSIGNMENT((#172));
#83=EDGE_CURVE('',#91,#81,#173,.T.);
#84=PRESENTATION_STYLE_ASSIGNMENT((#174));
#85=EDGE_CURVE('',#105,#121,#175,.T.);
#86=PRESENTATION_STYLE_ASSIGNMENT((#176));
#87=EDGE_CURVE('',#79,#91,#177,.T.);
#88=PRESENTATION_STYLE_ASSIGNMENT((#178));
#89=EDGE_CURVE('',#109,#79,#179,.T.);
#90=PRESENTATION_STYLE_ASSIGNMENT((#180));
#91=VERTEX_POINT('',#181);
#92=PRESENTATION_STYLE_ASSIGNMENT((#182));
#93=EDGE_CURVE('',#77,#107,#183,.T.);
#94=PRESENTATION_STYLE_ASSIGNMENT((#184));
#95=ADVANCED_FACE('',(#185),#186,.T.);
#96=PRESENTATION_STYLE_ASSIGNMENT((#187));
#97=EDGE_CURVE('',#77,#111,#188,.T.);
#98=PRESENTATION_STYLE_ASSIGNMENT((#189));
#99=EDGE_CURVE('',#107,#77,#190,.T.);
#100=PRESENTATION_STYLE_ASSIGNMENT((#191));
#101=EDGE_CURVE('',#81,#91,#192,.T.);
#102=PRESENTATION_STYLE_ASSIGNMENT((#193));
#103=ADVANCED_FACE('',(#194),#195,.F.);
#104=PRESENTATION_STYLE_ASSIGNMENT((#196));
#105=VERTEX_POINT('',#197);
#106=PRESENTATION_STYLE_ASSIGNMENT((#198));
#107=VERTEX_POINT('',#199);
#108=PRESENTATION_STYLE_ASSIGNMENT((#200));
#109=VERTEX_POINT('',#201);
#110=PRESENTATION_STYLE_ASSIGNMENT((#202));
#111=VERTEX_POINT('',#203);
#112=PRESENTATION_STYLE_ASSIGNMENT((#204));
#113=EDGE_CURVE('',#121,#105,#205,.T.);
#114=PRESENTATION_STYLE_ASSIGNMENT((#206));
#115=EDGE_CURVE('',#107,#121,#207,.T.);
#116=PRESENTATION_STYLE_ASSIGNMENT((#208));
#117=ADVANCED_FACE('',(#209),#210,.F.);
#118=PRESENTATION_STYLE_ASSIGNMENT((#211));
#119=EDGE_CURVE('',#81,#109,#212,.T.);
#120=PRESENTATION_STYLE_ASSIGNMENT((#213));
#121=VERTEX_POINT('',#214);
#122=PRESENTATION_STYLE_ASSIGNMENT((#215));
#123=ADVANCED_FACE('',(#216),#217,.F.);
#124=PRESENTATION_STYLE_ASSIGNMENT((#218));
#125=ADVANCED_FACE('',(#219,#220),#221,.T.);
#126=PRESENTATION_STYLE_ASSIGNMENT((#222));
#127=VERTEX_POINT('',#223);
#128=PRODUCT('1','1','PART-1-DESC',(#224));
#129=PRODUCT_DEFINITION('NONE','NONE',#225,#2);
#130=AXIS2_PLACEMENT_3D('',#226,#227,#228);
#133=LENGTH_MEASURE_WITH_UNIT(LENGTH_MEASURE(1.0),#229);
#136=DIMENSIONAL_EXPONENTS(1.0,0.0,0.0,0.0,0.0,0.0,0.0);
#138=DIMENSIONAL_EXPONENTS(0.0,0.0,0.0,0.0,0.0,0.0,0.0);
#144=CURVE_STYLE('',#230,POSITIVE_LENGTH_MEASURE(1.0E-006),#231);
#145=LINE('',#232,#233);
#146=SURFACE_STYLE_USAGE(.BOTH.,#234);
#147=CLOSED_SHELL('',(#103,#63,#65,#123,#125,#95,#67,#117));
#148=SURFACE_STYLE_USAGE(.BOTH.,#235);
#149=FACE_OUTER_BOUND('',#236,.T.);
#150=CYLINDRICAL_SURFACE('',#237,28.0);
#151=SURFACE_STYLE_USAGE(.BOTH.,#238);
#152=FACE_OUTER_BOUND('',#239,.T.);
#153=CONICAL_SURFACE('',#240,21.0,1.04719755119659);
#154=SURFACE_STYLE_USAGE(.BOTH.,#241);
#155=FACE_BOUND('',#242,.T.);
#156=FACE_OUTER_BOUND('',#243,.T.);
#157=PLANE('',#244);
#158=CURVE_STYLE('',#245,POSITIVE_LENGTH_MEASURE(1.0E-006),#246);
#159=LINE('',#247,#248);
#160=CURVE_STYLE('',#249,POSITIVE_LENGTH_MEASURE(1.0E-006),#250);
#161=CIRCLE('',#251,17.5);
#162=CURVE_STYLE('',#252,POSITIVE_LENGTH_MEASURE(1.0E-006),#253);
#163=CIRCLE('',#254,17.5);
#164=CURVE_STYLE('',#255,POSITIVE_LENGTH_MEASURE(1.0E-006),#256);
#165=CIRCLE('',#257,28.0);
#166=POINT_STYLE(' ',#258,POSITIVE_LENGTH_MEASURE(1.0E-006),#259);
#167=CARTESIAN_POINT('',(-17.5,1.00740455157778E-014,7.95854811567253));
#168=POINT_STYLE(' ',#260,POSITIVE_LENGTH_MEASURE(1.0E-006),#261);
#169=CARTESIAN_POINT('',(28.0,2.04970246837353E-014,-2.8421709430404E-014));
#170=POINT_STYLE(' ',#262,POSITIVE_LENGTH_MEASURE(1.0E-006),#263);
#171=CARTESIAN_POINT('',(-28.0,9.03566822707504E-015,12.0));
#172=CURVE_STYLE('',#264,POSITIVE_LENGTH_MEASURE(1.0E-006),#265);
#173=CIRCLE('',#266,28.0);
#174=CURVE_STYLE('',#267,POSITIVE_LENGTH_MEASURE(1.0E-006),#268);
#175=CIRCLE('',#269,24.5);
#176=CURVE_STYLE('',#270,POSITIVE_LENGTH_MEASURE(1.0E-006),#271);
#177=LINE('',#272,#273);
#178=CURVE_STYLE('',#274,POSITIVE_LENGTH_MEASURE(1.0E-006),#275);
#179=CIRCLE('',#276,28.0);
#180=POINT_STYLE(' ',#277,POSITIVE_LENGTH_MEASURE(1.0E-006),#278);
#181=CARTESIAN_POINT('',(28.0,2.04970246837353E-014,12.0));
#182=CURVE_STYLE('',#279,POSITIVE_LENGTH_MEASURE(1.0E-006),#280);
#183=CIRCLE('',#281,17.5);
#184=SURFACE_STYLE_USAGE(.BOTH.,#282);
#185=FACE_OUTER_BOUND('',#283,.T.);
#186=CYLINDRICAL_SURFACE('',#284,28.0);
#187=CURVE_STYLE('',#285,POSITIVE_LENGTH_MEASURE(1.0E-006),#286);
#188=LINE('',#287,#288);
#189=CURVE_STYLE('',#289,POSITIVE_LENGTH_MEASURE(1.0E-006),#290);
#190=CIRCLE('',#291,17.5);
#191=CURVE_STYLE('',#292,POSITIVE_LENGTH_MEASURE(1.0E-006),#293);
#192=CIRCLE('',#294,28.0);
#193=SURFACE_STYLE_USAGE(.BOTH.,#295);
#194=FACE_OUTER_BOUND('',#296,.T.);
#195=CYLINDRICAL_SURFACE('',#297,17.5);
#196=POINT_STYLE(' ',#298,POSITIVE_LENGTH_MEASURE(1.0E-006),#299);
#197=CARTESIAN_POINT('',(-24.5,9.46428045091288E-015,12.0));
#198=POINT_STYLE(' ',#300,POSITIVE_LENGTH_MEASURE(1.0E-006),#301);
#199=CARTESIAN_POINT('',(17.5,1.74848526840012E-014,7.95854811567253));
#200=POINT_STYLE(' ',#302,POSITIVE_LENGTH_MEASURE(1.0E-006),#303);
#201=CARTESIAN_POINT('',(-28.0,8.30090441478162E-015,-2.8421709430404E-014));
#202=POINT_STYLE(' ',#304,POSITIVE_LENGTH_MEASURE(1.0E-006),#305);
#203=CARTESIAN_POINT('',(-17.5,9.58674108629511E-015,-2.8421709430404E-014));
#204=CURVE_STYLE('',#306,POSITIVE_LENGTH_MEASURE(1.0E-006),#307);
#205=CIRCLE('',#308,24.5);
#206=CURVE_STYLE('',#309,POSITIVE_LENGTH_MEASURE(1.0E-006),#310);
#207=LINE('',#311,#312);
#208=SURFACE_STYLE_USAGE(.BOTH.,#313);
#209=FACE_OUTER_BOUND('',#314,.T.);
#210=CYLINDRICAL_SURFACE('',#315,17.5);
#211=CURVE_STYLE('',#316,POSITIVE_LENGTH_MEASURE(1.0E-006),#317);
#212=LINE('',#318,#319);
#213=POINT_STYLE(' ',#320,POSITIVE_LENGTH_MEASURE(1.0E-006),#321);
#214=CARTESIAN_POINT('',(24.5,1.94929673504906E-014,12.0));
#215=SURFACE_STYLE_USAGE(.BOTH.,#322);
#216=FACE_OUTER_BOUND('',#323,.T.);
#217=CONICAL_SURFACE('',#324,21.0,1.04719755119659);
#218=SURFACE_STYLE_USAGE(.BOTH.,#325);
#219=FACE_OUTER_BOUND('',#326,.T.);
#220=FACE_BOUND('',#327,.T.);
#221=PLANE('',#328);
#222=POINT_STYLE(' ',#329,POSITIVE_LENGTH_MEASURE(1.0E-006),#330);
#223=CARTESIAN_POINT('',(17.5,1.74848526840012E-014,-2.8421709430404E-014));
#224=PRODUCT_CONTEXT('',#45,'mechanical');
#225=PRODUCT_DEFINITION_FORMATION_WITH_SPECIFIED_SOURCE(' ','NONE',#128,.NOT_KNOWN.);
#226=CARTESIAN_POINT('',(0.0,0.0,0.0));
#227=DIRECTION('',(0.0,0.0,1.0));
#228=DIRECTION('',(1.0,0.0,0.0));
#229= (NAMED_UNIT(#136)LENGTH_UNIT()SI_UNIT(.MILLI.,.METRE.));
#230=DRAUGHTING_PRE_DEFINED_CURVE_FONT('continuous');
#231=COLOUR_RGB('',0.509803950786591,0.509803950786591,0.588235318660736);
#232=CARTESIAN_POINT('',(-21.0,6.44022201830953E-015,9.97927405783625));
#233=VECTOR('',#332,1.0);
#234=SURFACE_SIDE_STYLE('',(#333));
#235=SURFACE_SIDE_STYLE('',(#334));
#236=EDGE_LOOP('',(#335,#336,#337,#338));
#237=AXIS2_PLACEMENT_3D('',#339,#340,#341);
#238=SURFACE_SIDE_STYLE('',(#342));
#239=EDGE_LOOP('',(#343,#344,#345,#346));
#240=AXIS2_PLACEMENT_3D('',#347,#348,#349);
#241=SURFACE_SIDE_STYLE('',(#350));
#242=EDGE_LOOP('',(#351,#352));
#243=EDGE_LOOP('',(#353,#354));
#244=AXIS2_PLACEMENT_3D('',#355,#356,#357);
#245=DRAUGHTING_PRE_DEFINED_CURVE_FONT('continuous');
#246=COLOUR_RGB('',0.509803950786591,0.509803950786591,0.588235318660736);
#247=CARTESIAN_POINT('',(17.5,1.74848526840012E-014,3.97927405783625));
#248=VECTOR('',#358,1.0);
#249=DRAUGHTING_PRE_DEFINED_CURVE_FONT('continuous');
#250=COLOUR_RGB('',0.509803950786591,0.509803950786591,0.588235318660736);
#251=AXIS2_PLACEMENT_3D('',#359,#360,#361);
#252=DRAUGHTING_PRE_DEFINED_CURVE_FONT('continuous');
#253=COLOUR_RGB('',0.509803950786591,0.509803950786591,0.588235318660736);
#254=AXIS2_PLACEMENT_3D('',#362,#363,#364);
#255=DRAUGHTING_PRE_DEFINED_CURVE_FONT('continuous');
#256=COLOUR_RGB('',0.509803950786591,0.509803950786591,0.588235318660736);
#257=AXIS2_PLACEMENT_3D('',#365,#366,#367);
#258=PRE_DEFINED_MARKER('');
#259=COLOUR_RGB('',0.509803950786591,0.509803950786591,0.588235318660736);
#260=PRE_DEFINED_MARKER('');
#261=COLOUR_RGB('',0.509803950786591,0.509803950786591,0.588235318660736);
#262=PRE_DEFINED_MARKER('');
#263=COLOUR_RGB('',0.509803950786591,0.509803950786591,0.588235318660736);
#264=DRAUGHTING_PRE_DEFINED_CURVE_FONT('continuous');
#265=COLOUR_RGB('',0.509803950786591,0.509803950786591,0.588235318660736);
#266=AXIS2_PLACEMENT_3D('',#368,#369,#370);
#267=DRAUGHTING_PRE_DEFINED_CURVE_FONT('continuous');
#268=COLOUR_RGB('',0.509803950786591,0.509803950786591,0.588235318660736);
#269=AXIS2_PLACEMENT_3D('',#371,#372,#373);
#270=DRAUGHTING_PRE_DEFINED_CURVE_FONT('continuous');
#271=COLOUR_RGB('',0.509803950786591,0.509803950786591,0.588235318660736);
#272=CARTESIAN_POINT('',(28.0,2.04970246837353E-014,5.99999999999997));
#273=VECTOR('',#374,1.0);
#274=DRAUGHTING_PRE_DEFINED_CURVE_FONT('continuous');
#275=COLOUR_RGB('',0.509803950786591,0.509803950786591,0.588235318660736);
#276=AXIS2_PLACEMENT_3D('',#375,#376,#377);
#277=PRE_DEFINED_MARKER('');
#278=COLOUR_RGB('',0.509803950786591,0.509803950786591,0.588235318660736);
#279=DRAUGHTING_PRE_DEFINED_CURVE_FONT('continuous');
#280=COLOUR_RGB('',0.509803950786591,0.509803950786591,0.588235318660736);
#281=AXIS2_PLACEMENT_3D('',#378,#379,#380);
#282=SURFACE_SIDE_STYLE('',(#381));
#283=EDGE_LOOP('',(#382,#383,#384,#385));
#284=AXIS2_PLACEMENT_3D('',#386,#387,#388);
#285=DRAUGHTING_PRE_DEFINED_CURVE_FONT('continuous');
#286=COLOUR_RGB('',0.509803950786591,0.509803950786591,0.588235318660736);
#287=CARTESIAN_POINT('',(-17.5,7.44427935155422E-015,3.97927405783625));
#288=VECTOR('',#389,1.0);
#289=DRAUGHTING_PRE_DEFINED_CURVE_FONT('continuous');
#290=COLOUR_RGB('',0.509803950786591,0.509803950786591,0.588235318660736);
#291=AXIS2_PLACEMENT_3D('',#390,#391,#392);
#292=DRAUGHTING_PRE_DEFINED_CURVE_FONT('continuous');
#293=COLOUR_RGB('',0.509803950786591,0.509803950786591,0.588235318660736);
#294=AXIS2_PLACEMENT_3D('',#393,#394,#395);
#295=SURFACE_SIDE_STYLE('',(#396));
#296=EDGE_LOOP('',(#397,#398,#399,#400));
#297=AXIS2_PLACEMENT_3D('',#401,#402,#403);
#298=PRE_DEFINED_MARKER('');
#299=COLOUR_RGB('',0.509803950786591,0.509803950786591,0.588235318660736);
#300=PRE_DEFINED_MARKER('');
#301=COLOUR_RGB('',0.509803950786591,0.509803950786591,0.588235318660736);
#302=PRE_DEFINED_MARKER('');
#303=COLOUR_RGB('',0.509803950786591,0.509803950786591,0.588235318660736);
#304=PRE_DEFINED_MARKER('');
#305=COLOUR_RGB('',0.509803950786591,0.509803950786591,0.588235318660736);
#306=DRAUGHTING_PRE_DEFINED_CURVE_FONT('continuous');
#307=COLOUR_RGB('',0.509803950786591,0.509803950786591,0.588235318660736);
#308=AXIS2_PLACEMENT_3D('',#404,#405,#406);
#309=DRAUGHTING_PRE_DEFINED_CURVE_FONT('continuous');
#310=COLOUR_RGB('',0.509803950786591,0.509803950786591,0.588235318660736);
#311=CARTESIAN_POINT('',(21.0,1.84889100172459E-014,9.97927405783625));
#312=VECTOR('',#407,1.0);
#313=SURFACE_SIDE_STYLE('',(#408));
#314=EDGE_LOOP('',(#409,#410,#411,#412));
#315=AXIS2_PLACEMENT_3D('',#413,#414,#415);
#316=DRAUGHTING_PRE_DEFINED_CURVE_FONT('continuous');
#317=COLOUR_RGB('',0.509803950786591,0.509803950786591,0.588235318660736);
#318=CARTESIAN_POINT('',(-28.0,4.43210735182013E-015,5.99999999999997));
#319=VECTOR('',#416,1.0);
#320=PRE_DEFINED_MARKER('');
#321=COLOUR_RGB('',0.509803950786591,0.509803950786591,0.588235318660736);
#322=SURFACE_SIDE_STYLE('',(#417));
#323=EDGE_LOOP('',(#418,#419,#420,#421));
#324=AXIS2_PLACEMENT_3D('',#422,#423,#424);
#325=SURFACE_SIDE_STYLE('',(#425));
#326=EDGE_LOOP('',(#426,#427));
#327=EDGE_LOOP('',(#428,#429));
#328=AXIS2_PLACEMENT_3D('',#430,#431,#432);
#329=PRE_DEFINED_MARKER('');
#330=COLOUR_RGB('',0.509803950786591,0.509803950786591,0.588235318660736);
#332=DIRECTION('',(0.866025403784435,2.48439759270275E-016,-0.500000000000006));
#333=SURFACE_STYLE_FILL_AREA(#433);
#334=SURFACE_STYLE_FILL_AREA(#434);
#335=ORIENTED_EDGE('',*,*,#119,.F.);
#336=ORIENTED_EDGE('',*,*,#101,.T.);
#337=ORIENTED_EDGE('',*,*,#87,.F.);
#338=ORIENTED_EDGE('',*,*,#89,.F.);
#339=CARTESIAN_POINT('',(0.0,1.24645660177777E-014,5.99999999999997));
#340=DIRECTION('',(0.0,-0.0,1.0));
#341=DIRECTION('',(-1.0,-1.64412888401961E-016,0.0));
#342=SURFACE_STYLE_FILL_AREA(#435);
#343=ORIENTED_EDGE('',*,*,#59,.F.);
#344=ORIENTED_EDGE('',*,*,#113,.F.);
#345=ORIENTED_EDGE('',*,*,#115,.F.);
#346=ORIENTED_EDGE('',*,*,#99,.T.);
#347=CARTESIAN_POINT('',(0.0,1.24645660177777E-014,9.97927405783625));
#348=DIRECTION('',(0.0,-0.0,1.0));
#349=DIRECTION('',(-1.0,-1.64412888401961E-016,0.0));
#350=SURFACE_STYLE_FILL_AREA(#436);
#351=ORIENTED_EDGE('',*,*,#71,.F.);
#352=ORIENTED_EDGE('',*,*,#73,.F.);
#353=ORIENTED_EDGE('',*,*,#89,.T.);
#354=ORIENTED_EDGE('',*,*,#75,.T.);
#355=CARTESIAN_POINT('',(-22.75,8.94382275053837E-015,-2.8421709430404E-014));
#356=DIRECTION('',(0.0,0.0,-1.0));
#357=DIRECTION('',(1.0,1.22460635382238E-016,0.0));
#358=DIRECTION('',(0.0,0.0,1.0));
#359=CARTESIAN_POINT('',(0.0,1.24645660177777E-014,-2.8421709430404E-014));
#360=DIRECTION('',(-0.0,0.0,-1.0));
#361=DIRECTION('',(-1.0,-1.64412888401961E-016,0.0));
#362=CARTESIAN_POINT('',(0.0,1.24645660177777E-014,-2.8421709430404E-014));
#363=DIRECTION('',(-0.0,0.0,-1.0));
#364=DIRECTION('',(-1.0,-1.64412888401961E-016,0.0));
#365=CARTESIAN_POINT('',(0.0,1.24645660177777E-014,-2.8421709430404E-014));
#366=DIRECTION('',(-0.0,0.0,-1.0));
#367=DIRECTION('',(-1.0,-1.64412888401961E-016,0.0));
#368=CARTESIAN_POINT('',(0.0,1.24645660177777E-014,12.0));
#369=DIRECTION('',(-0.0,0.0,-1.0));
#370=DIRECTION('',(-1.0,-1.64412888401961E-016,0.0));
#371=CARTESIAN_POINT('',(0.0,1.24645660177777E-014,12.0));
#372=DIRECTION('',(-0.0,0.0,-1.0));
#373=DIRECTION('',(-1.0,-1.64412888401961E-016,0.0));
#374=DIRECTION('',(-0.0,-0.0,1.0));
#375=CARTESIAN_POINT('',(0.0,1.24645660177777E-014,-2.8421709430404E-014));
#376=DIRECTION('',(-0.0,0.0,-1.0));
#377=DIRECTION('',(-1.0,-1.64412888401961E-016,0.0));
#378=CARTESIAN_POINT('',(0.0,1.24645660177777E-014,7.95854811567253));
#379=DIRECTION('',(-0.0,0.0,-1.0));
#380=DIRECTION('',(-1.0,-1.64412888401961E-016,0.0));
#381=SURFACE_STYLE_FILL_AREA(#437);
#382=ORIENTED_EDGE('',*,*,#119,.T.);
#383=ORIENTED_EDGE('',*,*,#75,.F.);
#384=ORIENTED_EDGE('',*,*,#87,.T.);
#385=ORIENTED_EDGE('',*,*,#83,.T.);
#386=CARTESIAN_POINT('',(0.0,1.24645660177777E-014,5.99999999999997));
#387=DIRECTION('',(0.0,-0.0,1.0));
#388=DIRECTION('',(-1.0,-1.64412888401961E-016,0.0));
#389=DIRECTION('',(0.0,0.0,-1.0));
#390=CARTESIAN_POINT('',(0.0,1.24645660177777E-014,7.95854811567253));
#391=DIRECTION('',(-0.0,0.0,-1.0));
#392=DIRECTION('',(-1.0,-1.64412888401961E-016,0.0));
#393=CARTESIAN_POINT('',(0.0,1.24645660177777E-014,12.0));
#394=DIRECTION('',(-0.0,0.0,-1.0));
#395=DIRECTION('',(-1.0,-1.64412888401961E-016,0.0));
#396=SURFACE_STYLE_FILL_AREA(#438);
#397=ORIENTED_EDGE('',*,*,#97,.F.);
#398=ORIENTED_EDGE('',*,*,#99,.F.);
#399=ORIENTED_EDGE('',*,*,#69,.F.);
#400=ORIENTED_EDGE('',*,*,#73,.T.);
#401=CARTESIAN_POINT('',(0.0,1.24645660177777E-014,3.97927405783625));
#402=DIRECTION('',(0.0,-0.0,1.0));
#403=DIRECTION('',(-1.0,-1.64412888401961E-016,0.0));
#404=CARTESIAN_POINT('',(0.0,1.24645660177777E-014,12.0));
#405=DIRECTION('',(-0.0,0.0,-1.0));
#406=DIRECTION('',(-1.0,-1.64412888401961E-016,0.0));
#407=DIRECTION('',(0.866025403784435,2.48439759270275E-016,0.500000000000006));
#408=SURFACE_STYLE_FILL_AREA(#439);
#409=ORIENTED_EDGE('',*,*,#97,.T.);
#410=ORIENTED_EDGE('',*,*,#71,.T.);
#411=ORIENTED_EDGE('',*,*,#69,.T.);
#412=ORIENTED_EDGE('',*,*,#93,.F.);
#413=CARTESIAN_POINT('',(0.0,1.24645660177777E-014,3.97927405783625));
#414=DIRECTION('',(0.0,-0.0,1.0));
#415=DIRECTION('',(-1.0,-1.64412888401961E-016,0.0));
#416=DIRECTION('',(0.0,0.0,-1.0));
#417=SURFACE_STYLE_FILL_AREA(#440);
#418=ORIENTED_EDGE('',*,*,#59,.T.);
#419=ORIENTED_EDGE('',*,*,#93,.T.);
#420=ORIENTED_EDGE('',*,*,#115,.T.);
#421=ORIENTED_EDGE('',*,*,#85,.F.);
#422=CARTESIAN_POINT('',(0.0,1.24645660177777E-014,9.97927405783625));
#423=DIRECTION('',(0.0,-0.0,1.0));
#424=DIRECTION('',(-1.0,-1.64412888401961E-016,0.0));
#425=SURFACE_STYLE_FILL_AREA(#441);
#426=ORIENTED_EDGE('',*,*,#101,.F.);
#427=ORIENTED_EDGE('',*,*,#83,.F.);
#428=ORIENTED_EDGE('',*,*,#85,.T.);
#429=ORIENTED_EDGE('',*,*,#113,.T.);
#430=CARTESIAN_POINT('',(-26.25,9.24997433899396E-015,12.0));
#431=DIRECTION('',(0.0,0.0,1.0));
#432=DIRECTION('',(-1.0,-1.22460635382238E-016,0.0));
#433=FILL_AREA_STYLE('',(#442));
#434=FILL_AREA_STYLE('',(#443));
#435=FILL_AREA_STYLE('',(#444));
#436=FILL_AREA_STYLE('',(#445));
#437=FILL_AREA_STYLE('',(#446));
#438=FILL_AREA_STYLE('',(#447));
#439=FILL_AREA_STYLE('',(#448));
#440=FILL_AREA_STYLE('',(#449));
#441=FILL_AREA_STYLE('',(#450));
#442=FILL_AREA_STYLE_COLOUR('',#451);
#443=FILL_AREA_STYLE_COLOUR('',#452);
#444=FILL_AREA_STYLE_COLOUR('',#453);
#445=FILL_AREA_STYLE_COLOUR('',#454);
#446=FILL_AREA_STYLE_COLOUR('',#455);
#447=FILL_AREA_STYLE_COLOUR('',#456);
#448=FILL_AREA_STYLE_COLOUR('',#457);
#449=FILL_AREA_STYLE_COLOUR('',#458);
#450=FILL_AREA_STYLE_COLOUR('',#459);
#451=COLOUR_RGB('',0.509803950786591,0.509803950786591,0.588235318660736);
#452=COLOUR_RGB('',0.509803950786591,0.509803950786591,0.588235318660736);
#453=COLOUR_RGB('',0.509803950786591,0.509803950786591,0.588235318660736);
#454=COLOUR_RGB('',0.509803950786591,0.509803950786591,0.588235318660736);
#455=COLOUR_RGB('',0.509803950786591,0.509803950786591,0.588235318660736);
#456=COLOUR_RGB('',0.509803950786591,0.509803950786591,0.588235318660736);
#457=COLOUR_RGB('',0.509803950786591,0.509803950786591,0.588235318660736);
#458=COLOUR_RGB('',0.509803950786591,0.509803950786591,0.588235318660736);
#459=COLOUR_RGB('',0.509803950786591,0.509803950786591,0.588235318660736);
ENDSEC;
END-ISO-10303-21;
