ISO-10303-21;
HEADER;
FILE_DESCRIPTION(('STEP AP214'),'1');
FILE_NAME(' ','  ',('TraceParts'),('TraceParts S.A.'),'XStep 1.0',' ',' ');
FILE_SCHEMA(('automotive_design'));
ENDSEC;
DATA;
#1=MECHANICAL_DESIGN_GEOMETRIC_PRESENTATION_REPRESENTATION(' ',(#10,#11,#12,#13,#14,#15,#16,#17,#18,#19,#20,#21,#22,#23,#24,#25,#26,#27,#28,#29,#30,#31,#32,#33,#34,#35,#36,#37,#38,#39,#40,#41,#42,#43,#44),#6);
#2=PRODUCT_DEFINITION_CONTEXT('',#45,'design');
#3=APPLICATION_PROTOCOL_DEFINITION('INTERNATIONAL STANDARD','automotive_design',1994,#45);
#4=PRODUCT_CATEGORY_RELATIONSHIP('NONE','NONE',#46,#47);
#5=SHAPE_DEFINITION_REPRESENTATION(#48,#49);
#6= (GEOMETRIC_REPRESENTATION_CONTEXT(3)GLOBAL_UNCERTAINTY_ASSIGNED_CONTEXT((#52))GLOBAL_UNIT_ASSIGNED_CONTEXT((#54,#55,#56))REPRESENTATION_CONTEXT('NONE','WORKSPACE'));
#10=STYLED_ITEM('',(#58),#59);
#11=STYLED_ITEM('',(#60),#61);
#12=STYLED_ITEM('',(#62),#63);
#13=STYLED_ITEM('',(#64),#65);
#14=STYLED_ITEM('',(#66),#67);
#15=STYLED_ITEM('',(#68),#69);
#16=STYLED_ITEM('',(#70),#71);
#17=STYLED_ITEM('',(#72),#73);
#18=STYLED_ITEM('',(#74),#75);
#19=STYLED_ITEM('',(#76),#77);
#20=STYLED_ITEM('',(#78),#79);
#21=STYLED_ITEM('',(#80),#81);
#22=STYLED_ITEM('',(#82),#83);
#23=STYLED_ITEM('',(#84),#85);
#24=STYLED_ITEM('',(#86),#87);
#25=STYLED_ITEM('',(#88),#89);
#26=STYLED_ITEM('',(#90),#91);
#27=STYLED_ITEM('',(#92),#93);
#28=STYLED_ITEM('',(#94),#95);
#29=STYLED_ITEM('',(#96),#97);
#30=STYLED_ITEM('',(#98),#99);
#31=STYLED_ITEM('',(#100),#101);
#32=STYLED_ITEM('',(#102),#103);
#33=STYLED_ITEM('',(#104),#105);
#34=STYLED_ITEM('',(#106),#107);
#35=STYLED_ITEM('',(#108),#109);
#36=STYLED_ITEM('',(#110),#111);
#37=STYLED_ITEM('',(#112),#113);
#38=STYLED_ITEM('',(#114),#115);
#39=STYLED_ITEM('',(#116),#117);
#40=STYLED_ITEM('',(#118),#119);
#41=STYLED_ITEM('',(#120),#121);
#42=STYLED_ITEM('',(#122),#123);
#43=STYLED_ITEM('',(#124),#125);
#44=STYLED_ITEM('',(#126),#127);
#45=APPLICATION_CONTEXT(' ');
#46=PRODUCT_CATEGORY('part','NONE');
#47=PRODUCT_RELATED_PRODUCT_CATEGORY('detail',' ',(#128));
#48=PRODUCT_DEFINITION_SHAPE('NONE','NONE',#129);
#49=ADVANCED_BREP_SHAPE_REPRESENTATION('1',(#63,#130),#6);
#52=UNCERTAINTY_MEASURE_WITH_UNIT(LENGTH_MEASURE(1.0E-006),#54,'','');
#54= (CONVERSION_BASED_UNIT('MILLIMETRE',#133)LENGTH_UNIT()NAMED_UNIT(#136));
#55= (NAMED_UNIT(#138)PLANE_ANGLE_UNIT()SI_UNIT($,.RADIAN.));
#56= (NAMED_UNIT(#138)SOLID_ANGLE_UNIT()SI_UNIT($,.STERADIAN.));
#58=PRESENTATION_STYLE_ASSIGNMENT((#144));
#59=VERTEX_POINT('',#145);
#60=PRESENTATION_STYLE_ASSIGNMENT((#146));
#61=EDGE_CURVE('',#95,#67,#147,.T.);
#62=PRESENTATION_STYLE_ASSIGNMENT((#148));
#63=MANIFOLD_SOLID_BREP('1',#149);
#64=PRESENTATION_STYLE_ASSIGNMENT((#150));
#65=EDGE_CURVE('',#111,#71,#151,.T.);
#66=PRESENTATION_STYLE_ASSIGNMENT((#152));
#67=VERTEX_POINT('',#153);
#68=PRESENTATION_STYLE_ASSIGNMENT((#154));
#69=ADVANCED_FACE('',(#155),#156,.F.);
#70=PRESENTATION_STYLE_ASSIGNMENT((#157));
#71=VERTEX_POINT('',#158);
#72=PRESENTATION_STYLE_ASSIGNMENT((#159));
#73=ADVANCED_FACE('',(#160,#161),#162,.T.);
#74=PRESENTATION_STYLE_ASSIGNMENT((#163));
#75=EDGE_CURVE('',#123,#85,#164,.T.);
#76=PRESENTATION_STYLE_ASSIGNMENT((#165));
#77=ADVANCED_FACE('',(#166),#167,.F.);
#78=PRESENTATION_STYLE_ASSIGNMENT((#168));
#79=EDGE_CURVE('',#85,#123,#169,.T.);
#80=PRESENTATION_STYLE_ASSIGNMENT((#170));
#81=EDGE_CURVE('',#59,#119,#171,.T.);
#82=PRESENTATION_STYLE_ASSIGNMENT((#172));
#83=EDGE_CURVE('',#117,#87,#173,.T.);
#84=PRESENTATION_STYLE_ASSIGNMENT((#174));
#85=VERTEX_POINT('',#175);
#86=PRESENTATION_STYLE_ASSIGNMENT((#176));
#87=VERTEX_POINT('',#177);
#88=PRESENTATION_STYLE_ASSIGNMENT((#178));
#89=EDGE_CURVE('',#87,#117,#179,.T.);
#90=PRESENTATION_STYLE_ASSIGNMENT((#180));
#91=ADVANCED_FACE('',(#181),#182,.T.);
#92=PRESENTATION_STYLE_ASSIGNMENT((#183));
#93=EDGE_CURVE('',#117,#119,#184,.T.);
#94=PRESENTATION_STYLE_ASSIGNMENT((#185));
#95=VERTEX_POINT('',#186);
#96=PRESENTATION_STYLE_ASSIGNMENT((#187));
#97=EDGE_CURVE('',#87,#95,#188,.T.);
#98=PRESENTATION_STYLE_ASSIGNMENT((#189));
#99=EDGE_CURVE('',#67,#95,#190,.T.);
#100=PRESENTATION_STYLE_ASSIGNMENT((#191));
#101=EDGE_CURVE('',#111,#123,#192,.T.);
#102=PRESENTATION_STYLE_ASSIGNMENT((#193));
#103=EDGE_CURVE('',#67,#117,#194,.T.);
#104=PRESENTATION_STYLE_ASSIGNMENT((#195));
#105=EDGE_CURVE('',#119,#59,#196,.T.);
#106=PRESENTATION_STYLE_ASSIGNMENT((#197));
#107=ADVANCED_FACE('',(#198,#199),#200,.T.);
#108=PRESENTATION_STYLE_ASSIGNMENT((#201));
#109=ADVANCED_FACE('',(#202),#203,.F.);
#110=PRESENTATION_STYLE_ASSIGNMENT((#204));
#111=VERTEX_POINT('',#205);
#112=PRESENTATION_STYLE_ASSIGNMENT((#206));
#113=ADVANCED_FACE('',(#207),#208,.T.);
#114=PRESENTATION_STYLE_ASSIGNMENT((#209));
#115=ADVANCED_FACE('',(#210),#211,.F.);
#116=PRESENTATION_STYLE_ASSIGNMENT((#212));
#117=VERTEX_POINT('',#213);
#118=PRESENTATION_STYLE_ASSIGNMENT((#214));
#119=VERTEX_POINT('',#215);
#120=PRESENTATION_STYLE_ASSIGNMENT((#216));
#121=EDGE_CURVE('',#71,#111,#217,.T.);
#122=PRESENTATION_STYLE_ASSIGNMENT((#218));
#123=VERTEX_POINT('',#219);
#124=PRESENTATION_STYLE_ASSIGNMENT((#220));
#125=EDGE_CURVE('',#59,#87,#221,.T.);
#126=PRESENTATION_STYLE_ASSIGNMENT((#222));
#127=EDGE_CURVE('',#85,#71,#223,.T.);
#128=PRODUCT('1','1','PART-1-DESC',(#224));
#129=PRODUCT_DEFINITION('NONE','NONE',#225,#2);
#130=AXIS2_PLACEMENT_3D('',#226,#227,#228);
#133=LENGTH_MEASURE_WITH_UNIT(LENGTH_MEASURE(1.0),#229);
#136=DIMENSIONAL_EXPONENTS(1.0,0.0,0.0,0.0,0.0,0.0,0.0);
#138=DIMENSIONAL_EXPONENTS(0.0,0.0,0.0,0.0,0.0,0.0,0.0);
#144=POINT_STYLE(' ',#230,POSITIVE_LENGTH_MEASURE(1.0E-006),#231);
#145=CARTESIAN_POINT('',(-13.0,9.99086118305649E-015,6.19999999999996));
#146=CURVE_STYLE('',#232,POSITIVE_LENGTH_MEASURE(1.0E-006),#233);
#147=CIRCLE('',#234,9.5);
#148=SURFACE_STYLE_USAGE(.BOTH.,#235);
#149=CLOSED_SHELL('',(#69,#113,#115,#77,#107,#91,#73,#109));
#150=CURVE_STYLE('',#236,POSITIVE_LENGTH_MEASURE(1.0E-006),#237);
#151=CIRCLE('',#238,15.0);
#152=POINT_STYLE(' ',#239,POSITIVE_LENGTH_MEASURE(1.0E-006),#240);
#153=CARTESIAN_POINT('',(9.5,1.42889147300908E-014,-2.8421709430404E-014));
#154=SURFACE_STYLE_USAGE(.BOTH.,#241);
#155=FACE_OUTER_BOUND('',#242,.T.);
#156=CYLINDRICAL_SURFACE('',#243,9.5);
#157=POINT_STYLE(' ',#244,POSITIVE_LENGTH_MEASURE(1.0E-006),#245);
#158=CARTESIAN_POINT('',(-15.0,9.36631194260708E-015,-2.8421709430404E-014));
#159=SURFACE_STYLE_USAGE(.BOTH.,#246);
#160=FACE_BOUND('',#247,.T.);
#161=FACE_OUTER_BOUND('',#248,.T.);
#162=PLANE('',#249);
#163=CURVE_STYLE('',#250,POSITIVE_LENGTH_MEASURE(1.0E-006),#251);
#164=CIRCLE('',#252,15.0);
#165=SURFACE_STYLE_USAGE(.BOTH.,#253);
#166=FACE_OUTER_BOUND('',#254,.T.);
#167=CONICAL_SURFACE('',#255,11.25,1.04719755119659);
#168=CURVE_STYLE('',#256,POSITIVE_LENGTH_MEASURE(1.0E-006),#257);
#169=CIRCLE('',#258,15.0);
#170=CURVE_STYLE('',#259,POSITIVE_LENGTH_MEASURE(1.0E-006),#260);
#171=CIRCLE('',#261,13.0);
#172=CURVE_STYLE('',#262,POSITIVE_LENGTH_MEASURE(1.0E-006),#263);
#173=CIRCLE('',#264,9.5);
#174=POINT_STYLE(' ',#265,POSITIVE_LENGTH_MEASURE(1.0E-006),#266);
#175=CARTESIAN_POINT('',(-15.0,9.74593991229201E-015,6.19999999999996));
#176=POINT_STYLE(' ',#267,POSITIVE_LENGTH_MEASURE(1.0E-006),#268);
#177=CARTESIAN_POINT('',(-9.5,1.0295743715489E-014,4.17927405783621));
#178=CURVE_STYLE('',#269,POSITIVE_LENGTH_MEASURE(1.0E-006),#270);
#179=CIRCLE('',#271,9.5);
#180=SURFACE_STYLE_USAGE(.BOTH.,#272);
#181=FACE_OUTER_BOUND('',#273,.T.);
#182=CYLINDRICAL_SURFACE('',#274,15.0);
#183=CURVE_STYLE('',#275,POSITIVE_LENGTH_MEASURE(1.0E-006),#276);
#184=LINE('',#277,#278);
#185=POINT_STYLE(' ',#279,POSITIVE_LENGTH_MEASURE(1.0E-006),#280);
#186=CARTESIAN_POINT('',(-9.5,1.00398454372094E-014,-2.8421709430404E-014));
#187=CURVE_STYLE('',#281,POSITIVE_LENGTH_MEASURE(1.0E-006),#282);
#188=LINE('',#283,#284);
#189=CURVE_STYLE('',#285,POSITIVE_LENGTH_MEASURE(1.0E-006),#286);
#190=CIRCLE('',#287,9.5);
#191=CURVE_STYLE('',#288,POSITIVE_LENGTH_MEASURE(1.0E-006),#289);
#192=LINE('',#290,#291);
#193=CURVE_STYLE('',#292,POSITIVE_LENGTH_MEASURE(1.0E-006),#293);
#194=LINE('',#294,#295);
#195=CURVE_STYLE('',#296,POSITIVE_LENGTH_MEASURE(1.0E-006),#297);
#196=CIRCLE('',#298,13.0);
#197=SURFACE_STYLE_USAGE(.BOTH.,#299);
#198=FACE_OUTER_BOUND('',#300,.T.);
#199=FACE_BOUND('',#301,.T.);
#200=PLANE('',#302);
#201=SURFACE_STYLE_USAGE(.BOTH.,#303);
#202=FACE_OUTER_BOUND('',#304,.T.);
#203=CYLINDRICAL_SURFACE('',#305,9.5);
#204=POINT_STYLE(' ',#306,POSITIVE_LENGTH_MEASURE(1.0E-006),#307);
#205=CARTESIAN_POINT('',(15.0,1.58555841068127E-014,-2.8421709430404E-014));
#206=SURFACE_STYLE_USAGE(.BOTH.,#308);
#207=FACE_OUTER_BOUND('',#309,.T.);
#208=CYLINDRICAL_SURFACE('',#310,15.0);
#209=SURFACE_STYLE_USAGE(.BOTH.,#311);
#210=FACE_OUTER_BOUND('',#312,.T.);
#211=CONICAL_SURFACE('',#313,11.25,1.04719755119659);
#212=POINT_STYLE(' ',#314,POSITIVE_LENGTH_MEASURE(1.0E-006),#315);
#213=CARTESIAN_POINT('',(9.5,1.42889147300908E-014,4.17927405783621));
#214=POINT_STYLE(' ',#316,POSITIVE_LENGTH_MEASURE(1.0E-006),#317);
#215=CARTESIAN_POINT('',(13.0,1.52858861516411E-014,6.19999999999996));
#216=CURVE_STYLE('',#318,POSITIVE_LENGTH_MEASURE(1.0E-006),#319);
#217=CIRCLE('',#320,15.0);
#218=POINT_STYLE(' ',#321,POSITIVE_LENGTH_MEASURE(1.0E-006),#322);
#219=CARTESIAN_POINT('',(15.0,1.58555841068127E-014,6.19999999999996));
#220=CURVE_STYLE('',#323,POSITIVE_LENGTH_MEASURE(1.0E-006),#324);
#221=LINE('',#325,#326);
#222=CURVE_STYLE('',#327,POSITIVE_LENGTH_MEASURE(1.0E-006),#328);
#223=LINE('',#329,#330);
#224=PRODUCT_CONTEXT('',#45,'mechanical');
#225=PRODUCT_DEFINITION_FORMATION_WITH_SPECIFIED_SOURCE(' ','NONE',#128,.NOT_KNOWN.);
#226=CARTESIAN_POINT('',(0.0,0.0,0.0));
#227=DIRECTION('',(0.0,0.0,1.0));
#228=DIRECTION('',(1.0,0.0,0.0));
#229= (NAMED_UNIT(#136)LENGTH_UNIT()SI_UNIT(.MILLI.,.METRE.));
#230=PRE_DEFINED_MARKER('');
#231=COLOUR_RGB('',0.509803950786591,0.509803950786591,0.588235318660736);
#232=DRAUGHTING_PRE_DEFINED_CURVE_FONT('continuous');
#233=COLOUR_RGB('',0.509803950786591,0.509803950786591,0.588235318660736);
#234=AXIS2_PLACEMENT_3D('',#332,#333,#334);
#235=SURFACE_SIDE_STYLE('',(#335));
#236=DRAUGHTING_PRE_DEFINED_CURVE_FONT('continuous');
#237=COLOUR_RGB('',0.509803950786591,0.509803950786591,0.588235318660736);
#238=AXIS2_PLACEMENT_3D('',#336,#337,#338);
#239=PRE_DEFINED_MARKER('');
#240=COLOUR_RGB('',0.509803950786591,0.509803950786591,0.588235318660736);
#241=SURFACE_SIDE_STYLE('',(#339));
#242=EDGE_LOOP('',(#340,#341,#342,#343));
#243=AXIS2_PLACEMENT_3D('',#344,#345,#346);
#244=PRE_DEFINED_MARKER('');
#245=COLOUR_RGB('',0.509803950786591,0.509803950786591,0.588235318660736);
#246=SURFACE_SIDE_STYLE('',(#347));
#247=EDGE_LOOP('',(#348,#349));
#248=EDGE_LOOP('',(#350,#351));
#249=AXIS2_PLACEMENT_3D('',#352,#353,#354);
#250=DRAUGHTING_PRE_DEFINED_CURVE_FONT('continuous');
#251=COLOUR_RGB('',0.509803950786591,0.509803950786591,0.588235318660736);
#252=AXIS2_PLACEMENT_3D('',#355,#356,#357);
#253=SURFACE_SIDE_STYLE('',(#358));
#254=EDGE_LOOP('',(#359,#360,#361,#362));
#255=AXIS2_PLACEMENT_3D('',#363,#364,#365);
#256=DRAUGHTING_PRE_DEFINED_CURVE_FONT('continuous');
#257=COLOUR_RGB('',0.509803950786591,0.509803950786591,0.588235318660736);
#258=AXIS2_PLACEMENT_3D('',#366,#367,#368);
#259=DRAUGHTING_PRE_DEFINED_CURVE_FONT('continuous');
#260=COLOUR_RGB('',0.509803950786591,0.509803950786591,0.588235318660736);
#261=AXIS2_PLACEMENT_3D('',#369,#370,#371);
#262=DRAUGHTING_PRE_DEFINED_CURVE_FONT('continuous');
#263=COLOUR_RGB('',0.509803950786591,0.509803950786591,0.588235318660736);
#264=AXIS2_PLACEMENT_3D('',#372,#373,#374);
#265=PRE_DEFINED_MARKER('');
#266=COLOUR_RGB('',0.509803950786591,0.509803950786591,0.588235318660736);
#267=PRE_DEFINED_MARKER('');
#268=COLOUR_RGB('',0.509803950786591,0.509803950786591,0.588235318660736);
#269=DRAUGHTING_PRE_DEFINED_CURVE_FONT('continuous');
#270=COLOUR_RGB('',0.509803950786591,0.509803950786591,0.588235318660736);
#271=AXIS2_PLACEMENT_3D('',#375,#376,#377);
#272=SURFACE_SIDE_STYLE('',(#378));
#273=EDGE_LOOP('',(#379,#380,#381,#382));
#274=AXIS2_PLACEMENT_3D('',#383,#384,#385);
#275=DRAUGHTING_PRE_DEFINED_CURVE_FONT('continuous');
#276=COLOUR_RGB('',0.509803950786591,0.509803950786591,0.588235318660736);
#277=CARTESIAN_POINT('',(11.25,1.47874004408659E-014,5.18963702891809));
#278=VECTOR('',#386,1.0);
#279=PRE_DEFINED_MARKER('');
#280=COLOUR_RGB('',0.509803950786591,0.509803950786591,0.588235318660736);
#281=DRAUGHTING_PRE_DEFINED_CURVE_FONT('continuous');
#282=COLOUR_RGB('',0.509803950786591,0.509803950786591,0.588235318660736);
#283=CARTESIAN_POINT('',(-9.5,8.87678415596041E-015,2.08963702891809));
#284=VECTOR('',#387,1.0);
#285=DRAUGHTING_PRE_DEFINED_CURVE_FONT('continuous');
#286=COLOUR_RGB('',0.509803950786591,0.509803950786591,0.588235318660736);
#287=AXIS2_PLACEMENT_3D('',#388,#389,#390);
#288=DRAUGHTING_PRE_DEFINED_CURVE_FONT('continuous');
#289=COLOUR_RGB('',0.509803950786591,0.509803950786591,0.588235318660736);
#290=CARTESIAN_POINT('',(15.0,1.58555841068127E-014,3.09999999999997));
#291=VECTOR('',#391,1.0);
#292=DRAUGHTING_PRE_DEFINED_CURVE_FONT('continuous');
#293=COLOUR_RGB('',0.509803950786591,0.509803950786591,0.588235318660736);
#294=CARTESIAN_POINT('',(9.5,1.42889147300908E-014,2.08963702891809));
#295=VECTOR('',#392,1.0);
#296=DRAUGHTING_PRE_DEFINED_CURVE_FONT('continuous');
#297=COLOUR_RGB('',0.509803950786591,0.509803950786591,0.588235318660736);
#298=AXIS2_PLACEMENT_3D('',#393,#394,#395);
#299=SURFACE_SIDE_STYLE('',(#396));
#300=EDGE_LOOP('',(#397,#398));
#301=EDGE_LOOP('',(#399,#400));
#302=AXIS2_PLACEMENT_3D('',#401,#402,#403);
#303=SURFACE_SIDE_STYLE('',(#404));
#304=EDGE_LOOP('',(#405,#406,#407,#408));
#305=AXIS2_PLACEMENT_3D('',#409,#410,#411);
#306=PRE_DEFINED_MARKER('');
#307=COLOUR_RGB('',0.509803950786591,0.509803950786591,0.588235318660736);
#308=SURFACE_SIDE_STYLE('',(#412));
#309=EDGE_LOOP('',(#413,#414,#415,#416));
#310=AXIS2_PLACEMENT_3D('',#417,#418,#419);
#311=SURFACE_SIDE_STYLE('',(#420));
#312=EDGE_LOOP('',(#421,#422,#423,#424));
#313=AXIS2_PLACEMENT_3D('',#425,#426,#427);
#314=PRE_DEFINED_MARKER('');
#315=COLOUR_RGB('',0.509803950786591,0.509803950786591,0.588235318660736);
#316=PRE_DEFINED_MARKER('');
#317=COLOUR_RGB('',0.509803950786591,0.509803950786591,0.588235318660736);
#318=DRAUGHTING_PRE_DEFINED_CURVE_FONT('continuous');
#319=COLOUR_RGB('',0.509803950786591,0.509803950786591,0.588235318660736);
#320=AXIS2_PLACEMENT_3D('',#428,#429,#430);
#321=PRE_DEFINED_MARKER('');
#322=COLOUR_RGB('',0.509803950786591,0.509803950786591,0.588235318660736);
#323=DRAUGHTING_PRE_DEFINED_CURVE_FONT('continuous');
#324=COLOUR_RGB('',0.509803950786591,0.509803950786591,0.588235318660736);
#325=CARTESIAN_POINT('',(-11.25,8.37829844518525E-015,5.18963702891809));
#326=VECTOR('',#431,1.0);
#327=DRAUGHTING_PRE_DEFINED_CURVE_FONT('continuous');
#328=COLOUR_RGB('',0.509803950786591,0.509803950786591,0.588235318660736);
#329=CARTESIAN_POINT('',(-15.0,7.31011477923846E-015,3.09999999999997));
#330=VECTOR('',#432,1.0);
#332=CARTESIAN_POINT('',(0.0,1.15828494430256E-014,-2.8421709430404E-014));
#333=DIRECTION('',(-0.0,0.0,-1.0));
#334=DIRECTION('',(-1.0,-1.6238834220357E-016,0.0));
#335=SURFACE_STYLE_FILL_AREA(#433);
#336=CARTESIAN_POINT('',(0.0,1.15828494430256E-014,-2.8421709430404E-014));
#337=DIRECTION('',(-0.0,0.0,-1.0));
#338=DIRECTION('',(-1.0,-1.6238834220357E-016,0.0));
#339=SURFACE_STYLE_FILL_AREA(#434);
#340=ORIENTED_EDGE('',*,*,#97,.F.);
#341=ORIENTED_EDGE('',*,*,#83,.F.);
#342=ORIENTED_EDGE('',*,*,#103,.F.);
#343=ORIENTED_EDGE('',*,*,#99,.T.);
#344=CARTESIAN_POINT('',(0.0,1.15828494430256E-014,2.08963702891809));
#345=DIRECTION('',(0.0,-0.0,1.0));
#346=DIRECTION('',(-1.0,-1.6238834220357E-016,0.0));
#347=SURFACE_STYLE_FILL_AREA(#435);
#348=ORIENTED_EDGE('',*,*,#61,.F.);
#349=ORIENTED_EDGE('',*,*,#99,.F.);
#350=ORIENTED_EDGE('',*,*,#121,.T.);
#351=ORIENTED_EDGE('',*,*,#65,.T.);
#352=CARTESIAN_POINT('',(-12.25,9.70307868990823E-015,-2.8421709430404E-014));
#353=DIRECTION('',(0.0,0.0,-1.0));
#354=DIRECTION('',(1.0,1.22460635382238E-016,0.0));
#355=CARTESIAN_POINT('',(0.0,1.15828494430256E-014,6.19999999999996));
#356=DIRECTION('',(-0.0,0.0,-1.0));
#357=DIRECTION('',(-1.0,-1.6238834220357E-016,0.0));
#358=SURFACE_STYLE_FILL_AREA(#436);
#359=ORIENTED_EDGE('',*,*,#125,.T.);
#360=ORIENTED_EDGE('',*,*,#89,.T.);
#361=ORIENTED_EDGE('',*,*,#93,.T.);
#362=ORIENTED_EDGE('',*,*,#81,.F.);
#363=CARTESIAN_POINT('',(0.0,1.15828494430256E-014,5.18963702891809));
#364=DIRECTION('',(0.0,-0.0,1.0));
#365=DIRECTION('',(-1.0,-1.6238834220357E-016,0.0));
#366=CARTESIAN_POINT('',(0.0,1.15828494430256E-014,6.19999999999996));
#367=DIRECTION('',(-0.0,0.0,-1.0));
#368=DIRECTION('',(-1.0,-1.6238834220357E-016,0.0));
#369=CARTESIAN_POINT('',(0.0,1.15828494430256E-014,6.19999999999996));
#370=DIRECTION('',(-0.0,0.0,-1.0));
#371=DIRECTION('',(-1.0,-1.6238834220357E-016,0.0));
#372=CARTESIAN_POINT('',(0.0,1.15828494430256E-014,4.17927405783621));
#373=DIRECTION('',(-0.0,0.0,-1.0));
#374=DIRECTION('',(-1.0,-1.6238834220357E-016,0.0));
#375=CARTESIAN_POINT('',(0.0,1.15828494430256E-014,4.17927405783621));
#376=DIRECTION('',(-0.0,0.0,-1.0));
#377=DIRECTION('',(-1.0,-1.6238834220357E-016,0.0));
#378=SURFACE_STYLE_FILL_AREA(#437);
#379=ORIENTED_EDGE('',*,*,#127,.T.);
#380=ORIENTED_EDGE('',*,*,#65,.F.);
#381=ORIENTED_EDGE('',*,*,#101,.T.);
#382=ORIENTED_EDGE('',*,*,#75,.T.);
#383=CARTESIAN_POINT('',(0.0,1.15828494430256E-014,3.09999999999997));
#384=DIRECTION('',(0.0,-0.0,1.0));
#385=DIRECTION('',(-1.0,-1.6238834220357E-016,0.0));
#386=DIRECTION('',(0.866025403784434,2.46686450831332E-016,0.500000000000008));
#387=DIRECTION('',(0.0,0.0,-1.0));
#388=CARTESIAN_POINT('',(0.0,1.15828494430256E-014,-2.8421709430404E-014));
#389=DIRECTION('',(-0.0,0.0,-1.0));
#390=DIRECTION('',(-1.0,-1.6238834220357E-016,0.0));
#391=DIRECTION('',(-0.0,-0.0,1.0));
#392=DIRECTION('',(0.0,0.0,1.0));
#393=CARTESIAN_POINT('',(0.0,1.15828494430256E-014,6.19999999999996));
#394=DIRECTION('',(-0.0,0.0,-1.0));
#395=DIRECTION('',(-1.0,-1.6238834220357E-016,0.0));
#396=SURFACE_STYLE_FILL_AREA(#438);
#397=ORIENTED_EDGE('',*,*,#79,.F.);
#398=ORIENTED_EDGE('',*,*,#75,.F.);
#399=ORIENTED_EDGE('',*,*,#81,.T.);
#400=ORIENTED_EDGE('',*,*,#105,.T.);
#401=CARTESIAN_POINT('',(-14.0,9.86840054767425E-015,6.19999999999996));
#402=DIRECTION('',(0.0,0.0,1.0));
#403=DIRECTION('',(-1.0,-1.22460635382238E-016,0.0));
#404=SURFACE_STYLE_FILL_AREA(#439);
#405=ORIENTED_EDGE('',*,*,#97,.T.);
#406=ORIENTED_EDGE('',*,*,#61,.T.);
#407=ORIENTED_EDGE('',*,*,#103,.T.);
#408=ORIENTED_EDGE('',*,*,#89,.F.);
#409=CARTESIAN_POINT('',(0.0,1.15828494430256E-014,2.08963702891809));
#410=DIRECTION('',(0.0,-0.0,1.0));
#411=DIRECTION('',(-1.0,-1.6238834220357E-016,0.0));
#412=SURFACE_STYLE_FILL_AREA(#440);
#413=ORIENTED_EDGE('',*,*,#127,.F.);
#414=ORIENTED_EDGE('',*,*,#79,.T.);
#415=ORIENTED_EDGE('',*,*,#101,.F.);
#416=ORIENTED_EDGE('',*,*,#121,.F.);
#417=CARTESIAN_POINT('',(0.0,1.15828494430256E-014,3.09999999999997));
#418=DIRECTION('',(0.0,-0.0,1.0));
#419=DIRECTION('',(-1.0,-1.6238834220357E-016,0.0));
#420=SURFACE_STYLE_FILL_AREA(#441);
#421=ORIENTED_EDGE('',*,*,#125,.F.);
#422=ORIENTED_EDGE('',*,*,#105,.F.);
#423=ORIENTED_EDGE('',*,*,#93,.F.);
#424=ORIENTED_EDGE('',*,*,#83,.T.);
#425=CARTESIAN_POINT('',(0.0,1.15828494430256E-014,5.18963702891809));
#426=DIRECTION('',(0.0,-0.0,1.0));
#427=DIRECTION('',(-1.0,-1.6238834220357E-016,0.0));
#428=CARTESIAN_POINT('',(0.0,1.15828494430256E-014,-2.8421709430404E-014));
#429=DIRECTION('',(-0.0,0.0,-1.0));
#430=DIRECTION('',(-1.0,-1.6238834220357E-016,0.0));
#431=DIRECTION('',(0.866025403784434,2.46686450831332E-016,-0.500000000000008));
#432=DIRECTION('',(0.0,0.0,-1.0));
#433=FILL_AREA_STYLE('',(#442));
#434=FILL_AREA_STYLE('',(#443));
#435=FILL_AREA_STYLE('',(#444));
#436=FILL_AREA_STYLE('',(#445));
#437=FILL_AREA_STYLE('',(#446));
#438=FILL_AREA_STYLE('',(#447));
#439=FILL_AREA_STYLE('',(#448));
#440=FILL_AREA_STYLE('',(#449));
#441=FILL_AREA_STYLE('',(#450));
#442=FILL_AREA_STYLE_COLOUR('',#451);
#443=FILL_AREA_STYLE_COLOUR('',#452);
#444=FILL_AREA_STYLE_COLOUR('',#453);
#445=FILL_AREA_STYLE_COLOUR('',#454);
#446=FILL_AREA_STYLE_COLOUR('',#455);
#447=FILL_AREA_STYLE_COLOUR('',#456);
#448=FILL_AREA_STYLE_COLOUR('',#457);
#449=FILL_AREA_STYLE_COLOUR('',#458);
#450=FILL_AREA_STYLE_COLOUR('',#459);
#451=COLOUR_RGB('',0.509803950786591,0.509803950786591,0.588235318660736);
#452=COLOUR_RGB('',0.509803950786591,0.509803950786591,0.588235318660736);
#453=COLOUR_RGB('',0.509803950786591,0.509803950786591,0.588235318660736);
#454=COLOUR_RGB('',0.509803950786591,0.509803950786591,0.588235318660736);
#455=COLOUR_RGB('',0.509803950786591,0.509803950786591,0.588235318660736);
#456=COLOUR_RGB('',0.509803950786591,0.509803950786591,0.588235318660736);
#457=COLOUR_RGB('',0.509803950786591,0.509803950786591,0.588235318660736);
#458=COLOUR_RGB('',0.509803950786591,0.509803950786591,0.588235318660736);
#459=COLOUR_RGB('',0.509803950786591,0.509803950786591,0.588235318660736);
ENDSEC;
END-ISO-10303-21;
