ISO-10303-21;
HEADER;
FILE_DESCRIPTION(('STEP AP214'),'1');
FILE_NAME(' ','  ',('TraceParts'),('TraceParts S.A.'),'XStep 1.0',' ',' ');
FILE_SCHEMA(('automotive_design'));
ENDSEC;
DATA;
#1=MECHANICAL_DESIGN_GEOMETRIC_PRESENTATION_REPRESENTATION(' ',(#10,#11,#12,#13,#14,#15,#16,#17,#18,#19,#20,#21,#22,#23,#24,#25,#26,#27,#28,#29,#30,#31,#32,#33,#34,#35,#36,#37,#38,#39,#40,#41,#42,#43,#44),#6);
#2=PRODUCT_DEFINITION_CONTEXT('',#45,'design');
#3=APPLICATION_PROTOCOL_DEFINITION('INTERNATIONAL STANDARD','automotive_design',1994,#45);
#4=PRODUCT_CATEGORY_RELATIONSHIP('NONE','NONE',#46,#47);
#5=SHAPE_DEFINITION_REPRESENTATION(#48,#49);
#6= (GEOMETRIC_REPRESENTATION_CONTEXT(3)GLOBAL_UNCERTAINTY_ASSIGNED_CONTEXT((#52))GLOBAL_UNIT_ASSIGNED_CONTEXT((#54,#55,#56))REPRESENTATION_CONTEXT('NONE','WORKSPACE'));
#10=STYLED_ITEM('',(#58),#59);
#11=STYLED_ITEM('',(#60),#61);
#12=STYLED_ITEM('',(#62),#63);
#13=STYLED_ITEM('',(#64),#65);
#14=STYLED_ITEM('',(#66),#67);
#15=STYLED_ITEM('',(#68),#69);
#16=STYLED_ITEM('',(#70),#71);
#17=STYLED_ITEM('',(#72),#73);
#18=STYLED_ITEM('',(#74),#75);
#19=STYLED_ITEM('',(#76),#77);
#20=STYLED_ITEM('',(#78),#79);
#21=STYLED_ITEM('',(#80),#81);
#22=STYLED_ITEM('',(#82),#83);
#23=STYLED_ITEM('',(#84),#85);
#24=STYLED_ITEM('',(#86),#87);
#25=STYLED_ITEM('',(#88),#89);
#26=STYLED_ITEM('',(#90),#91);
#27=STYLED_ITEM('',(#92),#93);
#28=STYLED_ITEM('',(#94),#95);
#29=STYLED_ITEM('',(#96),#97);
#30=STYLED_ITEM('',(#98),#99);
#31=STYLED_ITEM('',(#100),#101);
#32=STYLED_ITEM('',(#102),#103);
#33=STYLED_ITEM('',(#104),#105);
#34=STYLED_ITEM('',(#106),#107);
#35=STYLED_ITEM('',(#108),#109);
#36=STYLED_ITEM('',(#110),#111);
#37=STYLED_ITEM('',(#112),#113);
#38=STYLED_ITEM('',(#114),#115);
#39=STYLED_ITEM('',(#116),#117);
#40=STYLED_ITEM('',(#118),#119);
#41=STYLED_ITEM('',(#120),#121);
#42=STYLED_ITEM('',(#122),#123);
#43=STYLED_ITEM('',(#124),#125);
#44=STYLED_ITEM('',(#126),#127);
#45=APPLICATION_CONTEXT(' ');
#46=PRODUCT_CATEGORY('part','NONE');
#47=PRODUCT_RELATED_PRODUCT_CATEGORY('detail',' ',(#128));
#48=PRODUCT_DEFINITION_SHAPE('NONE','NONE',#129);
#49=ADVANCED_BREP_SHAPE_REPRESENTATION('1',(#85,#130),#6);
#52=UNCERTAINTY_MEASURE_WITH_UNIT(LENGTH_MEASURE(1.0E-006),#54,'','');
#54= (CONVERSION_BASED_UNIT('MILLIMETRE',#133)LENGTH_UNIT()NAMED_UNIT(#136));
#55= (NAMED_UNIT(#138)PLANE_ANGLE_UNIT()SI_UNIT($,.RADIAN.));
#56= (NAMED_UNIT(#138)SOLID_ANGLE_UNIT()SI_UNIT($,.STERADIAN.));
#58=PRESENTATION_STYLE_ASSIGNMENT((#144));
#59=EDGE_CURVE('',#109,#75,#145,.T.);
#60=PRESENTATION_STYLE_ASSIGNMENT((#146));
#61=EDGE_CURVE('',#101,#91,#147,.T.);
#62=PRESENTATION_STYLE_ASSIGNMENT((#148));
#63=EDGE_CURVE('',#75,#109,#149,.T.);
#64=PRESENTATION_STYLE_ASSIGNMENT((#150));
#65=ADVANCED_FACE('',(#151,#152),#153,.T.);
#66=PRESENTATION_STYLE_ASSIGNMENT((#154));
#67=EDGE_CURVE('',#119,#69,#155,.T.);
#68=PRESENTATION_STYLE_ASSIGNMENT((#156));
#69=VERTEX_POINT('',#157);
#70=PRESENTATION_STYLE_ASSIGNMENT((#158));
#71=EDGE_CURVE('',#91,#115,#159,.T.);
#72=PRESENTATION_STYLE_ASSIGNMENT((#160));
#73=EDGE_CURVE('',#91,#101,#161,.T.);
#74=PRESENTATION_STYLE_ASSIGNMENT((#162));
#75=VERTEX_POINT('',#163);
#76=PRESENTATION_STYLE_ASSIGNMENT((#164));
#77=EDGE_CURVE('',#115,#79,#165,.T.);
#78=PRESENTATION_STYLE_ASSIGNMENT((#166));
#79=VERTEX_POINT('',#167);
#80=PRESENTATION_STYLE_ASSIGNMENT((#168));
#81=EDGE_CURVE('',#123,#111,#169,.T.);
#82=PRESENTATION_STYLE_ASSIGNMENT((#170));
#83=ADVANCED_FACE('',(#171),#172,.T.);
#84=PRESENTATION_STYLE_ASSIGNMENT((#173));
#85=MANIFOLD_SOLID_BREP('1',#174);
#86=PRESENTATION_STYLE_ASSIGNMENT((#175));
#87=ADVANCED_FACE('',(#176),#177,.T.);
#88=PRESENTATION_STYLE_ASSIGNMENT((#178));
#89=EDGE_CURVE('',#69,#119,#179,.T.);
#90=PRESENTATION_STYLE_ASSIGNMENT((#180));
#91=VERTEX_POINT('',#181);
#92=PRESENTATION_STYLE_ASSIGNMENT((#182));
#93=ADVANCED_FACE('',(#183),#184,.F.);
#94=PRESENTATION_STYLE_ASSIGNMENT((#185));
#95=EDGE_CURVE('',#119,#111,#186,.T.);
#96=PRESENTATION_STYLE_ASSIGNMENT((#187));
#97=EDGE_CURVE('',#109,#119,#188,.T.);
#98=PRESENTATION_STYLE_ASSIGNMENT((#189));
#99=ADVANCED_FACE('',(#190),#191,.F.);
#100=PRESENTATION_STYLE_ASSIGNMENT((#192));
#101=VERTEX_POINT('',#193);
#102=PRESENTATION_STYLE_ASSIGNMENT((#194));
#103=EDGE_CURVE('',#111,#123,#195,.T.);
#104=PRESENTATION_STYLE_ASSIGNMENT((#196));
#105=EDGE_CURVE('',#69,#75,#197,.T.);
#106=PRESENTATION_STYLE_ASSIGNMENT((#198));
#107=ADVANCED_FACE('',(#199),#200,.F.);
#108=PRESENTATION_STYLE_ASSIGNMENT((#201));
#109=VERTEX_POINT('',#202);
#110=PRESENTATION_STYLE_ASSIGNMENT((#203));
#111=VERTEX_POINT('',#204);
#112=PRESENTATION_STYLE_ASSIGNMENT((#205));
#113=ADVANCED_FACE('',(#206),#207,.F.);
#114=PRESENTATION_STYLE_ASSIGNMENT((#208));
#115=VERTEX_POINT('',#209);
#116=PRESENTATION_STYLE_ASSIGNMENT((#210));
#117=EDGE_CURVE('',#79,#115,#211,.T.);
#118=PRESENTATION_STYLE_ASSIGNMENT((#212));
#119=VERTEX_POINT('',#213);
#120=PRESENTATION_STYLE_ASSIGNMENT((#214));
#121=EDGE_CURVE('',#123,#69,#215,.T.);
#122=PRESENTATION_STYLE_ASSIGNMENT((#216));
#123=VERTEX_POINT('',#217);
#124=PRESENTATION_STYLE_ASSIGNMENT((#218));
#125=EDGE_CURVE('',#79,#101,#219,.T.);
#126=PRESENTATION_STYLE_ASSIGNMENT((#220));
#127=ADVANCED_FACE('',(#221,#222),#223,.T.);
#128=PRODUCT('1','1','PART-1-DESC',(#224));
#129=PRODUCT_DEFINITION('NONE','NONE',#225,#2);
#130=AXIS2_PLACEMENT_3D('',#226,#227,#228);
#133=LENGTH_MEASURE_WITH_UNIT(LENGTH_MEASURE(1.0),#229);
#136=DIMENSIONAL_EXPONENTS(1.0,0.0,0.0,0.0,0.0,0.0,0.0);
#138=DIMENSIONAL_EXPONENTS(0.0,0.0,0.0,0.0,0.0,0.0,0.0);
#144=CURVE_STYLE('',#230,POSITIVE_LENGTH_MEASURE(1.0E-006),#231);
#145=CIRCLE('',#232,7.09999999999999);
#146=CURVE_STYLE('',#233,POSITIVE_LENGTH_MEASURE(1.0E-006),#234);
#147=CIRCLE('',#235,12.0);
#148=CURVE_STYLE('',#236,POSITIVE_LENGTH_MEASURE(1.0E-006),#237);
#149=CIRCLE('',#238,7.09999999999999);
#150=SURFACE_STYLE_USAGE(.BOTH.,#239);
#151=FACE_OUTER_BOUND('',#240,.T.);
#152=FACE_BOUND('',#241,.T.);
#153=PLANE('',#242);
#154=CURVE_STYLE('',#243,POSITIVE_LENGTH_MEASURE(1.0E-006),#244);
#155=CIRCLE('',#245,7.09999999999999);
#156=POINT_STYLE(' ',#246,POSITIVE_LENGTH_MEASURE(1.0E-006),#247);
#157=CARTESIAN_POINT('',(-7.09999999999997,1.03904309009592E-014,3.32568421934999));
#158=CURVE_STYLE('',#248,POSITIVE_LENGTH_MEASURE(1.0E-006),#249);
#159=LINE('',#250,#251);
#160=CURVE_STYLE('',#252,POSITIVE_LENGTH_MEASURE(1.0E-006),#253);
#161=CIRCLE('',#254,12.0);
#162=POINT_STYLE(' ',#255,POSITIVE_LENGTH_MEASURE(1.0E-006),#256);
#163=CARTESIAN_POINT('',(-7.09999999999997,1.01867981996681E-014,-2.8421709430404E-014));
#164=CURVE_STYLE('',#257,POSITIVE_LENGTH_MEASURE(1.0E-006),#258);
#165=CIRCLE('',#259,12.0);
#166=POINT_STYLE(' ',#260,POSITIVE_LENGTH_MEASURE(1.0E-006),#261);
#167=CARTESIAN_POINT('',(-12.0,9.8928926747507E-015,4.99999999999997));
#168=CURVE_STYLE('',#262,POSITIVE_LENGTH_MEASURE(1.0E-006),#263);
#169=CIRCLE('',#264,10.0);
#170=SURFACE_STYLE_USAGE(.BOTH.,#265);
#171=FACE_OUTER_BOUND('',#266,.T.);
#172=CYLINDRICAL_SURFACE('',#267,12.0);
#173=SURFACE_STYLE_USAGE(.BOTH.,#268);
#174=CLOSED_SHELL('',(#113,#83,#93,#99,#65,#87,#127,#107));
#175=SURFACE_STYLE_USAGE(.BOTH.,#269);
#176=FACE_OUTER_BOUND('',#270,.T.);
#177=CYLINDRICAL_SURFACE('',#271,12.0);
#178=CURVE_STYLE('',#272,POSITIVE_LENGTH_MEASURE(1.0E-006),#273);
#179=CIRCLE('',#274,7.09999999999999);
#180=POINT_STYLE(' ',#275,POSITIVE_LENGTH_MEASURE(1.0E-006),#276);
#181=CARTESIAN_POINT('',(12.0000000000001,1.48184915263699E-014,-2.8421709430404E-014));
#182=SURFACE_STYLE_USAGE(.BOTH.,#277);
#183=FACE_OUTER_BOUND('',#278,.T.);
#184=CONICAL_SURFACE('',#279,8.55000000000001,1.04719755119659);
#185=CURVE_STYLE('',#280,POSITIVE_LENGTH_MEASURE(1.0E-006),#281);
#186=LINE('',#282,#283);
#187=CURVE_STYLE('',#284,POSITIVE_LENGTH_MEASURE(1.0E-006),#285);
#188=LINE('',#286,#287);
#189=SURFACE_STYLE_USAGE(.BOTH.,#288);
#190=FACE_OUTER_BOUND('',#289,.T.);
#191=CONICAL_SURFACE('',#290,8.55000000000001,1.04719755119659);
#192=POINT_STYLE(' ',#291,POSITIVE_LENGTH_MEASURE(1.0E-006),#292);
#193=CARTESIAN_POINT('',(-12.0,9.58674108629511E-015,-2.8421709430404E-014));
#194=CURVE_STYLE('',#293,POSITIVE_LENGTH_MEASURE(1.0E-006),#294);
#195=CIRCLE('',#295,10.0);
#196=CURVE_STYLE('',#296,POSITIVE_LENGTH_MEASURE(1.0E-006),#297);
#197=LINE('',#298,#299);
#198=SURFACE_STYLE_USAGE(.BOTH.,#300);
#199=FACE_OUTER_BOUND('',#301,.T.);
#200=CYLINDRICAL_SURFACE('',#302,7.09999999999999);
#201=POINT_STYLE(' ',#303,POSITIVE_LENGTH_MEASURE(1.0E-006),#304);
#202=CARTESIAN_POINT('',(7.10000000000002,1.34072624419983E-014,-2.8421709430404E-014));
#203=POINT_STYLE(' ',#305,POSITIVE_LENGTH_MEASURE(1.0E-006),#306);
#204=CARTESIAN_POINT('',(10.0000000000001,1.42424796551978E-014,4.99999999999997));
#205=SURFACE_STYLE_USAGE(.BOTH.,#307);
#206=FACE_OUTER_BOUND('',#308,.T.);
#207=CYLINDRICAL_SURFACE('',#309,7.09999999999999);
#208=POINT_STYLE(' ',#310,POSITIVE_LENGTH_MEASURE(1.0E-006),#311);
#209=CARTESIAN_POINT('',(12.0000000000001,1.48184915263699E-014,4.99999999999997));
#210=CURVE_STYLE('',#312,POSITIVE_LENGTH_MEASURE(1.0E-006),#313);
#211=CIRCLE('',#314,12.0);
#212=POINT_STYLE(' ',#315,POSITIVE_LENGTH_MEASURE(1.0E-006),#316);
#213=CARTESIAN_POINT('',(7.10000000000002,1.34072624419983E-014,3.32568421934999));
#214=CURVE_STYLE('',#317,POSITIVE_LENGTH_MEASURE(1.0E-006),#318);
#215=LINE('',#319,#320);
#216=POINT_STYLE(' ',#321,POSITIVE_LENGTH_MEASURE(1.0E-006),#322);
#217=CARTESIAN_POINT('',(-10.0,1.01378139455152E-014,4.99999999999997));
#218=CURVE_STYLE('',#323,POSITIVE_LENGTH_MEASURE(1.0E-006),#324);
#219=LINE('',#325,#326);
#220=SURFACE_STYLE_USAGE(.BOTH.,#327);
#221=FACE_BOUND('',#328,.T.);
#222=FACE_OUTER_BOUND('',#329,.T.);
#223=PLANE('',#330);
#224=PRODUCT_CONTEXT('',#45,'mechanical');
#225=PRODUCT_DEFINITION_FORMATION_WITH_SPECIFIED_SOURCE(' ','NONE',#128,.NOT_KNOWN.);
#226=CARTESIAN_POINT('',(0.0,0.0,0.0));
#227=DIRECTION('',(0.0,0.0,1.0));
#228=DIRECTION('',(1.0,0.0,0.0));
#229= (NAMED_UNIT(#136)LENGTH_UNIT()SI_UNIT(.MILLI.,.METRE.));
#230=DRAUGHTING_PRE_DEFINED_CURVE_FONT('continuous');
#231=COLOUR_RGB('',0.509803950786591,0.509803950786591,0.588235318660736);
#232=AXIS2_PLACEMENT_3D('',#332,#333,#334);
#233=DRAUGHTING_PRE_DEFINED_CURVE_FONT('continuous');
#234=COLOUR_RGB('',0.509803950786591,0.509803950786591,0.588235318660736);
#235=AXIS2_PLACEMENT_3D('',#335,#336,#337);
#236=DRAUGHTING_PRE_DEFINED_CURVE_FONT('continuous');
#237=COLOUR_RGB('',0.509803950786591,0.509803950786591,0.588235318660736);
#238=AXIS2_PLACEMENT_3D('',#338,#339,#340);
#239=SURFACE_SIDE_STYLE('',(#341));
#240=EDGE_LOOP('',(#342,#343));
#241=EDGE_LOOP('',(#344,#345));
#242=AXIS2_PLACEMENT_3D('',#346,#347,#348);
#243=DRAUGHTING_PRE_DEFINED_CURVE_FONT('continuous');
#244=COLOUR_RGB('',0.509803950786591,0.509803950786591,0.588235318660736);
#245=AXIS2_PLACEMENT_3D('',#349,#350,#351);
#246=PRE_DEFINED_MARKER('');
#247=COLOUR_RGB('',0.509803950786591,0.509803950786591,0.588235318660736);
#248=DRAUGHTING_PRE_DEFINED_CURVE_FONT('continuous');
#249=COLOUR_RGB('',0.509803950786591,0.509803950786591,0.588235318660736);
#250=CARTESIAN_POINT('',(12.0000000000001,1.48184915263699E-014,2.49999999999997));
#251=VECTOR('',#352,1.0);
#252=DRAUGHTING_PRE_DEFINED_CURVE_FONT('continuous');
#253=COLOUR_RGB('',0.509803950786591,0.509803950786591,0.588235318660736);
#254=AXIS2_PLACEMENT_3D('',#353,#354,#355);
#255=PRE_DEFINED_MARKER('');
#256=COLOUR_RGB('',0.509803950786591,0.509803950786591,0.588235318660736);
#257=DRAUGHTING_PRE_DEFINED_CURVE_FONT('continuous');
#258=COLOUR_RGB('',0.509803950786591,0.509803950786591,0.588235318660736);
#259=AXIS2_PLACEMENT_3D('',#356,#357,#358);
#260=PRE_DEFINED_MARKER('');
#261=COLOUR_RGB('',0.509803950786591,0.509803950786591,0.588235318660736);
#262=DRAUGHTING_PRE_DEFINED_CURVE_FONT('continuous');
#263=COLOUR_RGB('',0.509803950786591,0.509803950786591,0.588235318660736);
#264=AXIS2_PLACEMENT_3D('',#359,#360,#361);
#265=SURFACE_SIDE_STYLE('',(#362));
#266=EDGE_LOOP('',(#363,#364,#365,#366));
#267=AXIS2_PLACEMENT_3D('',#367,#368,#369);
#268=SURFACE_SIDE_STYLE('',(#370));
#269=SURFACE_SIDE_STYLE('',(#371));
#270=EDGE_LOOP('',(#372,#373,#374,#375));
#271=AXIS2_PLACEMENT_3D('',#376,#377,#378);
#272=DRAUGHTING_PRE_DEFINED_CURVE_FONT('continuous');
#273=COLOUR_RGB('',0.509803950786591,0.509803950786591,0.588235318660736);
#274=AXIS2_PLACEMENT_3D('',#379,#380,#381);
#275=PRE_DEFINED_MARKER('');
#276=COLOUR_RGB('',0.509803950786591,0.509803950786591,0.588235318660736);
#277=SURFACE_SIDE_STYLE('',(#382));
#278=EDGE_LOOP('',(#383,#384,#385,#386));
#279=AXIS2_PLACEMENT_3D('',#387,#388,#389);
#280=DRAUGHTING_PRE_DEFINED_CURVE_FONT('continuous');
#281=COLOUR_RGB('',0.509803950786591,0.509803950786591,0.588235318660736);
#282=CARTESIAN_POINT('',(8.55000000000004,1.38248710485981E-014,4.16284210967498));
#283=VECTOR('',#390,1.0);
#284=DRAUGHTING_PRE_DEFINED_CURVE_FONT('continuous');
#285=COLOUR_RGB('',0.509803950786591,0.509803950786591,0.588235318660736);
#286=CARTESIAN_POINT('',(7.10000000000002,1.34072624419983E-014,1.66284210967498));
#287=VECTOR('',#391,1.0);
#288=SURFACE_SIDE_STYLE('',(#392));
#289=EDGE_LOOP('',(#393,#394,#395,#396));
#290=AXIS2_PLACEMENT_3D('',#397,#398,#399);
#291=PRE_DEFINED_MARKER('');
#292=COLOUR_RGB('',0.509803950786591,0.509803950786591,0.588235318660736);
#293=DRAUGHTING_PRE_DEFINED_CURVE_FONT('continuous');
#294=COLOUR_RGB('',0.509803950786591,0.509803950786591,0.588235318660736);
#295=AXIS2_PLACEMENT_3D('',#400,#401,#402);
#296=DRAUGHTING_PRE_DEFINED_CURVE_FONT('continuous');
#297=COLOUR_RGB('',0.509803950786591,0.509803950786591,0.588235318660736);
#298=CARTESIAN_POINT('',(-7.09999999999997,9.31757815667678E-015,1.66284210967498));
#299=VECTOR('',#403,1.0);
#300=SURFACE_SIDE_STYLE('',(#404));
#301=EDGE_LOOP('',(#405,#406,#407,#408));
#302=AXIS2_PLACEMENT_3D('',#409,#410,#411);
#303=PRE_DEFINED_MARKER('');
#304=COLOUR_RGB('',0.509803950786591,0.509803950786591,0.588235318660736);
#305=PRE_DEFINED_MARKER('');
#306=COLOUR_RGB('',0.509803950786591,0.509803950786591,0.588235318660736);
#307=SURFACE_SIDE_STYLE('',(#412));
#308=EDGE_LOOP('',(#413,#414,#415,#416));
#309=AXIS2_PLACEMENT_3D('',#417,#418,#419);
#310=PRE_DEFINED_MARKER('');
#311=COLOUR_RGB('',0.509803950786591,0.509803950786591,0.588235318660736);
#312=DRAUGHTING_PRE_DEFINED_CURVE_FONT('continuous');
#313=COLOUR_RGB('',0.509803950786591,0.509803950786591,0.588235318660736);
#314=AXIS2_PLACEMENT_3D('',#420,#421,#422);
#315=PRE_DEFINED_MARKER('');
#316=COLOUR_RGB('',0.509803950786591,0.509803950786591,0.588235318660736);
#317=DRAUGHTING_PRE_DEFINED_CURVE_FONT('continuous');
#318=COLOUR_RGB('',0.509803950786591,0.509803950786591,0.588235318660736);
#319=CARTESIAN_POINT('',(-8.54999999999998,8.89996955007704E-015,4.16284210967498));
#320=VECTOR('',#423,1.0);
#321=PRE_DEFINED_MARKER('');
#322=COLOUR_RGB('',0.509803950786591,0.509803950786591,0.588235318660736);
#323=DRAUGHTING_PRE_DEFINED_CURVE_FONT('continuous');
#324=COLOUR_RGB('',0.509803950786591,0.509803950786591,0.588235318660736);
#325=CARTESIAN_POINT('',(-12.0,7.90634907230524E-015,2.49999999999997));
#326=VECTOR('',#424,1.0);
#327=SURFACE_SIDE_STYLE('',(#425));
#328=EDGE_LOOP('',(#426,#427));
#329=EDGE_LOOP('',(#428,#429));
#330=AXIS2_PLACEMENT_3D('',#430,#431,#432);
#332=CARTESIAN_POINT('',(2.8421709430404E-014,1.13624202993376E-014,-2.8421709430404E-014));
#333=DIRECTION('',(-0.0,0.0,-1.0));
#334=DIRECTION('',(-1.0,-1.65545300203788E-016,0.0));
#335=CARTESIAN_POINT('',(2.8421709430404E-014,1.13624202993376E-014,-2.8421709430404E-014));
#336=DIRECTION('',(-0.0,0.0,-1.0));
#337=DIRECTION('',(-1.0,-1.65545300203788E-016,0.0));
#338=CARTESIAN_POINT('',(2.8421709430404E-014,1.13624202993376E-014,-2.8421709430404E-014));
#339=DIRECTION('',(-0.0,0.0,-1.0));
#340=DIRECTION('',(-1.0,-1.65545300203788E-016,0.0));
#341=SURFACE_STYLE_FILL_AREA(#433);
#342=ORIENTED_EDGE('',*,*,#117,.F.);
#343=ORIENTED_EDGE('',*,*,#77,.F.);
#344=ORIENTED_EDGE('',*,*,#81,.T.);
#345=ORIENTED_EDGE('',*,*,#103,.T.);
#346=CARTESIAN_POINT('',(-11.0,1.00153533101329E-014,4.99999999999997));
#347=DIRECTION('',(0.0,0.0,1.0));
#348=DIRECTION('',(-1.0,-1.22460635382238E-016,0.0));
#349=CARTESIAN_POINT('',(2.8421709430404E-014,1.13624202993376E-014,3.32568421934999));
#350=DIRECTION('',(-0.0,0.0,-1.0));
#351=DIRECTION('',(-1.0,-1.65545300203788E-016,0.0));
#352=DIRECTION('',(-0.0,-0.0,1.0));
#353=CARTESIAN_POINT('',(2.8421709430404E-014,1.13624202993376E-014,-2.8421709430404E-014));
#354=DIRECTION('',(-0.0,0.0,-1.0));
#355=DIRECTION('',(-1.0,-1.65545300203788E-016,0.0));
#356=CARTESIAN_POINT('',(2.8421709430404E-014,1.13624202993376E-014,4.99999999999997));
#357=DIRECTION('',(-0.0,0.0,-1.0));
#358=DIRECTION('',(-1.0,-1.65545300203788E-016,0.0));
#359=CARTESIAN_POINT('',(2.8421709430404E-014,1.13624202993376E-014,4.99999999999997));
#360=DIRECTION('',(-0.0,0.0,-1.0));
#361=DIRECTION('',(-1.0,-1.65545300203788E-016,0.0));
#362=SURFACE_STYLE_FILL_AREA(#434);
#363=ORIENTED_EDGE('',*,*,#125,.F.);
#364=ORIENTED_EDGE('',*,*,#117,.T.);
#365=ORIENTED_EDGE('',*,*,#71,.F.);
#366=ORIENTED_EDGE('',*,*,#61,.F.);
#367=CARTESIAN_POINT('',(2.8421709430404E-014,1.13624202993376E-014,2.49999999999997));
#368=DIRECTION('',(0.0,-0.0,1.0));
#369=DIRECTION('',(-1.0,-1.65545300203788E-016,0.0));
#370=SURFACE_STYLE_FILL_AREA(#435);
#371=SURFACE_STYLE_FILL_AREA(#436);
#372=ORIENTED_EDGE('',*,*,#125,.T.);
#373=ORIENTED_EDGE('',*,*,#73,.F.);
#374=ORIENTED_EDGE('',*,*,#71,.T.);
#375=ORIENTED_EDGE('',*,*,#77,.T.);
#376=CARTESIAN_POINT('',(2.8421709430404E-014,1.13624202993376E-014,2.49999999999997));
#377=DIRECTION('',(0.0,-0.0,1.0));
#378=DIRECTION('',(-1.0,-1.65545300203788E-016,0.0));
#379=CARTESIAN_POINT('',(2.8421709430404E-014,1.13624202993376E-014,3.32568421934999));
#380=DIRECTION('',(-0.0,0.0,-1.0));
#381=DIRECTION('',(-1.0,-1.65545300203788E-016,0.0));
#382=SURFACE_STYLE_FILL_AREA(#437);
#383=ORIENTED_EDGE('',*,*,#121,.F.);
#384=ORIENTED_EDGE('',*,*,#103,.F.);
#385=ORIENTED_EDGE('',*,*,#95,.F.);
#386=ORIENTED_EDGE('',*,*,#67,.T.);
#387=CARTESIAN_POINT('',(2.8421709430404E-014,1.13624202993376E-014,4.16284210967498));
#388=DIRECTION('',(0.0,-0.0,1.0));
#389=DIRECTION('',(-1.0,-1.65545300203788E-016,0.0));
#390=DIRECTION('',(0.866025403784433,2.49420456658201E-016,0.500000000000009));
#391=DIRECTION('',(0.0,0.0,1.0));
#392=SURFACE_STYLE_FILL_AREA(#438);
#393=ORIENTED_EDGE('',*,*,#121,.T.);
#394=ORIENTED_EDGE('',*,*,#89,.T.);
#395=ORIENTED_EDGE('',*,*,#95,.T.);
#396=ORIENTED_EDGE('',*,*,#81,.F.);
#397=CARTESIAN_POINT('',(2.8421709430404E-014,1.13624202993376E-014,4.16284210967498));
#398=DIRECTION('',(0.0,-0.0,1.0));
#399=DIRECTION('',(-1.0,-1.65545300203788E-016,0.0));
#400=CARTESIAN_POINT('',(2.8421709430404E-014,1.13624202993376E-014,4.99999999999997));
#401=DIRECTION('',(-0.0,0.0,-1.0));
#402=DIRECTION('',(-1.0,-1.65545300203788E-016,0.0));
#403=DIRECTION('',(0.0,0.0,-1.0));
#404=SURFACE_STYLE_FILL_AREA(#439);
#405=ORIENTED_EDGE('',*,*,#105,.T.);
#406=ORIENTED_EDGE('',*,*,#63,.T.);
#407=ORIENTED_EDGE('',*,*,#97,.T.);
#408=ORIENTED_EDGE('',*,*,#89,.F.);
#409=CARTESIAN_POINT('',(2.8421709430404E-014,1.13624202993376E-014,1.66284210967498));
#410=DIRECTION('',(0.0,-0.0,1.0));
#411=DIRECTION('',(-1.0,-1.65545300203788E-016,0.0));
#412=SURFACE_STYLE_FILL_AREA(#440);
#413=ORIENTED_EDGE('',*,*,#105,.F.);
#414=ORIENTED_EDGE('',*,*,#67,.F.);
#415=ORIENTED_EDGE('',*,*,#97,.F.);
#416=ORIENTED_EDGE('',*,*,#59,.T.);
#417=CARTESIAN_POINT('',(2.8421709430404E-014,1.13624202993376E-014,1.66284210967498));
#418=DIRECTION('',(0.0,-0.0,1.0));
#419=DIRECTION('',(-1.0,-1.65545300203788E-016,0.0));
#420=CARTESIAN_POINT('',(2.8421709430404E-014,1.13624202993376E-014,4.99999999999997));
#421=DIRECTION('',(-0.0,0.0,-1.0));
#422=DIRECTION('',(-1.0,-1.65545300203788E-016,0.0));
#423=DIRECTION('',(0.866025403784433,2.49420456658201E-016,-0.500000000000009));
#424=DIRECTION('',(0.0,0.0,-1.0));
#425=SURFACE_STYLE_FILL_AREA(#441);
#426=ORIENTED_EDGE('',*,*,#63,.F.);
#427=ORIENTED_EDGE('',*,*,#59,.F.);
#428=ORIENTED_EDGE('',*,*,#61,.T.);
#429=ORIENTED_EDGE('',*,*,#73,.T.);
#430=CARTESIAN_POINT('',(-9.54999999999998,9.88676964298159E-015,-2.8421709430404E-014));
#431=DIRECTION('',(0.0,0.0,-1.0));
#432=DIRECTION('',(1.0,1.22460635382238E-016,0.0));
#433=FILL_AREA_STYLE('',(#442));
#434=FILL_AREA_STYLE('',(#443));
#435=FILL_AREA_STYLE('',(#444));
#436=FILL_AREA_STYLE('',(#445));
#437=FILL_AREA_STYLE('',(#446));
#438=FILL_AREA_STYLE('',(#447));
#439=FILL_AREA_STYLE('',(#448));
#440=FILL_AREA_STYLE('',(#449));
#441=FILL_AREA_STYLE('',(#450));
#442=FILL_AREA_STYLE_COLOUR('',#451);
#443=FILL_AREA_STYLE_COLOUR('',#452);
#444=FILL_AREA_STYLE_COLOUR('',#453);
#445=FILL_AREA_STYLE_COLOUR('',#454);
#446=FILL_AREA_STYLE_COLOUR('',#455);
#447=FILL_AREA_STYLE_COLOUR('',#456);
#448=FILL_AREA_STYLE_COLOUR('',#457);
#449=FILL_AREA_STYLE_COLOUR('',#458);
#450=FILL_AREA_STYLE_COLOUR('',#459);
#451=COLOUR_RGB('',0.509803950786591,0.509803950786591,0.588235318660736);
#452=COLOUR_RGB('',0.509803950786591,0.509803950786591,0.588235318660736);
#453=COLOUR_RGB('',0.509803950786591,0.509803950786591,0.588235318660736);
#454=COLOUR_RGB('',0.509803950786591,0.509803950786591,0.588235318660736);
#455=COLOUR_RGB('',0.509803950786591,0.509803950786591,0.588235318660736);
#456=COLOUR_RGB('',0.509803950786591,0.509803950786591,0.588235318660736);
#457=COLOUR_RGB('',0.509803950786591,0.509803950786591,0.588235318660736);
#458=COLOUR_RGB('',0.509803950786591,0.509803950786591,0.588235318660736);
#459=COLOUR_RGB('',0.509803950786591,0.509803950786591,0.588235318660736);
ENDSEC;
END-ISO-10303-21;
