ISO-10303-21;
HEADER;
FILE_DESCRIPTION(('STEP AP214'),'1');
FILE_NAME(' ','  ',('TraceParts'),('TraceParts S.A.'),'XStep 1.0',' ',' ');
FILE_SCHEMA(('automotive_design'));
ENDSEC;
DATA;
#1=MECHANICAL_DESIGN_GEOMETRIC_PRESENTATION_REPRESENTATION(' ',(#10,#11,#12,#13,#14,#15,#16,#17,#18,#19,#20,#21,#22,#23,#24,#25,#26,#27,#28,#29,#30,#31,#32,#33,#34,#35,#36,#37,#38,#39,#40,#41,#42,#43,#44),#6);
#2=PRODUCT_DEFINITION_CONTEXT('',#45,'design');
#3=APPLICATION_PROTOCOL_DEFINITION('INTERNATIONAL STANDARD','automotive_design',1994,#45);
#4=PRODUCT_CATEGORY_RELATIONSHIP('NONE','NONE',#46,#47);
#5=SHAPE_DEFINITION_REPRESENTATION(#48,#49);
#6= (GEOMETRIC_REPRESENTATION_CONTEXT(3)GLOBAL_UNCERTAINTY_ASSIGNED_CONTEXT((#52))GLOBAL_UNIT_ASSIGNED_CONTEXT((#54,#55,#56))REPRESENTATION_CONTEXT('NONE','WORKSPACE'));
#10=STYLED_ITEM('',(#58),#59);
#11=STYLED_ITEM('',(#60),#61);
#12=STYLED_ITEM('',(#62),#63);
#13=STYLED_ITEM('',(#64),#65);
#14=STYLED_ITEM('',(#66),#67);
#15=STYLED_ITEM('',(#68),#69);
#16=STYLED_ITEM('',(#70),#71);
#17=STYLED_ITEM('',(#72),#73);
#18=STYLED_ITEM('',(#74),#75);
#19=STYLED_ITEM('',(#76),#77);
#20=STYLED_ITEM('',(#78),#79);
#21=STYLED_ITEM('',(#80),#81);
#22=STYLED_ITEM('',(#82),#83);
#23=STYLED_ITEM('',(#84),#85);
#24=STYLED_ITEM('',(#86),#87);
#25=STYLED_ITEM('',(#88),#89);
#26=STYLED_ITEM('',(#90),#91);
#27=STYLED_ITEM('',(#92),#93);
#28=STYLED_ITEM('',(#94),#95);
#29=STYLED_ITEM('',(#96),#97);
#30=STYLED_ITEM('',(#98),#99);
#31=STYLED_ITEM('',(#100),#101);
#32=STYLED_ITEM('',(#102),#103);
#33=STYLED_ITEM('',(#104),#105);
#34=STYLED_ITEM('',(#106),#107);
#35=STYLED_ITEM('',(#108),#109);
#36=STYLED_ITEM('',(#110),#111);
#37=STYLED_ITEM('',(#112),#113);
#38=STYLED_ITEM('',(#114),#115);
#39=STYLED_ITEM('',(#116),#117);
#40=STYLED_ITEM('',(#118),#119);
#41=STYLED_ITEM('',(#120),#121);
#42=STYLED_ITEM('',(#122),#123);
#43=STYLED_ITEM('',(#124),#125);
#44=STYLED_ITEM('',(#126),#127);
#45=APPLICATION_CONTEXT(' ');
#46=PRODUCT_CATEGORY('part','NONE');
#47=PRODUCT_RELATED_PRODUCT_CATEGORY('detail',' ',(#128));
#48=PRODUCT_DEFINITION_SHAPE('NONE','NONE',#129);
#49=ADVANCED_BREP_SHAPE_REPRESENTATION('1',(#63,#130),#6);
#52=UNCERTAINTY_MEASURE_WITH_UNIT(LENGTH_MEASURE(1.0E-006),#54,'','');
#54= (CONVERSION_BASED_UNIT('MILLIMETRE',#133)LENGTH_UNIT()NAMED_UNIT(#136));
#55= (NAMED_UNIT(#138)PLANE_ANGLE_UNIT()SI_UNIT($,.RADIAN.));
#56= (NAMED_UNIT(#138)SOLID_ANGLE_UNIT()SI_UNIT($,.STERADIAN.));
#58=PRESENTATION_STYLE_ASSIGNMENT((#144));
#59=EDGE_CURVE('',#99,#121,#145,.T.);
#60=PRESENTATION_STYLE_ASSIGNMENT((#146));
#61=EDGE_CURVE('',#79,#111,#147,.T.);
#62=PRESENTATION_STYLE_ASSIGNMENT((#148));
#63=MANIFOLD_SOLID_BREP('1',#149);
#64=PRESENTATION_STYLE_ASSIGNMENT((#150));
#65=ADVANCED_FACE('',(#151),#152,.F.);
#66=PRESENTATION_STYLE_ASSIGNMENT((#153));
#67=ADVANCED_FACE('',(#154,#155),#156,.T.);
#68=PRESENTATION_STYLE_ASSIGNMENT((#157));
#69=ADVANCED_FACE('',(#158),#159,.T.);
#70=PRESENTATION_STYLE_ASSIGNMENT((#160));
#71=EDGE_CURVE('',#111,#99,#161,.T.);
#72=PRESENTATION_STYLE_ASSIGNMENT((#162));
#73=ADVANCED_FACE('',(#163),#164,.F.);
#74=PRESENTATION_STYLE_ASSIGNMENT((#165));
#75=EDGE_CURVE('',#91,#81,#166,.T.);
#76=PRESENTATION_STYLE_ASSIGNMENT((#167));
#77=ADVANCED_FACE('',(#168),#169,.T.);
#78=PRESENTATION_STYLE_ASSIGNMENT((#170));
#79=VERTEX_POINT('',#171);
#80=PRESENTATION_STYLE_ASSIGNMENT((#172));
#81=VERTEX_POINT('',#173);
#82=PRESENTATION_STYLE_ASSIGNMENT((#174));
#83=EDGE_CURVE('',#95,#85,#175,.T.);
#84=PRESENTATION_STYLE_ASSIGNMENT((#176));
#85=VERTEX_POINT('',#177);
#86=PRESENTATION_STYLE_ASSIGNMENT((#178));
#87=EDGE_CURVE('',#119,#117,#179,.T.);
#88=PRESENTATION_STYLE_ASSIGNMENT((#180));
#89=ADVANCED_FACE('',(#181),#182,.F.);
#90=PRESENTATION_STYLE_ASSIGNMENT((#183));
#91=VERTEX_POINT('',#184);
#92=PRESENTATION_STYLE_ASSIGNMENT((#185));
#93=EDGE_CURVE('',#81,#91,#186,.T.);
#94=PRESENTATION_STYLE_ASSIGNMENT((#187));
#95=VERTEX_POINT('',#188);
#96=PRESENTATION_STYLE_ASSIGNMENT((#189));
#97=EDGE_CURVE('',#121,#99,#190,.T.);
#98=PRESENTATION_STYLE_ASSIGNMENT((#191));
#99=VERTEX_POINT('',#192);
#100=PRESENTATION_STYLE_ASSIGNMENT((#193));
#101=EDGE_CURVE('',#121,#79,#194,.T.);
#102=PRESENTATION_STYLE_ASSIGNMENT((#195));
#103=EDGE_CURVE('',#111,#79,#196,.T.);
#104=PRESENTATION_STYLE_ASSIGNMENT((#197));
#105=EDGE_CURVE('',#85,#95,#198,.T.);
#106=PRESENTATION_STYLE_ASSIGNMENT((#199));
#107=EDGE_CURVE('',#79,#117,#200,.T.);
#108=PRESENTATION_STYLE_ASSIGNMENT((#201));
#109=EDGE_CURVE('',#85,#81,#202,.T.);
#110=PRESENTATION_STYLE_ASSIGNMENT((#203));
#111=VERTEX_POINT('',#204);
#112=PRESENTATION_STYLE_ASSIGNMENT((#205));
#113=ADVANCED_FACE('',(#206),#207,.F.);
#114=PRESENTATION_STYLE_ASSIGNMENT((#208));
#115=EDGE_CURVE('',#117,#119,#209,.T.);
#116=PRESENTATION_STYLE_ASSIGNMENT((#210));
#117=VERTEX_POINT('',#211);
#118=PRESENTATION_STYLE_ASSIGNMENT((#212));
#119=VERTEX_POINT('',#213);
#120=PRESENTATION_STYLE_ASSIGNMENT((#214));
#121=VERTEX_POINT('',#215);
#122=PRESENTATION_STYLE_ASSIGNMENT((#216));
#123=EDGE_CURVE('',#91,#95,#217,.T.);
#124=PRESENTATION_STYLE_ASSIGNMENT((#218));
#125=ADVANCED_FACE('',(#219,#220),#221,.T.);
#126=PRESENTATION_STYLE_ASSIGNMENT((#222));
#127=EDGE_CURVE('',#119,#111,#223,.T.);
#128=PRODUCT('1','1','PART-1-DESC',(#224));
#129=PRODUCT_DEFINITION('NONE','NONE',#225,#2);
#130=AXIS2_PLACEMENT_3D('',#226,#227,#228);
#133=LENGTH_MEASURE_WITH_UNIT(LENGTH_MEASURE(1.0),#229);
#136=DIMENSIONAL_EXPONENTS(1.0,0.0,0.0,0.0,0.0,0.0,0.0);
#138=DIMENSIONAL_EXPONENTS(0.0,0.0,0.0,0.0,0.0,0.0,0.0);
#144=CURVE_STYLE('',#230,POSITIVE_LENGTH_MEASURE(1.0E-006),#231);
#145=CIRCLE('',#232,6.0);
#146=CURVE_STYLE('',#233,POSITIVE_LENGTH_MEASURE(1.0E-006),#234);
#147=CIRCLE('',#235,6.0);
#148=SURFACE_STYLE_USAGE(.BOTH.,#236);
#149=CLOSED_SHELL('',(#73,#69,#65,#113,#67,#77,#125,#89));
#150=SURFACE_STYLE_USAGE(.BOTH.,#237);
#151=FACE_OUTER_BOUND('',#238,.T.);
#152=CONICAL_SURFACE('',#239,7.62500000000001,1.04719755119659);
#153=SURFACE_STYLE_USAGE(.BOTH.,#240);
#154=FACE_OUTER_BOUND('',#241,.T.);
#155=FACE_BOUND('',#242,.T.);
#156=PLANE('',#243);
#157=SURFACE_STYLE_USAGE(.BOTH.,#244);
#158=FACE_OUTER_BOUND('',#245,.T.);
#159=CYLINDRICAL_SURFACE('',#246,10.5);
#160=CURVE_STYLE('',#247,POSITIVE_LENGTH_MEASURE(1.0E-006),#248);
#161=LINE('',#249,#250);
#162=SURFACE_STYLE_USAGE(.BOTH.,#251);
#163=FACE_OUTER_BOUND('',#252,.T.);
#164=CYLINDRICAL_SURFACE('',#253,6.0);
#165=CURVE_STYLE('',#254,POSITIVE_LENGTH_MEASURE(1.0E-006),#255);
#166=CIRCLE('',#256,10.5);
#167=SURFACE_STYLE_USAGE(.BOTH.,#257);
#168=FACE_OUTER_BOUND('',#258,.T.);
#169=CYLINDRICAL_SURFACE('',#259,10.5);
#170=POINT_STYLE(' ',#260,POSITIVE_LENGTH_MEASURE(1.0E-006),#261);
#171=CARTESIAN_POINT('',(6.00000000000003,1.30032178146216E-014,2.32361162513362));
#172=POINT_STYLE(' ',#262,POSITIVE_LENGTH_MEASURE(1.0E-006),#263);
#173=CARTESIAN_POINT('',(-10.5,9.73369384875379E-015,-2.8421709430404E-014));
#174=CURVE_STYLE('',#264,POSITIVE_LENGTH_MEASURE(1.0E-006),#265);
#175=CIRCLE('',#266,10.5);
#176=POINT_STYLE(' ',#267,POSITIVE_LENGTH_MEASURE(1.0E-006),#268);
#177=CARTESIAN_POINT('',(-10.5,9.99086118305649E-015,4.19999999999996));
#178=CURVE_STYLE('',#269,POSITIVE_LENGTH_MEASURE(1.0E-006),#270);
#179=CIRCLE('',#271,9.25000000000003);
#180=SURFACE_STYLE_USAGE(.BOTH.,#272);
#181=FACE_OUTER_BOUND('',#273,.T.);
#182=CYLINDRICAL_SURFACE('',#274,6.0);
#183=POINT_STYLE(' ',#275,POSITIVE_LENGTH_MEASURE(1.0E-006),#276);
#184=CARTESIAN_POINT('',(10.5000000000001,1.42981077846603E-014,-2.8421709430404E-014));
#185=CURVE_STYLE('',#277,POSITIVE_LENGTH_MEASURE(1.0E-006),#278);
#186=CIRCLE('',#279,10.5);
#187=POINT_STYLE(' ',#280,POSITIVE_LENGTH_MEASURE(1.0E-006),#281);
#188=CARTESIAN_POINT('',(10.5000000000001,1.42981077846603E-014,4.19999999999996));
#189=CURVE_STYLE('',#282,POSITIVE_LENGTH_MEASURE(1.0E-006),#283);
#190=CIRCLE('',#284,6.0);
#191=POINT_STYLE(' ',#285,POSITIVE_LENGTH_MEASURE(1.0E-006),#286);
#192=CARTESIAN_POINT('',(-5.99999999999997,1.02847667079739E-014,-2.8421709430404E-014));
#193=CURVE_STYLE('',#287,POSITIVE_LENGTH_MEASURE(1.0E-006),#288);
#194=LINE('',#289,#290);
#195=CURVE_STYLE('',#291,POSITIVE_LENGTH_MEASURE(1.0E-006),#292);
#196=CIRCLE('',#293,6.0);
#197=CURVE_STYLE('',#294,POSITIVE_LENGTH_MEASURE(1.0E-006),#295);
#198=CIRCLE('',#296,10.5);
#199=CURVE_STYLE('',#297,POSITIVE_LENGTH_MEASURE(1.0E-006),#298);
#200=LINE('',#299,#300);
#201=CURVE_STYLE('',#301,POSITIVE_LENGTH_MEASURE(1.0E-006),#302);
#202=LINE('',#303,#304);
#203=POINT_STYLE(' ',#305,POSITIVE_LENGTH_MEASURE(1.0E-006),#306);
#204=CARTESIAN_POINT('',(-5.99999999999997,1.04270421859716E-014,2.32361162513362));
#205=SURFACE_STYLE_USAGE(.BOTH.,#307);
#206=FACE_OUTER_BOUND('',#308,.T.);
#207=CONICAL_SURFACE('',#309,7.62500000000001,1.04719755119659);
#208=CURVE_STYLE('',#310,POSITIVE_LENGTH_MEASURE(1.0E-006),#311);
#209=CIRCLE('',#312,9.25000000000003);
#210=POINT_STYLE(' ',#313,POSITIVE_LENGTH_MEASURE(1.0E-006),#314);
#211=CARTESIAN_POINT('',(9.25000000000006,1.39384161263162E-014,4.19999999999996));
#212=POINT_STYLE(' ',#315,POSITIVE_LENGTH_MEASURE(1.0E-006),#316);
#213=CARTESIAN_POINT('',(-9.25,1.01439369772843E-014,4.19999999999996));
#214=POINT_STYLE(' ',#317,POSITIVE_LENGTH_MEASURE(1.0E-006),#318);
#215=CARTESIAN_POINT('',(6.00000000000003,1.30032178146216E-014,-2.8421709430404E-014));
#216=CURVE_STYLE('',#319,POSITIVE_LENGTH_MEASURE(1.0E-006),#320);
#217=LINE('',#321,#322);
#218=SURFACE_STYLE_USAGE(.BOTH.,#323);
#219=FACE_BOUND('',#324,.T.);
#220=FACE_OUTER_BOUND('',#325,.T.);
#221=PLANE('',#326);
#222=CURVE_STYLE('',#327,POSITIVE_LENGTH_MEASURE(1.0E-006),#328);
#223=LINE('',#329,#330);
#224=PRODUCT_CONTEXT('',#45,'mechanical');
#225=PRODUCT_DEFINITION_FORMATION_WITH_SPECIFIED_SOURCE(' ','NONE',#128,.NOT_KNOWN.);
#226=CARTESIAN_POINT('',(0.0,0.0,0.0));
#227=DIRECTION('',(0.0,0.0,1.0));
#228=DIRECTION('',(1.0,0.0,0.0));
#229= (NAMED_UNIT(#136)LENGTH_UNIT()SI_UNIT(.MILLI.,.METRE.));
#230=DRAUGHTING_PRE_DEFINED_CURVE_FONT('continuous');
#231=COLOUR_RGB('',0.509803950786591,0.509803950786591,0.588235318660736);
#232=AXIS2_PLACEMENT_3D('',#332,#333,#334);
#233=DRAUGHTING_PRE_DEFINED_CURVE_FONT('continuous');
#234=COLOUR_RGB('',0.509803950786591,0.509803950786591,0.588235318660736);
#235=AXIS2_PLACEMENT_3D('',#335,#336,#337);
#236=SURFACE_SIDE_STYLE('',(#338));
#237=SURFACE_SIDE_STYLE('',(#339));
#238=EDGE_LOOP('',(#340,#341,#342,#343));
#239=AXIS2_PLACEMENT_3D('',#344,#345,#346);
#240=SURFACE_SIDE_STYLE('',(#347));
#241=EDGE_LOOP('',(#348,#349));
#242=EDGE_LOOP('',(#350,#351));
#243=AXIS2_PLACEMENT_3D('',#352,#353,#354);
#244=SURFACE_SIDE_STYLE('',(#355));
#245=EDGE_LOOP('',(#356,#357,#358,#359));
#246=AXIS2_PLACEMENT_3D('',#360,#361,#362);
#247=DRAUGHTING_PRE_DEFINED_CURVE_FONT('continuous');
#248=COLOUR_RGB('',0.509803950786591,0.509803950786591,0.588235318660736);
#249=CARTESIAN_POINT('',(-5.99999999999997,9.55017789451837E-015,1.1618058125668));
#250=VECTOR('',#363,1.0);
#251=SURFACE_SIDE_STYLE('',(#364));
#252=EDGE_LOOP('',(#365,#366,#367,#368));
#253=AXIS2_PLACEMENT_3D('',#369,#370,#371);
#254=DRAUGHTING_PRE_DEFINED_CURVE_FONT('continuous');
#255=COLOUR_RGB('',0.509803950786591,0.509803950786591,0.588235318660736);
#256=AXIS2_PLACEMENT_3D('',#372,#373,#374);
#257=SURFACE_SIDE_STYLE('',(#375));
#258=EDGE_LOOP('',(#376,#377,#378,#379));
#259=AXIS2_PLACEMENT_3D('',#380,#381,#382);
#260=PRE_DEFINED_MARKER('');
#261=COLOUR_RGB('',0.509803950786591,0.509803950786591,0.588235318660736);
#262=PRE_DEFINED_MARKER('');
#263=COLOUR_RGB('',0.509803950786591,0.509803950786591,0.588235318660736);
#264=DRAUGHTING_PRE_DEFINED_CURVE_FONT('continuous');
#265=COLOUR_RGB('',0.509803950786591,0.509803950786591,0.588235318660736);
#266=AXIS2_PLACEMENT_3D('',#383,#384,#385);
#267=PRE_DEFINED_MARKER('');
#268=COLOUR_RGB('',0.509803950786591,0.509803950786591,0.588235318660736);
#269=DRAUGHTING_PRE_DEFINED_CURVE_FONT('continuous');
#270=COLOUR_RGB('',0.509803950786591,0.509803950786591,0.588235318660736);
#271=AXIS2_PLACEMENT_3D('',#386,#387,#388);
#272=SURFACE_SIDE_STYLE('',(#389));
#273=EDGE_LOOP('',(#390,#391,#392,#393));
#274=AXIS2_PLACEMENT_3D('',#394,#395,#396);
#275=PRE_DEFINED_MARKER('');
#276=COLOUR_RGB('',0.509803950786591,0.509803950786591,0.588235318660736);
#277=DRAUGHTING_PRE_DEFINED_CURVE_FONT('continuous');
#278=COLOUR_RGB('',0.509803950786591,0.509803950786591,0.588235318660736);
#279=AXIS2_PLACEMENT_3D('',#397,#398,#399);
#280=PRE_DEFINED_MARKER('');
#281=COLOUR_RGB('',0.509803950786591,0.509803950786591,0.588235318660736);
#282=DRAUGHTING_PRE_DEFINED_CURVE_FONT('continuous');
#283=COLOUR_RGB('',0.509803950786591,0.509803950786591,0.588235318660736);
#284=AXIS2_PLACEMENT_3D('',#400,#401,#402);
#285=PRE_DEFINED_MARKER('');
#286=COLOUR_RGB('',0.509803950786591,0.509803950786591,0.588235318660736);
#287=DRAUGHTING_PRE_DEFINED_CURVE_FONT('continuous');
#288=COLOUR_RGB('',0.509803950786591,0.509803950786591,0.588235318660736);
#289=CARTESIAN_POINT('',(6.00000000000003,1.30032178146216E-014,1.1618058125668));
#290=VECTOR('',#403,1.0);
#291=DRAUGHTING_PRE_DEFINED_CURVE_FONT('continuous');
#292=COLOUR_RGB('',0.509803950786591,0.509803950786591,0.588235318660736);
#293=AXIS2_PLACEMENT_3D('',#404,#405,#406);
#294=DRAUGHTING_PRE_DEFINED_CURVE_FONT('continuous');
#295=COLOUR_RGB('',0.509803950786591,0.509803950786591,0.588235318660736);
#296=AXIS2_PLACEMENT_3D('',#407,#408,#409);
#297=DRAUGHTING_PRE_DEFINED_CURVE_FONT('continuous');
#298=COLOUR_RGB('',0.509803950786591,0.509803950786591,0.588235318660736);
#299=CARTESIAN_POINT('',(7.62500000000004,1.34708169704689E-014,3.26180581256679));
#300=VECTOR('',#410,1.0);
#301=DRAUGHTING_PRE_DEFINED_CURVE_FONT('continuous');
#302=COLOUR_RGB('',0.509803950786591,0.509803950786591,0.588235318660736);
#303=CARTESIAN_POINT('',(-10.5,8.25528792447965E-015,2.09999999999997));
#304=VECTOR('',#411,1.0);
#305=PRE_DEFINED_MARKER('');
#306=COLOUR_RGB('',0.509803950786591,0.509803950786591,0.588235318660736);
#307=SURFACE_SIDE_STYLE('',(#412));
#308=EDGE_LOOP('',(#413,#414,#415,#416));
#309=AXIS2_PLACEMENT_3D('',#417,#418,#419);
#310=DRAUGHTING_PRE_DEFINED_CURVE_FONT('continuous');
#311=COLOUR_RGB('',0.509803950786591,0.509803950786591,0.588235318660736);
#312=AXIS2_PLACEMENT_3D('',#420,#421,#422);
#313=PRE_DEFINED_MARKER('');
#314=COLOUR_RGB('',0.509803950786591,0.509803950786591,0.588235318660736);
#315=PRE_DEFINED_MARKER('');
#316=COLOUR_RGB('',0.509803950786591,0.509803950786591,0.588235318660736);
#317=PRE_DEFINED_MARKER('');
#318=COLOUR_RGB('',0.509803950786591,0.509803950786591,0.588235318660736);
#319=DRAUGHTING_PRE_DEFINED_CURVE_FONT('continuous');
#320=COLOUR_RGB('',0.509803950786591,0.509803950786591,0.588235318660736);
#321=CARTESIAN_POINT('',(10.5000000000001,1.42981077846603E-014,2.09999999999997));
#322=VECTOR('',#423,1.0);
#323=SURFACE_SIDE_STYLE('',(#424));
#324=EDGE_LOOP('',(#425,#426));
#325=EDGE_LOOP('',(#427,#428));
#326=AXIS2_PLACEMENT_3D('',#429,#430,#431);
#327=DRAUGHTING_PRE_DEFINED_CURVE_FONT('continuous');
#328=COLOUR_RGB('',0.509803950786591,0.509803950786591,0.588235318660736);
#329=CARTESIAN_POINT('',(-7.62499999999999,9.08257873867106E-015,3.26180581256679));
#330=VECTOR('',#432,1.0);
#332=CARTESIAN_POINT('',(2.8421709430404E-014,1.127669785457E-014,-2.8421709430404E-014));
#333=DIRECTION('',(-0.0,0.0,-1.0));
#334=DIRECTION('',(-1.0,-1.65292691293031E-016,0.0));
#335=CARTESIAN_POINT('',(2.8421709430404E-014,1.127669785457E-014,2.32361162513362));
#336=DIRECTION('',(-0.0,0.0,-1.0));
#337=DIRECTION('',(-1.0,-1.65292691293031E-016,0.0));
#338=SURFACE_STYLE_FILL_AREA(#433);
#339=SURFACE_STYLE_FILL_AREA(#434);
#340=ORIENTED_EDGE('',*,*,#127,.F.);
#341=ORIENTED_EDGE('',*,*,#115,.F.);
#342=ORIENTED_EDGE('',*,*,#107,.F.);
#343=ORIENTED_EDGE('',*,*,#61,.T.);
#344=CARTESIAN_POINT('',(2.8421709430404E-014,1.127669785457E-014,3.26180581256679));
#345=DIRECTION('',(0.0,-0.0,1.0));
#346=DIRECTION('',(-1.0,-1.65292691293031E-016,0.0));
#347=SURFACE_STYLE_FILL_AREA(#435);
#348=ORIENTED_EDGE('',*,*,#105,.F.);
#349=ORIENTED_EDGE('',*,*,#83,.F.);
#350=ORIENTED_EDGE('',*,*,#87,.T.);
#351=ORIENTED_EDGE('',*,*,#115,.T.);
#352=CARTESIAN_POINT('',(-9.875,1.00673990801704E-014,4.19999999999996));
#353=DIRECTION('',(0.0,0.0,1.0));
#354=DIRECTION('',(-1.0,-1.22460635382238E-016,0.0));
#355=SURFACE_STYLE_FILL_AREA(#436);
#356=ORIENTED_EDGE('',*,*,#109,.F.);
#357=ORIENTED_EDGE('',*,*,#105,.T.);
#358=ORIENTED_EDGE('',*,*,#123,.F.);
#359=ORIENTED_EDGE('',*,*,#93,.F.);
#360=CARTESIAN_POINT('',(2.8421709430404E-014,1.127669785457E-014,2.09999999999997));
#361=DIRECTION('',(0.0,-0.0,1.0));
#362=DIRECTION('',(-1.0,-1.65292691293031E-016,0.0));
#363=DIRECTION('',(0.0,0.0,-1.0));
#364=SURFACE_STYLE_FILL_AREA(#437);
#365=ORIENTED_EDGE('',*,*,#71,.F.);
#366=ORIENTED_EDGE('',*,*,#61,.F.);
#367=ORIENTED_EDGE('',*,*,#101,.F.);
#368=ORIENTED_EDGE('',*,*,#97,.T.);
#369=CARTESIAN_POINT('',(2.8421709430404E-014,1.127669785457E-014,1.1618058125668));
#370=DIRECTION('',(0.0,-0.0,1.0));
#371=DIRECTION('',(-1.0,-1.65292691293031E-016,0.0));
#372=CARTESIAN_POINT('',(2.8421709430404E-014,1.127669785457E-014,-2.8421709430404E-014));
#373=DIRECTION('',(-0.0,0.0,-1.0));
#374=DIRECTION('',(-1.0,-1.65292691293031E-016,0.0));
#375=SURFACE_STYLE_FILL_AREA(#438);
#376=ORIENTED_EDGE('',*,*,#109,.T.);
#377=ORIENTED_EDGE('',*,*,#75,.F.);
#378=ORIENTED_EDGE('',*,*,#123,.T.);
#379=ORIENTED_EDGE('',*,*,#83,.T.);
#380=CARTESIAN_POINT('',(2.8421709430404E-014,1.127669785457E-014,2.09999999999997));
#381=DIRECTION('',(0.0,-0.0,1.0));
#382=DIRECTION('',(-1.0,-1.65292691293031E-016,0.0));
#383=CARTESIAN_POINT('',(2.8421709430404E-014,1.127669785457E-014,4.19999999999996));
#384=DIRECTION('',(-0.0,0.0,-1.0));
#385=DIRECTION('',(-1.0,-1.65292691293031E-016,0.0));
#386=CARTESIAN_POINT('',(2.8421709430404E-014,1.127669785457E-014,4.19999999999996));
#387=DIRECTION('',(-0.0,0.0,-1.0));
#388=DIRECTION('',(-1.0,-1.65292691293031E-016,0.0));
#389=SURFACE_STYLE_FILL_AREA(#439);
#390=ORIENTED_EDGE('',*,*,#71,.T.);
#391=ORIENTED_EDGE('',*,*,#59,.T.);
#392=ORIENTED_EDGE('',*,*,#101,.T.);
#393=ORIENTED_EDGE('',*,*,#103,.F.);
#394=CARTESIAN_POINT('',(2.8421709430404E-014,1.127669785457E-014,1.1618058125668));
#395=DIRECTION('',(0.0,-0.0,1.0));
#396=DIRECTION('',(-1.0,-1.65292691293031E-016,0.0));
#397=CARTESIAN_POINT('',(2.8421709430404E-014,1.127669785457E-014,-2.8421709430404E-014));
#398=DIRECTION('',(-0.0,0.0,-1.0));
#399=DIRECTION('',(-1.0,-1.65292691293031E-016,0.0));
#400=CARTESIAN_POINT('',(2.8421709430404E-014,1.127669785457E-014,-2.8421709430404E-014));
#401=DIRECTION('',(-0.0,0.0,-1.0));
#402=DIRECTION('',(-1.0,-1.65292691293031E-016,0.0));
#403=DIRECTION('',(0.0,0.0,1.0));
#404=CARTESIAN_POINT('',(2.8421709430404E-014,1.127669785457E-014,2.32361162513362));
#405=DIRECTION('',(-0.0,0.0,-1.0));
#406=DIRECTION('',(-1.0,-1.65292691293031E-016,0.0));
#407=CARTESIAN_POINT('',(2.8421709430404E-014,1.127669785457E-014,4.19999999999996));
#408=DIRECTION('',(-0.0,0.0,-1.0));
#409=DIRECTION('',(-1.0,-1.65292691293031E-016,0.0));
#410=DIRECTION('',(0.866025403784434,2.49201690924264E-016,0.500000000000008));
#411=DIRECTION('',(0.0,0.0,-1.0));
#412=SURFACE_STYLE_FILL_AREA(#440);
#413=ORIENTED_EDGE('',*,*,#127,.T.);
#414=ORIENTED_EDGE('',*,*,#103,.T.);
#415=ORIENTED_EDGE('',*,*,#107,.T.);
#416=ORIENTED_EDGE('',*,*,#87,.F.);
#417=CARTESIAN_POINT('',(2.8421709430404E-014,1.127669785457E-014,3.26180581256679));
#418=DIRECTION('',(0.0,-0.0,1.0));
#419=DIRECTION('',(-1.0,-1.65292691293031E-016,0.0));
#420=CARTESIAN_POINT('',(2.8421709430404E-014,1.127669785457E-014,4.19999999999996));
#421=DIRECTION('',(-0.0,0.0,-1.0));
#422=DIRECTION('',(-1.0,-1.65292691293031E-016,0.0));
#423=DIRECTION('',(-0.0,-0.0,1.0));
#424=SURFACE_STYLE_FILL_AREA(#441);
#425=ORIENTED_EDGE('',*,*,#59,.F.);
#426=ORIENTED_EDGE('',*,*,#97,.F.);
#427=ORIENTED_EDGE('',*,*,#93,.T.);
#428=ORIENTED_EDGE('',*,*,#75,.T.);
#429=CARTESIAN_POINT('',(-8.24999999999999,1.00092302783638E-014,-2.8421709430404E-014));
#430=DIRECTION('',(0.0,0.0,-1.0));
#431=DIRECTION('',(1.0,1.22460635382238E-016,0.0));
#432=DIRECTION('',(0.866025403784434,2.49201690924264E-016,-0.500000000000008));
#433=FILL_AREA_STYLE('',(#442));
#434=FILL_AREA_STYLE('',(#443));
#435=FILL_AREA_STYLE('',(#444));
#436=FILL_AREA_STYLE('',(#445));
#437=FILL_AREA_STYLE('',(#446));
#438=FILL_AREA_STYLE('',(#447));
#439=FILL_AREA_STYLE('',(#448));
#440=FILL_AREA_STYLE('',(#449));
#441=FILL_AREA_STYLE('',(#450));
#442=FILL_AREA_STYLE_COLOUR('',#451);
#443=FILL_AREA_STYLE_COLOUR('',#452);
#444=FILL_AREA_STYLE_COLOUR('',#453);
#445=FILL_AREA_STYLE_COLOUR('',#454);
#446=FILL_AREA_STYLE_COLOUR('',#455);
#447=FILL_AREA_STYLE_COLOUR('',#456);
#448=FILL_AREA_STYLE_COLOUR('',#457);
#449=FILL_AREA_STYLE_COLOUR('',#458);
#450=FILL_AREA_STYLE_COLOUR('',#459);
#451=COLOUR_RGB('',0.509803950786591,0.509803950786591,0.588235318660736);
#452=COLOUR_RGB('',0.509803950786591,0.509803950786591,0.588235318660736);
#453=COLOUR_RGB('',0.509803950786591,0.509803950786591,0.588235318660736);
#454=COLOUR_RGB('',0.509803950786591,0.509803950786591,0.588235318660736);
#455=COLOUR_RGB('',0.509803950786591,0.509803950786591,0.588235318660736);
#456=COLOUR_RGB('',0.509803950786591,0.509803950786591,0.588235318660736);
#457=COLOUR_RGB('',0.509803950786591,0.509803950786591,0.588235318660736);
#458=COLOUR_RGB('',0.509803950786591,0.509803950786591,0.588235318660736);
#459=COLOUR_RGB('',0.509803950786591,0.509803950786591,0.588235318660736);
ENDSEC;
END-ISO-10303-21;
