ISO-10303-21;
HEADER;
FILE_DESCRIPTION(('STEP AP214'),'1');
FILE_NAME(' ','  ',('TraceParts'),('TraceParts S.A.'),'XStep 1.0',' ',' ');
FILE_SCHEMA(('automotive_design'));
ENDSEC;
DATA;
#1=MECHANICAL_DESIGN_GEOMETRIC_PRESENTATION_REPRESENTATION(' ',(#10,#11,#12,#13,#14,#15,#16,#17,#18,#19,#20,#21,#22,#23,#24,#25,#26,#27,#28,#29,#30,#31,#32,#33,#34,#35,#36,#37,#38,#39,#40,#41,#42,#43,#44,#45,#46,#47,#48,#49,#50,#51,#52),#6);
#2=PRODUCT_DEFINITION_CONTEXT('',#53,'design');
#3=APPLICATION_PROTOCOL_DEFINITION('INTERNATIONAL STANDARD','automotive_design',1994,#53);
#4=PRODUCT_CATEGORY_RELATIONSHIP('NONE','NONE',#54,#55);
#5=SHAPE_DEFINITION_REPRESENTATION(#56,#57);
#6= (GEOMETRIC_REPRESENTATION_CONTEXT(3)GLOBAL_UNCERTAINTY_ASSIGNED_CONTEXT((#60))GLOBAL_UNIT_ASSIGNED_CONTEXT((#62,#63,#64))REPRESENTATION_CONTEXT('NONE','WORKSPACE'));
#10=STYLED_ITEM('',(#66),#67);
#11=STYLED_ITEM('',(#68),#69);
#12=STYLED_ITEM('',(#70),#71);
#13=STYLED_ITEM('',(#72),#73);
#14=STYLED_ITEM('',(#74),#75);
#15=STYLED_ITEM('',(#76),#77);
#16=STYLED_ITEM('',(#78),#79);
#17=STYLED_ITEM('',(#80),#81);
#18=STYLED_ITEM('',(#82),#83);
#19=STYLED_ITEM('',(#84),#85);
#20=STYLED_ITEM('',(#86),#87);
#21=STYLED_ITEM('',(#88),#89);
#22=STYLED_ITEM('',(#90),#91);
#23=STYLED_ITEM('',(#92),#93);
#24=STYLED_ITEM('',(#94),#95);
#25=STYLED_ITEM('',(#96),#97);
#26=STYLED_ITEM('',(#98),#99);
#27=STYLED_ITEM('',(#100),#101);
#28=STYLED_ITEM('',(#102),#103);
#29=STYLED_ITEM('',(#104),#105);
#30=STYLED_ITEM('',(#106),#107);
#31=STYLED_ITEM('',(#108),#109);
#32=STYLED_ITEM('',(#110),#111);
#33=STYLED_ITEM('',(#112),#113);
#34=STYLED_ITEM('',(#114),#115);
#35=STYLED_ITEM('',(#116),#117);
#36=STYLED_ITEM('',(#118),#119);
#37=STYLED_ITEM('',(#120),#121);
#38=STYLED_ITEM('',(#122),#123);
#39=STYLED_ITEM('',(#124),#125);
#40=STYLED_ITEM('',(#126),#127);
#41=STYLED_ITEM('',(#128),#129);
#42=STYLED_ITEM('',(#130),#131);
#43=STYLED_ITEM('',(#132),#133);
#44=STYLED_ITEM('',(#134),#135);
#45=STYLED_ITEM('',(#136),#137);
#46=STYLED_ITEM('',(#138),#139);
#47=STYLED_ITEM('',(#140),#141);
#48=STYLED_ITEM('',(#142),#143);
#49=STYLED_ITEM('',(#144),#145);
#50=STYLED_ITEM('',(#146),#147);
#51=STYLED_ITEM('',(#148),#149);
#52=STYLED_ITEM('',(#150),#151);
#53=APPLICATION_CONTEXT(' ');
#54=PRODUCT_CATEGORY('part','NONE');
#55=PRODUCT_RELATED_PRODUCT_CATEGORY('detail',' ',(#152));
#56=PRODUCT_DEFINITION_SHAPE('NONE','NONE',#153);
#57=ADVANCED_BREP_SHAPE_REPRESENTATION('1',(#77,#154),#6);
#60=UNCERTAINTY_MEASURE_WITH_UNIT(LENGTH_MEASURE(1.0E-006),#62,'','');
#62= (CONVERSION_BASED_UNIT('MILLIMETRE',#157)LENGTH_UNIT()NAMED_UNIT(#160));
#63= (NAMED_UNIT(#162)PLANE_ANGLE_UNIT()SI_UNIT($,.RADIAN.));
#64= (NAMED_UNIT(#162)SOLID_ANGLE_UNIT()SI_UNIT($,.STERADIAN.));
#66=PRESENTATION_STYLE_ASSIGNMENT((#168));
#67=EDGE_CURVE('',#107,#147,#169,.T.);
#68=PRESENTATION_STYLE_ASSIGNMENT((#170));
#69=VERTEX_POINT('',#171);
#70=PRESENTATION_STYLE_ASSIGNMENT((#172));
#71=ADVANCED_FACE('',(#173),#174,.T.);
#72=PRESENTATION_STYLE_ASSIGNMENT((#175));
#73=EDGE_CURVE('',#69,#107,#176,.T.);
#74=PRESENTATION_STYLE_ASSIGNMENT((#177));
#75=EDGE_CURVE('',#83,#103,#178,.T.);
#76=PRESENTATION_STYLE_ASSIGNMENT((#179));
#77=MANIFOLD_SOLID_BREP('1',#180);
#78=PRESENTATION_STYLE_ASSIGNMENT((#181));
#79=ADVANCED_FACE('',(#182),#183,.F.);
#80=PRESENTATION_STYLE_ASSIGNMENT((#184));
#81=ADVANCED_FACE('',(#185),#186,.T.);
#82=PRESENTATION_STYLE_ASSIGNMENT((#187));
#83=VERTEX_POINT('',#188);
#84=PRESENTATION_STYLE_ASSIGNMENT((#189));
#85=EDGE_CURVE('',#125,#149,#190,.T.);
#86=PRESENTATION_STYLE_ASSIGNMENT((#191));
#87=VERTEX_POINT('',#192);
#88=PRESENTATION_STYLE_ASSIGNMENT((#193));
#89=EDGE_CURVE('',#149,#109,#194,.T.);
#90=PRESENTATION_STYLE_ASSIGNMENT((#195));
#91=ADVANCED_FACE('',(#196),#197,.F.);
#92=PRESENTATION_STYLE_ASSIGNMENT((#198));
#93=EDGE_CURVE('',#103,#107,#199,.T.);
#94=PRESENTATION_STYLE_ASSIGNMENT((#200));
#95=ADVANCED_FACE('',(#201),#202,.T.);
#96=PRESENTATION_STYLE_ASSIGNMENT((#203));
#97=VERTEX_POINT('',#204);
#98=PRESENTATION_STYLE_ASSIGNMENT((#205));
#99=EDGE_CURVE('',#121,#109,#206,.T.);
#100=PRESENTATION_STYLE_ASSIGNMENT((#207));
#101=EDGE_CURVE('',#125,#97,#208,.T.);
#102=PRESENTATION_STYLE_ASSIGNMENT((#209));
#103=VERTEX_POINT('',#210);
#104=PRESENTATION_STYLE_ASSIGNMENT((#211));
#105=EDGE_CURVE('',#121,#87,#212,.T.);
#106=PRESENTATION_STYLE_ASSIGNMENT((#213));
#107=VERTEX_POINT('',#214);
#108=PRESENTATION_STYLE_ASSIGNMENT((#215));
#109=VERTEX_POINT('',#216);
#110=PRESENTATION_STYLE_ASSIGNMENT((#217));
#111=ADVANCED_FACE('',(#218),#219,.T.);
#112=PRESENTATION_STYLE_ASSIGNMENT((#220));
#113=EDGE_CURVE('',#109,#97,#221,.T.);
#114=PRESENTATION_STYLE_ASSIGNMENT((#222));
#115=EDGE_CURVE('',#107,#69,#223,.T.);
#116=PRESENTATION_STYLE_ASSIGNMENT((#224));
#117=ADVANCED_FACE('',(#225),#226,.F.);
#118=PRESENTATION_STYLE_ASSIGNMENT((#227));
#119=ADVANCED_FACE('',(#228,#229),#230,.T.);
#120=PRESENTATION_STYLE_ASSIGNMENT((#231));
#121=VERTEX_POINT('',#232);
#122=PRESENTATION_STYLE_ASSIGNMENT((#233));
#123=ADVANCED_FACE('',(#234),#235,.F.);
#124=PRESENTATION_STYLE_ASSIGNMENT((#236));
#125=VERTEX_POINT('',#237);
#126=PRESENTATION_STYLE_ASSIGNMENT((#238));
#127=EDGE_CURVE('',#109,#149,#239,.T.);
#128=PRESENTATION_STYLE_ASSIGNMENT((#240));
#129=EDGE_CURVE('',#139,#147,#241,.T.);
#130=PRESENTATION_STYLE_ASSIGNMENT((#242));
#131=EDGE_CURVE('',#87,#121,#243,.T.);
#132=PRESENTATION_STYLE_ASSIGNMENT((#244));
#133=EDGE_CURVE('',#149,#87,#245,.T.);
#134=PRESENTATION_STYLE_ASSIGNMENT((#246));
#135=EDGE_CURVE('',#97,#125,#247,.T.);
#136=PRESENTATION_STYLE_ASSIGNMENT((#248));
#137=EDGE_CURVE('',#69,#83,#249,.T.);
#138=PRESENTATION_STYLE_ASSIGNMENT((#250));
#139=VERTEX_POINT('',#251);
#140=PRESENTATION_STYLE_ASSIGNMENT((#252));
#141=EDGE_CURVE('',#103,#83,#253,.T.);
#142=PRESENTATION_STYLE_ASSIGNMENT((#254));
#143=EDGE_CURVE('',#139,#69,#255,.T.);
#144=PRESENTATION_STYLE_ASSIGNMENT((#256));
#145=ADVANCED_FACE('',(#257,#258),#259,.T.);
#146=PRESENTATION_STYLE_ASSIGNMENT((#260));
#147=VERTEX_POINT('',#261);
#148=PRESENTATION_STYLE_ASSIGNMENT((#262));
#149=VERTEX_POINT('',#263);
#150=PRESENTATION_STYLE_ASSIGNMENT((#264));
#151=EDGE_CURVE('',#147,#139,#265,.T.);
#152=PRODUCT('1','1','PART-1-DESC',(#266));
#153=PRODUCT_DEFINITION('NONE','NONE',#267,#2);
#154=AXIS2_PLACEMENT_3D('',#268,#269,#270);
#157=LENGTH_MEASURE_WITH_UNIT(LENGTH_MEASURE(1.0),#271);
#160=DIMENSIONAL_EXPONENTS(1.0,0.0,0.0,0.0,0.0,0.0,0.0);
#162=DIMENSIONAL_EXPONENTS(0.0,0.0,0.0,0.0,0.0,0.0,0.0);
#168=CURVE_STYLE('',#272,POSITIVE_LENGTH_MEASURE(1.0E-006),#273);
#169=LINE('',#274,#275);
#170=POINT_STYLE(' ',#276,POSITIVE_LENGTH_MEASURE(1.0E-006),#277);
#171=CARTESIAN_POINT('',(-33.0,7.89105712972299E-015,26.0));
#172=SURFACE_STYLE_USAGE(.BOTH.,#278);
#173=FACE_OUTER_BOUND('',#279,.T.);
#174=SPHERICAL_SURFACE('',#280,92.9999999999994);
#175=CURVE_STYLE('',#281,POSITIVE_LENGTH_MEASURE(1.0E-006),#282);
#176=CIRCLE('',#283,33.0);
#177=CURVE_STYLE('',#284,POSITIVE_LENGTH_MEASURE(1.0E-006),#285);
#178=CIRCLE('',#286,33.0);
#179=SURFACE_STYLE_USAGE(.BOTH.,#287);
#180=CLOSED_SHELL('',(#91,#95,#117,#111,#71,#123,#119,#81,#145,#79));
#181=SURFACE_STYLE_USAGE(.BOTH.,#288);
#182=FACE_OUTER_BOUND('',#289,.T.);
#183=CYLINDRICAL_SURFACE('',#290,33.0);
#184=SURFACE_STYLE_USAGE(.BOTH.,#291);
#185=FACE_OUTER_BOUND('',#292,.T.);
#186=CYLINDRICAL_SURFACE('',#293,60.0);
#187=POINT_STYLE(' ',#294,POSITIVE_LENGTH_MEASURE(1.0E-006),#295);
#188=CARTESIAN_POINT('',(-33.0,6.2990688697539E-015,-2.8421709430404E-014));
#189=CURVE_STYLE('',#296,POSITIVE_LENGTH_MEASURE(1.0E-006),#297);
#190=LINE('',#298,#299);
#191=POINT_STYLE(' ',#300,POSITIVE_LENGTH_MEASURE(1.0E-006),#301);
#192=CARTESIAN_POINT('',(-35.2606087466047,6.02223328629404E-015,-5.6843418860808E-014));
#193=CURVE_STYLE('',#302,POSITIVE_LENGTH_MEASURE(1.0E-006),#303);
#194=CIRCLE('',#304,60.0);
#195=SURFACE_STYLE_USAGE(.BOTH.,#305);
#196=FACE_OUTER_BOUND('',#306,.T.);
#197=CYLINDRICAL_SURFACE('',#307,33.0);
#198=CURVE_STYLE('',#308,POSITIVE_LENGTH_MEASURE(1.0E-006),#309);
#199=LINE('',#310,#311);
#200=SURFACE_STYLE_USAGE(.BOTH.,#312);
#201=FACE_OUTER_BOUND('',#313,.T.);
#202=CYLINDRICAL_SURFACE('',#314,60.0);
#203=POINT_STYLE(' ',#315,POSITIVE_LENGTH_MEASURE(1.0E-006),#316);
#204=CARTESIAN_POINT('',(60.0,2.96910563556246E-014,27.0));
#205=CURVE_STYLE('',#317,POSITIVE_LENGTH_MEASURE(1.0E-006),#318);
#206=CIRCLE('',#319,92.9999999999994);
#207=CURVE_STYLE('',#320,POSITIVE_LENGTH_MEASURE(1.0E-006),#321);
#208=CIRCLE('',#322,60.0);
#209=POINT_STYLE(' ',#323,POSITIVE_LENGTH_MEASURE(1.0E-006),#324);
#210=CARTESIAN_POINT('',(33.0,2.17271507823561E-014,-2.8421709430404E-014));
#211=CURVE_STYLE('',#325,POSITIVE_LENGTH_MEASURE(1.0E-006),#326);
#212=CIRCLE('',#327,35.2606087466049);
#213=POINT_STYLE(' ',#328,POSITIVE_LENGTH_MEASURE(1.0E-006),#329);
#214=CARTESIAN_POINT('',(33.0,2.17271507823561E-014,26.0));
#215=POINT_STYLE(' ',#330,POSITIVE_LENGTH_MEASURE(1.0E-006),#331);
#216=CARTESIAN_POINT('',(60.0,3.03048016325047E-014,15.0000000000001));
#217=SURFACE_STYLE_USAGE(.BOTH.,#332);
#218=FACE_OUTER_BOUND('',#333,.T.);
#219=SPHERICAL_SURFACE('',#334,92.9999999999994);
#220=CURVE_STYLE('',#335,POSITIVE_LENGTH_MEASURE(1.0E-006),#336);
#221=LINE('',#337,#338);
#222=CURVE_STYLE('',#339,POSITIVE_LENGTH_MEASURE(1.0E-006),#340);
#223=CIRCLE('',#341,33.0);
#224=SURFACE_STYLE_USAGE(.BOTH.,#342);
#225=FACE_OUTER_BOUND('',#343,.T.);
#226=CONICAL_SURFACE('',#344,33.5,0.785398163397448);
#227=SURFACE_STYLE_USAGE(.BOTH.,#345);
#228=FACE_OUTER_BOUND('',#346,.T.);
#229=FACE_BOUND('',#347,.T.);
#230=PLANE('',#348);
#231=POINT_STYLE(' ',#349,POSITIVE_LENGTH_MEASURE(1.0E-006),#350);
#232=CARTESIAN_POINT('',(35.2606087466049,2.42455984887837E-014,-1.4210854715202E-014));
#233=SURFACE_STYLE_USAGE(.BOTH.,#351);
#234=FACE_OUTER_BOUND('',#352,.T.);
#235=CONICAL_SURFACE('',#353,33.5,0.785398163397448);
#236=POINT_STYLE(' ',#354,POSITIVE_LENGTH_MEASURE(1.0E-006),#355);
#237=CARTESIAN_POINT('',(-60.0,4.64585029209369E-015,27.0));
#238=CURVE_STYLE('',#356,POSITIVE_LENGTH_MEASURE(1.0E-006),#357);
#239=CIRCLE('',#358,60.0);
#240=CURVE_STYLE('',#359,POSITIVE_LENGTH_MEASURE(1.0E-006),#360);
#241=CIRCLE('',#361,34.0);
#242=CURVE_STYLE('',#362,POSITIVE_LENGTH_MEASURE(1.0E-006),#363);
#243=CIRCLE('',#364,35.2606087466049);
#244=CURVE_STYLE('',#365,POSITIVE_LENGTH_MEASURE(1.0E-006),#366);
#245=CIRCLE('',#367,92.9999999999994);
#246=CURVE_STYLE('',#368,POSITIVE_LENGTH_MEASURE(1.0E-006),#369);
#247=CIRCLE('',#370,60.0);
#248=CURVE_STYLE('',#371,POSITIVE_LENGTH_MEASURE(1.0E-006),#372);
#249=LINE('',#373,#374);
#250=POINT_STYLE(' ',#375,POSITIVE_LENGTH_MEASURE(1.0E-006),#376);
#251=CARTESIAN_POINT('',(-34.0,7.82982681203187E-015,27.0));
#252=CURVE_STYLE('',#377,POSITIVE_LENGTH_MEASURE(1.0E-006),#378);
#253=CIRCLE('',#379,33.0);
#254=CURVE_STYLE('',#380,POSITIVE_LENGTH_MEASURE(1.0E-006),#381);
#255=LINE('',#382,#383);
#256=SURFACE_STYLE_USAGE(.BOTH.,#384);
#257=FACE_OUTER_BOUND('',#385,.T.);
#258=FACE_BOUND('',#386,.T.);
#259=PLANE('',#387);
#260=POINT_STYLE(' ',#388,POSITIVE_LENGTH_MEASURE(1.0E-006),#389);
#261=CARTESIAN_POINT('',(34.0,2.20221102480327E-014,27.0));
#262=POINT_STYLE(' ',#390,POSITIVE_LENGTH_MEASURE(1.0E-006),#391);
#263=CARTESIAN_POINT('',(-59.9999999999999,3.91108647980028E-015,15.0));
#264=CURVE_STYLE('',#392,POSITIVE_LENGTH_MEASURE(1.0E-006),#393);
#265=CIRCLE('',#394,34.0);
#266=PRODUCT_CONTEXT('',#53,'mechanical');
#267=PRODUCT_DEFINITION_FORMATION_WITH_SPECIFIED_SOURCE(' ','NONE',#152,.NOT_KNOWN.);
#268=CARTESIAN_POINT('',(0.0,0.0,0.0));
#269=DIRECTION('',(0.0,0.0,1.0));
#270=DIRECTION('',(1.0,0.0,0.0));
#271= (NAMED_UNIT(#160)LENGTH_UNIT()SI_UNIT(.MILLI.,.METRE.));
#272=DRAUGHTING_PRE_DEFINED_CURVE_FONT('continuous');
#273=COLOUR_RGB('',0.509803950786591,0.509803950786591,0.588235318660736);
#274=CARTESIAN_POINT('',(33.5,2.18746305151944E-014,26.5));
#275=VECTOR('',#396,1.0);
#276=PRE_DEFINED_MARKER('');
#277=COLOUR_RGB('',0.509803950786591,0.509803950786591,0.588235318660736);
#278=SURFACE_SIDE_STYLE('',(#397));
#279=EDGE_LOOP('',(#398,#399,#400,#401));
#280=AXIS2_PLACEMENT_3D('',#402,#403,#404);
#281=DRAUGHTING_PRE_DEFINED_CURVE_FONT('continuous');
#282=COLOUR_RGB('',0.509803950786591,0.509803950786591,0.588235318660736);
#283=AXIS2_PLACEMENT_3D('',#405,#406,#407);
#284=DRAUGHTING_PRE_DEFINED_CURVE_FONT('continuous');
#285=COLOUR_RGB('',0.509803950786591,0.509803950786591,0.588235318660736);
#286=AXIS2_PLACEMENT_3D('',#408,#409,#410);
#287=SURFACE_SIDE_STYLE('',(#411));
#288=SURFACE_SIDE_STYLE('',(#412));
#289=EDGE_LOOP('',(#413,#414,#415,#416));
#290=AXIS2_PLACEMENT_3D('',#417,#418,#419);
#291=SURFACE_SIDE_STYLE('',(#420));
#292=EDGE_LOOP('',(#421,#422,#423,#424));
#293=AXIS2_PLACEMENT_3D('',#425,#426,#427);
#294=PRE_DEFINED_MARKER('');
#295=COLOUR_RGB('',0.509803950786591,0.509803950786591,0.588235318660736);
#296=DRAUGHTING_PRE_DEFINED_CURVE_FONT('continuous');
#297=COLOUR_RGB('',0.509803950786591,0.509803950786591,0.588235318660736);
#298=CARTESIAN_POINT('',(-60.0,-5.70407952556866E-015,21.0));
#299=VECTOR('',#428,1.0);
#300=PRE_DEFINED_MARKER('');
#301=COLOUR_RGB('',0.509803950786591,0.509803950786591,0.588235318660736);
#302=DRAUGHTING_PRE_DEFINED_CURVE_FONT('continuous');
#303=COLOUR_RGB('',0.509803950786591,0.509803950786591,0.588235318660736);
#304=AXIS2_PLACEMENT_3D('',#429,#430,#431);
#305=SURFACE_SIDE_STYLE('',(#432));
#306=EDGE_LOOP('',(#433,#434,#435,#436));
#307=AXIS2_PLACEMENT_3D('',#437,#438,#439);
#308=DRAUGHTING_PRE_DEFINED_CURVE_FONT('continuous');
#309=COLOUR_RGB('',0.509803950786591,0.509803950786591,0.588235318660736);
#310=CARTESIAN_POINT('',(33.0,2.17271507823561E-014,13.0));
#311=VECTOR('',#440,1.0);
#312=SURFACE_SIDE_STYLE('',(#441));
#313=EDGE_LOOP('',(#442,#443,#444,#445));
#314=AXIS2_PLACEMENT_3D('',#446,#447,#448);
#315=PRE_DEFINED_MARKER('');
#316=COLOUR_RGB('',0.509803950786591,0.509803950786591,0.588235318660736);
#317=DRAUGHTING_PRE_DEFINED_CURVE_FONT('continuous');
#318=COLOUR_RGB('',0.509803950786591,0.509803950786591,0.588235318660736);
#319=AXIS2_PLACEMENT_3D('',#449,#450,#451);
#320=DRAUGHTING_PRE_DEFINED_CURVE_FONT('continuous');
#321=COLOUR_RGB('',0.509803950786591,0.509803950786591,0.588235318660736);
#322=AXIS2_PLACEMENT_3D('',#452,#453,#454);
#323=PRE_DEFINED_MARKER('');
#324=COLOUR_RGB('',0.509803950786591,0.509803950786591,0.588235318660736);
#325=DRAUGHTING_PRE_DEFINED_CURVE_FONT('continuous');
#326=COLOUR_RGB('',0.509803950786591,0.509803950786591,0.588235318660736);
#327=AXIS2_PLACEMENT_3D('',#455,#456,#457);
#328=PRE_DEFINED_MARKER('');
#329=COLOUR_RGB('',0.509803950786591,0.509803950786591,0.588235318660736);
#330=PRE_DEFINED_MARKER('');
#331=COLOUR_RGB('',0.509803950786591,0.509803950786591,0.588235318660736);
#332=SURFACE_SIDE_STYLE('',(#458));
#333=EDGE_LOOP('',(#459,#460,#461,#462));
#334=AXIS2_PLACEMENT_3D('',#463,#464,#465);
#335=DRAUGHTING_PRE_DEFINED_CURVE_FONT('continuous');
#336=COLOUR_RGB('',0.509803950786591,0.509803950786591,0.588235318660736);
#337=CARTESIAN_POINT('',(60.0,2.96910563556246E-014,21.0));
#338=VECTOR('',#466,1.0);
#339=DRAUGHTING_PRE_DEFINED_CURVE_FONT('continuous');
#340=COLOUR_RGB('',0.509803950786591,0.509803950786591,0.588235318660736);
#341=AXIS2_PLACEMENT_3D('',#467,#468,#469);
#342=SURFACE_SIDE_STYLE('',(#470));
#343=EDGE_LOOP('',(#471,#472,#473,#474));
#344=AXIS2_PLACEMENT_3D('',#475,#476,#477);
#345=SURFACE_SIDE_STYLE('',(#478));
#346=EDGE_LOOP('',(#479,#480));
#347=EDGE_LOOP('',(#481,#482));
#348=AXIS2_PLACEMENT_3D('',#483,#484,#485);
#349=PRE_DEFINED_MARKER('');
#350=COLOUR_RGB('',0.509803950786591,0.509803950786591,0.588235318660736);
#351=SURFACE_SIDE_STYLE('',(#486));
#352=EDGE_LOOP('',(#487,#488,#489,#490));
#353=AXIS2_PLACEMENT_3D('',#491,#492,#493);
#354=PRE_DEFINED_MARKER('');
#355=COLOUR_RGB('',0.509803950786591,0.509803950786591,0.588235318660736);
#356=DRAUGHTING_PRE_DEFINED_CURVE_FONT('continuous');
#357=COLOUR_RGB('',0.509803950786591,0.509803950786591,0.588235318660736);
#358=AXIS2_PLACEMENT_3D('',#494,#495,#496);
#359=DRAUGHTING_PRE_DEFINED_CURVE_FONT('continuous');
#360=COLOUR_RGB('',0.509803950786591,0.509803950786591,0.588235318660736);
#361=AXIS2_PLACEMENT_3D('',#497,#498,#499);
#362=DRAUGHTING_PRE_DEFINED_CURVE_FONT('continuous');
#363=COLOUR_RGB('',0.509803950786591,0.509803950786591,0.588235318660736);
#364=AXIS2_PLACEMENT_3D('',#500,#501,#502);
#365=DRAUGHTING_PRE_DEFINED_CURVE_FONT('continuous');
#366=COLOUR_RGB('',0.509803950786591,0.509803950786591,0.588235318660736);
#367=AXIS2_PLACEMENT_3D('',#503,#504,#505);
#368=DRAUGHTING_PRE_DEFINED_CURVE_FONT('continuous');
#369=COLOUR_RGB('',0.509803950786591,0.509803950786591,0.588235318660736);
#370=AXIS2_PLACEMENT_3D('',#506,#507,#508);
#371=DRAUGHTING_PRE_DEFINED_CURVE_FONT('continuous');
#372=COLOUR_RGB('',0.509803950786591,0.509803950786591,0.588235318660736);
#373=CARTESIAN_POINT('',(-33.0,2.25982604769981E-015,13.0));
#374=VECTOR('',#509,1.0);
#375=PRE_DEFINED_MARKER('');
#376=COLOUR_RGB('',0.509803950786591,0.509803950786591,0.588235318660736);
#377=DRAUGHTING_PRE_DEFINED_CURVE_FONT('continuous');
#378=COLOUR_RGB('',0.509803950786591,0.509803950786591,0.588235318660736);
#379=AXIS2_PLACEMENT_3D('',#510,#511,#512);
#380=DRAUGHTING_PRE_DEFINED_CURVE_FONT('continuous');
#381=COLOUR_RGB('',0.509803950786591,0.509803950786591,0.588235318660736);
#382=CARTESIAN_POINT('',(-33.5,2.1123463148615E-015,26.5));
#383=VECTOR('',#513,1.0);
#384=SURFACE_SIDE_STYLE('',(#514));
#385=EDGE_LOOP('',(#515,#516));
#386=EDGE_LOOP('',(#517,#518));
#387=AXIS2_PLACEMENT_3D('',#519,#520,#521);
#388=PRE_DEFINED_MARKER('');
#389=COLOUR_RGB('',0.509803950786591,0.509803950786591,0.588235318660736);
#390=PRE_DEFINED_MARKER('');
#391=COLOUR_RGB('',0.509803950786591,0.509803950786591,0.588235318660736);
#392=DRAUGHTING_PRE_DEFINED_CURVE_FONT('continuous');
#393=COLOUR_RGB('',0.509803950786591,0.509803950786591,0.588235318660736);
#394=AXIS2_PLACEMENT_3D('',#522,#523,#524);
#396=DIRECTION('',(0.707106781186548,2.08567838355092E-016,0.707106781186547));
#397=SURFACE_STYLE_FILL_AREA(#525);
#398=ORIENTED_EDGE('',*,*,#99,.T.);
#399=ORIENTED_EDGE('',*,*,#89,.F.);
#400=ORIENTED_EDGE('',*,*,#133,.T.);
#401=ORIENTED_EDGE('',*,*,#105,.F.);
#402=CARTESIAN_POINT('',(2.8421709430404E-014,1.56095253866362E-014,86.0563156939614));
#403=DIRECTION('',(0.0,0.0,-1.0));
#404=DIRECTION('',(1.0,1.22460635382238E-016,0.0));
#405=CARTESIAN_POINT('',(0.0,1.1993488415028E-014,26.0));
#406=DIRECTION('',(-0.0,0.0,-1.0));
#407=DIRECTION('',(-1.0,-1.72498830294372E-016,0.0));
#408=CARTESIAN_POINT('',(0.0,1.1993488415028E-014,-2.8421709430404E-014));
#409=DIRECTION('',(-0.0,0.0,-1.0));
#410=DIRECTION('',(-1.0,-1.72498830294372E-016,0.0));
#411=SURFACE_STYLE_FILL_AREA(#526);
#412=SURFACE_STYLE_FILL_AREA(#527);
#413=ORIENTED_EDGE('',*,*,#137,.T.);
#414=ORIENTED_EDGE('',*,*,#75,.T.);
#415=ORIENTED_EDGE('',*,*,#93,.T.);
#416=ORIENTED_EDGE('',*,*,#73,.F.);
#417=CARTESIAN_POINT('',(0.0,1.1993488415028E-014,13.0));
#418=DIRECTION('',(0.0,-0.0,1.0));
#419=DIRECTION('',(-1.0,-1.72498830294372E-016,0.0));
#420=SURFACE_STYLE_FILL_AREA(#528);
#421=ORIENTED_EDGE('',*,*,#85,.T.);
#422=ORIENTED_EDGE('',*,*,#89,.T.);
#423=ORIENTED_EDGE('',*,*,#113,.T.);
#424=ORIENTED_EDGE('',*,*,#135,.T.);
#425=CARTESIAN_POINT('',(0.0,1.1993488415028E-014,13.5));
#426=DIRECTION('',(0.0,-0.0,1.0));
#427=DIRECTION('',(-1.0,-1.72498830294372E-016,0.0));
#428=DIRECTION('',(0.0,0.0,-1.0));
#429=CARTESIAN_POINT('',(0.0,1.1993488415028E-014,15.0000000000001));
#430=DIRECTION('',(0.0,0.0,1.0));
#431=DIRECTION('',(-1.0,-1.72498830294372E-016,0.0));
#432=SURFACE_STYLE_FILL_AREA(#529);
#433=ORIENTED_EDGE('',*,*,#137,.F.);
#434=ORIENTED_EDGE('',*,*,#115,.F.);
#435=ORIENTED_EDGE('',*,*,#93,.F.);
#436=ORIENTED_EDGE('',*,*,#141,.T.);
#437=CARTESIAN_POINT('',(0.0,1.1993488415028E-014,13.0));
#438=DIRECTION('',(0.0,-0.0,1.0));
#439=DIRECTION('',(-1.0,-1.72498830294372E-016,0.0));
#440=DIRECTION('',(0.0,0.0,1.0));
#441=SURFACE_STYLE_FILL_AREA(#530);
#442=ORIENTED_EDGE('',*,*,#85,.F.);
#443=ORIENTED_EDGE('',*,*,#101,.T.);
#444=ORIENTED_EDGE('',*,*,#113,.F.);
#445=ORIENTED_EDGE('',*,*,#127,.T.);
#446=CARTESIAN_POINT('',(0.0,1.1993488415028E-014,13.5));
#447=DIRECTION('',(0.0,-0.0,1.0));
#448=DIRECTION('',(-1.0,-1.72498830294372E-016,0.0));
#449=CARTESIAN_POINT('',(2.8421709430404E-014,1.56095253866362E-014,86.0563156939614));
#450=DIRECTION('',(2.44921270764475E-016,-1.0,0.0));
#451=DIRECTION('',(-0.0,0.0,1.0));
#452=CARTESIAN_POINT('',(0.0,1.1993488415028E-014,27.0));
#453=DIRECTION('',(-0.0,0.0,-1.0));
#454=DIRECTION('',(-1.0,-1.72498830294372E-016,0.0));
#455=CARTESIAN_POINT('',(2.8421709430404E-014,1.56095253866362E-014,-1.4210854715202E-014));
#456=DIRECTION('',(0.0,0.0,-1.0));
#457=DIRECTION('',(0.0,-1.0,0.0));
#458=SURFACE_STYLE_FILL_AREA(#531);
#459=ORIENTED_EDGE('',*,*,#99,.F.);
#460=ORIENTED_EDGE('',*,*,#131,.F.);
#461=ORIENTED_EDGE('',*,*,#133,.F.);
#462=ORIENTED_EDGE('',*,*,#127,.F.);
#463=CARTESIAN_POINT('',(2.8421709430404E-014,1.56095253866362E-014,86.0563156939614));
#464=DIRECTION('',(0.0,0.0,-1.0));
#465=DIRECTION('',(1.0,1.22460635382238E-016,0.0));
#466=DIRECTION('',(-0.0,-0.0,1.0));
#467=CARTESIAN_POINT('',(0.0,1.1993488415028E-014,26.0));
#468=DIRECTION('',(-0.0,0.0,-1.0));
#469=DIRECTION('',(-1.0,-1.72498830294372E-016,0.0));
#470=SURFACE_STYLE_FILL_AREA(#532);
#471=ORIENTED_EDGE('',*,*,#143,.F.);
#472=ORIENTED_EDGE('',*,*,#151,.F.);
#473=ORIENTED_EDGE('',*,*,#67,.F.);
#474=ORIENTED_EDGE('',*,*,#115,.T.);
#475=CARTESIAN_POINT('',(0.0,1.1993488415028E-014,26.5));
#476=DIRECTION('',(0.0,-0.0,1.0));
#477=DIRECTION('',(-1.0,-1.72498830294372E-016,0.0));
#478=SURFACE_STYLE_FILL_AREA(#533);
#479=ORIENTED_EDGE('',*,*,#101,.F.);
#480=ORIENTED_EDGE('',*,*,#135,.F.);
#481=ORIENTED_EDGE('',*,*,#129,.T.);
#482=ORIENTED_EDGE('',*,*,#151,.T.);
#483=CARTESIAN_POINT('',(-47.0,6.23783855206278E-015,27.0));
#484=DIRECTION('',(0.0,0.0,1.0));
#485=DIRECTION('',(-1.0,-1.22460635382238E-016,0.0));
#486=SURFACE_STYLE_FILL_AREA(#534);
#487=ORIENTED_EDGE('',*,*,#143,.T.);
#488=ORIENTED_EDGE('',*,*,#73,.T.);
#489=ORIENTED_EDGE('',*,*,#67,.T.);
#490=ORIENTED_EDGE('',*,*,#129,.F.);
#491=CARTESIAN_POINT('',(0.0,1.1993488415028E-014,26.5));
#492=DIRECTION('',(0.0,-0.0,1.0));
#493=DIRECTION('',(-1.0,-1.72498830294372E-016,0.0));
#494=CARTESIAN_POINT('',(0.0,1.1993488415028E-014,15.0000000000001));
#495=DIRECTION('',(0.0,0.0,1.0));
#496=DIRECTION('',(-1.0,-1.72498830294372E-016,0.0));
#497=CARTESIAN_POINT('',(0.0,1.1993488415028E-014,27.0));
#498=DIRECTION('',(-0.0,0.0,-1.0));
#499=DIRECTION('',(-1.0,-1.72498830294372E-016,0.0));
#500=CARTESIAN_POINT('',(2.8421709430404E-014,1.56095253866362E-014,-1.4210854715202E-014));
#501=DIRECTION('',(0.0,0.0,-1.0));
#502=DIRECTION('',(0.0,-1.0,0.0));
#503=CARTESIAN_POINT('',(2.8421709430404E-014,1.56095253866362E-014,86.0563156939614));
#504=DIRECTION('',(2.44921270764475E-016,-1.0,0.0));
#505=DIRECTION('',(-0.0,0.0,1.0));
#506=CARTESIAN_POINT('',(0.0,1.1993488415028E-014,27.0));
#507=DIRECTION('',(-0.0,0.0,-1.0));
#508=DIRECTION('',(-1.0,-1.72498830294372E-016,0.0));
#509=DIRECTION('',(0.0,0.0,-1.0));
#510=CARTESIAN_POINT('',(0.0,1.1993488415028E-014,-2.8421709430404E-014));
#511=DIRECTION('',(-0.0,0.0,-1.0));
#512=DIRECTION('',(-1.0,-1.72498830294372E-016,0.0));
#513=DIRECTION('',(0.707106781186548,2.08567838355092E-016,-0.707106781186547));
#514=SURFACE_STYLE_FILL_AREA(#535);
#515=ORIENTED_EDGE('',*,*,#131,.T.);
#516=ORIENTED_EDGE('',*,*,#105,.T.);
#517=ORIENTED_EDGE('',*,*,#75,.F.);
#518=ORIENTED_EDGE('',*,*,#141,.F.);
#519=CARTESIAN_POINT('',(-46.5,4.64585029209369E-015,-1.4210854715202E-014));
#520=DIRECTION('',(0.0,0.0,-1.0));
#521=DIRECTION('',(1.0,1.22460635382238E-016,0.0));
#522=CARTESIAN_POINT('',(0.0,1.1993488415028E-014,27.0));
#523=DIRECTION('',(-0.0,0.0,-1.0));
#524=DIRECTION('',(-1.0,-1.72498830294372E-016,0.0));
#525=FILL_AREA_STYLE('',(#536));
#526=FILL_AREA_STYLE('',(#537));
#527=FILL_AREA_STYLE('',(#538));
#528=FILL_AREA_STYLE('',(#539));
#529=FILL_AREA_STYLE('',(#540));
#530=FILL_AREA_STYLE('',(#541));
#531=FILL_AREA_STYLE('',(#542));
#532=FILL_AREA_STYLE('',(#543));
#533=FILL_AREA_STYLE('',(#544));
#534=FILL_AREA_STYLE('',(#545));
#535=FILL_AREA_STYLE('',(#546));
#536=FILL_AREA_STYLE_COLOUR('',#547);
#537=FILL_AREA_STYLE_COLOUR('',#548);
#538=FILL_AREA_STYLE_COLOUR('',#549);
#539=FILL_AREA_STYLE_COLOUR('',#550);
#540=FILL_AREA_STYLE_COLOUR('',#551);
#541=FILL_AREA_STYLE_COLOUR('',#552);
#542=FILL_AREA_STYLE_COLOUR('',#553);
#543=FILL_AREA_STYLE_COLOUR('',#554);
#544=FILL_AREA_STYLE_COLOUR('',#555);
#545=FILL_AREA_STYLE_COLOUR('',#556);
#546=FILL_AREA_STYLE_COLOUR('',#557);
#547=COLOUR_RGB('',0.509803950786591,0.509803950786591,0.588235318660736);
#548=COLOUR_RGB('',0.509803950786591,0.509803950786591,0.588235318660736);
#549=COLOUR_RGB('',0.509803950786591,0.509803950786591,0.588235318660736);
#550=COLOUR_RGB('',0.509803950786591,0.509803950786591,0.588235318660736);
#551=COLOUR_RGB('',0.509803950786591,0.509803950786591,0.588235318660736);
#552=COLOUR_RGB('',0.509803950786591,0.509803950786591,0.588235318660736);
#553=COLOUR_RGB('',0.509803950786591,0.509803950786591,0.588235318660736);
#554=COLOUR_RGB('',0.509803950786591,0.509803950786591,0.588235318660736);
#555=COLOUR_RGB('',0.509803950786591,0.509803950786591,0.588235318660736);
#556=COLOUR_RGB('',0.509803950786591,0.509803950786591,0.588235318660736);
#557=COLOUR_RGB('',0.509803950786591,0.509803950786591,0.588235318660736);
ENDSEC;
END-ISO-10303-21;
