ISO-10303-21;
HEADER;
FILE_DESCRIPTION(('STEP AP214'),'1');
FILE_NAME(' ','  ',('TraceParts'),('TraceParts S.A.'),'XStep 1.0',' ',' ');
FILE_SCHEMA(('automotive_design'));
ENDSEC;
DATA;
#1=MECHANICAL_DESIGN_GEOMETRIC_PRESENTATION_REPRESENTATION(' ',(#10,#11,#12,#13,#14,#15,#16,#17,#18,#19,#20,#21,#22,#23,#24,#25,#26,#27,#28,#29,#30,#31,#32,#33,#34,#35,#36,#37,#38,#39,#40,#41,#42,#43,#44,#45,#46,#47,#48,#49,#50,#51,#52),#6);
#2=PRODUCT_DEFINITION_CONTEXT('',#53,'design');
#3=APPLICATION_PROTOCOL_DEFINITION('INTERNATIONAL STANDARD','automotive_design',1994,#53);
#4=PRODUCT_CATEGORY_RELATIONSHIP('NONE','NONE',#54,#55);
#5=SHAPE_DEFINITION_REPRESENTATION(#56,#57);
#6= (GEOMETRIC_REPRESENTATION_CONTEXT(3)GLOBAL_UNCERTAINTY_ASSIGNED_CONTEXT((#60))GLOBAL_UNIT_ASSIGNED_CONTEXT((#62,#63,#64))REPRESENTATION_CONTEXT('NONE','WORKSPACE'));
#10=STYLED_ITEM('',(#66),#67);
#11=STYLED_ITEM('',(#68),#69);
#12=STYLED_ITEM('',(#70),#71);
#13=STYLED_ITEM('',(#72),#73);
#14=STYLED_ITEM('',(#74),#75);
#15=STYLED_ITEM('',(#76),#77);
#16=STYLED_ITEM('',(#78),#79);
#17=STYLED_ITEM('',(#80),#81);
#18=STYLED_ITEM('',(#82),#83);
#19=STYLED_ITEM('',(#84),#85);
#20=STYLED_ITEM('',(#86),#87);
#21=STYLED_ITEM('',(#88),#89);
#22=STYLED_ITEM('',(#90),#91);
#23=STYLED_ITEM('',(#92),#93);
#24=STYLED_ITEM('',(#94),#95);
#25=STYLED_ITEM('',(#96),#97);
#26=STYLED_ITEM('',(#98),#99);
#27=STYLED_ITEM('',(#100),#101);
#28=STYLED_ITEM('',(#102),#103);
#29=STYLED_ITEM('',(#104),#105);
#30=STYLED_ITEM('',(#106),#107);
#31=STYLED_ITEM('',(#108),#109);
#32=STYLED_ITEM('',(#110),#111);
#33=STYLED_ITEM('',(#112),#113);
#34=STYLED_ITEM('',(#114),#115);
#35=STYLED_ITEM('',(#116),#117);
#36=STYLED_ITEM('',(#118),#119);
#37=STYLED_ITEM('',(#120),#121);
#38=STYLED_ITEM('',(#122),#123);
#39=STYLED_ITEM('',(#124),#125);
#40=STYLED_ITEM('',(#126),#127);
#41=STYLED_ITEM('',(#128),#129);
#42=STYLED_ITEM('',(#130),#131);
#43=STYLED_ITEM('',(#132),#133);
#44=STYLED_ITEM('',(#134),#135);
#45=STYLED_ITEM('',(#136),#137);
#46=STYLED_ITEM('',(#138),#139);
#47=STYLED_ITEM('',(#140),#141);
#48=STYLED_ITEM('',(#142),#143);
#49=STYLED_ITEM('',(#144),#145);
#50=STYLED_ITEM('',(#146),#147);
#51=STYLED_ITEM('',(#148),#149);
#52=STYLED_ITEM('',(#150),#151);
#53=APPLICATION_CONTEXT(' ');
#54=PRODUCT_CATEGORY('part','NONE');
#55=PRODUCT_RELATED_PRODUCT_CATEGORY('detail',' ',(#152));
#56=PRODUCT_DEFINITION_SHAPE('NONE','NONE',#153);
#57=ADVANCED_BREP_SHAPE_REPRESENTATION('1',(#97,#154),#6);
#60=UNCERTAINTY_MEASURE_WITH_UNIT(LENGTH_MEASURE(1.0E-006),#62,'','');
#62= (CONVERSION_BASED_UNIT('MILLIMETRE',#157)LENGTH_UNIT()NAMED_UNIT(#160));
#63= (NAMED_UNIT(#162)PLANE_ANGLE_UNIT()SI_UNIT($,.RADIAN.));
#64= (NAMED_UNIT(#162)SOLID_ANGLE_UNIT()SI_UNIT($,.STERADIAN.));
#66=PRESENTATION_STYLE_ASSIGNMENT((#168));
#67=EDGE_CURVE('',#115,#81,#169,.T.);
#68=PRESENTATION_STYLE_ASSIGNMENT((#170));
#69=VERTEX_POINT('',#171);
#70=PRESENTATION_STYLE_ASSIGNMENT((#172));
#71=ADVANCED_FACE('',(#173),#174,.F.);
#72=PRESENTATION_STYLE_ASSIGNMENT((#175));
#73=ADVANCED_FACE('',(#176),#177,.F.);
#74=PRESENTATION_STYLE_ASSIGNMENT((#178));
#75=EDGE_CURVE('',#151,#119,#179,.T.);
#76=PRESENTATION_STYLE_ASSIGNMENT((#180));
#77=VERTEX_POINT('',#181);
#78=PRESENTATION_STYLE_ASSIGNMENT((#182));
#79=VERTEX_POINT('',#183);
#80=PRESENTATION_STYLE_ASSIGNMENT((#184));
#81=VERTEX_POINT('',#185);
#82=PRESENTATION_STYLE_ASSIGNMENT((#186));
#83=VERTEX_POINT('',#187);
#84=PRESENTATION_STYLE_ASSIGNMENT((#188));
#85=EDGE_CURVE('',#79,#135,#189,.T.);
#86=PRESENTATION_STYLE_ASSIGNMENT((#190));
#87=EDGE_CURVE('',#81,#79,#191,.T.);
#88=PRESENTATION_STYLE_ASSIGNMENT((#192));
#89=EDGE_CURVE('',#77,#69,#193,.T.);
#90=PRESENTATION_STYLE_ASSIGNMENT((#194));
#91=ADVANCED_FACE('',(#195),#196,.T.);
#92=PRESENTATION_STYLE_ASSIGNMENT((#197));
#93=EDGE_CURVE('',#129,#77,#198,.T.);
#94=PRESENTATION_STYLE_ASSIGNMENT((#199));
#95=EDGE_CURVE('',#81,#83,#200,.T.);
#96=PRESENTATION_STYLE_ASSIGNMENT((#201));
#97=MANIFOLD_SOLID_BREP('1',#202);
#98=PRESENTATION_STYLE_ASSIGNMENT((#203));
#99=EDGE_CURVE('',#119,#101,#204,.T.);
#100=PRESENTATION_STYLE_ASSIGNMENT((#205));
#101=VERTEX_POINT('',#206);
#102=PRESENTATION_STYLE_ASSIGNMENT((#207));
#103=EDGE_CURVE('',#77,#129,#208,.T.);
#104=PRESENTATION_STYLE_ASSIGNMENT((#209));
#105=ADVANCED_FACE('',(#210),#211,.T.);
#106=PRESENTATION_STYLE_ASSIGNMENT((#212));
#107=EDGE_CURVE('',#69,#151,#213,.T.);
#108=PRESENTATION_STYLE_ASSIGNMENT((#214));
#109=EDGE_CURVE('',#115,#149,#215,.T.);
#110=PRESENTATION_STYLE_ASSIGNMENT((#216));
#111=EDGE_CURVE('',#135,#79,#217,.T.);
#112=PRESENTATION_STYLE_ASSIGNMENT((#218));
#113=ADVANCED_FACE('',(#219),#220,.T.);
#114=PRESENTATION_STYLE_ASSIGNMENT((#221));
#115=VERTEX_POINT('',#222);
#116=PRESENTATION_STYLE_ASSIGNMENT((#223));
#117=EDGE_CURVE('',#69,#101,#224,.T.);
#118=PRESENTATION_STYLE_ASSIGNMENT((#225));
#119=VERTEX_POINT('',#226);
#120=PRESENTATION_STYLE_ASSIGNMENT((#227));
#121=EDGE_CURVE('',#101,#69,#228,.T.);
#122=PRESENTATION_STYLE_ASSIGNMENT((#229));
#123=ADVANCED_FACE('',(#230,#231),#232,.T.);
#124=PRESENTATION_STYLE_ASSIGNMENT((#233));
#125=EDGE_CURVE('',#119,#151,#234,.T.);
#126=PRESENTATION_STYLE_ASSIGNMENT((#235));
#127=EDGE_CURVE('',#149,#115,#236,.T.);
#128=PRESENTATION_STYLE_ASSIGNMENT((#237));
#129=VERTEX_POINT('',#238);
#130=PRESENTATION_STYLE_ASSIGNMENT((#239));
#131=ADVANCED_FACE('',(#240),#241,.T.);
#132=PRESENTATION_STYLE_ASSIGNMENT((#242));
#133=EDGE_CURVE('',#83,#81,#243,.T.);
#134=PRESENTATION_STYLE_ASSIGNMENT((#244));
#135=VERTEX_POINT('',#245);
#136=PRESENTATION_STYLE_ASSIGNMENT((#246));
#137=EDGE_CURVE('',#135,#83,#247,.T.);
#138=PRESENTATION_STYLE_ASSIGNMENT((#248));
#139=ADVANCED_FACE('',(#249,#250),#251,.T.);
#140=PRESENTATION_STYLE_ASSIGNMENT((#252));
#141=ADVANCED_FACE('',(#253),#254,.F.);
#142=PRESENTATION_STYLE_ASSIGNMENT((#255));
#143=ADVANCED_FACE('',(#256),#257,.F.);
#144=PRESENTATION_STYLE_ASSIGNMENT((#258));
#145=EDGE_CURVE('',#101,#129,#259,.T.);
#146=PRESENTATION_STYLE_ASSIGNMENT((#260));
#147=EDGE_CURVE('',#83,#149,#261,.T.);
#148=PRESENTATION_STYLE_ASSIGNMENT((#262));
#149=VERTEX_POINT('',#263);
#150=PRESENTATION_STYLE_ASSIGNMENT((#264));
#151=VERTEX_POINT('',#265);
#152=PRODUCT('1','1','PART-1-DESC',(#266));
#153=PRODUCT_DEFINITION('NONE','NONE',#267,#2);
#154=AXIS2_PLACEMENT_3D('',#268,#269,#270);
#157=LENGTH_MEASURE_WITH_UNIT(LENGTH_MEASURE(1.0),#271);
#160=DIMENSIONAL_EXPONENTS(1.0,0.0,0.0,0.0,0.0,0.0,0.0);
#162=DIMENSIONAL_EXPONENTS(0.0,0.0,0.0,0.0,0.0,0.0,0.0);
#168=CURVE_STYLE('',#272,POSITIVE_LENGTH_MEASURE(1.0E-006),#273);
#169=LINE('',#274,#275);
#170=POINT_STYLE(' ',#276,POSITIVE_LENGTH_MEASURE(1.0E-006),#277);
#171=CARTESIAN_POINT('',(29.0,1.94619302809477E-014,22.0));
#172=SURFACE_STYLE_USAGE(.BOTH.,#278);
#173=FACE_OUTER_BOUND('',#279,.T.);
#174=CYLINDRICAL_SURFACE('',#280,29.0);
#175=SURFACE_STYLE_USAGE(.BOTH.,#281);
#176=FACE_OUTER_BOUND('',#282,.T.);
#177=CONICAL_SURFACE('',#283,29.5,0.785398163397448);
#178=CURVE_STYLE('',#284,POSITIVE_LENGTH_MEASURE(1.0E-006),#285);
#179=CIRCLE('',#286,30.0);
#180=POINT_STYLE(' ',#287,POSITIVE_LENGTH_MEASURE(1.0E-006),#288);
#181=CARTESIAN_POINT('',(29.0,1.94619302809477E-014,-2.8421709430404E-014));
#182=POINT_STYLE(' ',#289,POSITIVE_LENGTH_MEASURE(1.0E-006),#290);
#183=CARTESIAN_POINT('',(-29.941391694791,5.87763385621063E-015,-4.2632564145606E-014));
#184=POINT_STYLE(' ',#291,POSITIVE_LENGTH_MEASURE(1.0E-006),#292);
#185=CARTESIAN_POINT('',(-51.5,4.04579317872072E-015,13.1999999999999));
#186=POINT_STYLE(' ',#293,POSITIVE_LENGTH_MEASURE(1.0E-006),#294);
#187=CARTESIAN_POINT('',(51.5,2.66340355727967E-014,13.2));
#188=CURVE_STYLE('',#295,POSITIVE_LENGTH_MEASURE(1.0E-006),#296);
#189=CIRCLE('',#297,29.9413916947911);
#190=CURVE_STYLE('',#298,POSITIVE_LENGTH_MEASURE(1.0E-006),#299);
#191=CIRCLE('',#300,79.0);
#192=CURVE_STYLE('',#301,POSITIVE_LENGTH_MEASURE(1.0E-006),#302);
#193=LINE('',#303,#304);
#194=SURFACE_STYLE_USAGE(.BOTH.,#305);
#195=FACE_OUTER_BOUND('',#306,.T.);
#196=CYLINDRICAL_SURFACE('',#307,51.5);
#197=CURVE_STYLE('',#308,POSITIVE_LENGTH_MEASURE(1.0E-006),#309);
#198=CIRCLE('',#310,29.0);
#199=CURVE_STYLE('',#311,POSITIVE_LENGTH_MEASURE(1.0E-006),#312);
#200=CIRCLE('',#313,51.5);
#201=SURFACE_STYLE_USAGE(.BOTH.,#314);
#202=CLOSED_SHELL('',(#71,#91,#73,#105,#113,#143,#139,#131,#123,#141));
#203=CURVE_STYLE('',#315,POSITIVE_LENGTH_MEASURE(1.0E-006),#316);
#204=LINE('',#317,#318);
#205=POINT_STYLE(' ',#319,POSITIVE_LENGTH_MEASURE(1.0E-006),#320);
#206=CARTESIAN_POINT('',(-29.0,7.33998427050292E-015,22.0));
#207=CURVE_STYLE('',#321,POSITIVE_LENGTH_MEASURE(1.0E-006),#322);
#208=CIRCLE('',#323,29.0);
#209=SURFACE_STYLE_USAGE(.BOTH.,#324);
#210=FACE_OUTER_BOUND('',#325,.T.);
#211=SPHERICAL_SURFACE('',#326,79.0);
#212=CURVE_STYLE('',#327,POSITIVE_LENGTH_MEASURE(1.0E-006),#328);
#213=LINE('',#329,#330);
#214=CURVE_STYLE('',#331,POSITIVE_LENGTH_MEASURE(1.0E-006),#332);
#215=CIRCLE('',#333,51.5);
#216=CURVE_STYLE('',#334,POSITIVE_LENGTH_MEASURE(1.0E-006),#335);
#217=CIRCLE('',#336,29.9413916947911);
#218=SURFACE_STYLE_USAGE(.BOTH.,#337);
#219=FACE_OUTER_BOUND('',#338,.T.);
#220=SPHERICAL_SURFACE('',#339,79.0);
#221=POINT_STYLE(' ',#340,POSITIVE_LENGTH_MEASURE(1.0E-006),#341);
#222=CARTESIAN_POINT('',(-51.5,4.64585029209369E-015,23.0));
#223=CURVE_STYLE('',#342,POSITIVE_LENGTH_MEASURE(1.0E-006),#343);
#224=CIRCLE('',#344,29.0);
#225=POINT_STYLE(' ',#345,POSITIVE_LENGTH_MEASURE(1.0E-006),#346);
#226=CARTESIAN_POINT('',(-30.0,7.2787539528118E-015,23.0));
#227=CURVE_STYLE('',#347,POSITIVE_LENGTH_MEASURE(1.0E-006),#348);
#228=CIRCLE('',#349,29.0);
#229=SURFACE_STYLE_USAGE(.BOTH.,#350);
#230=FACE_OUTER_BOUND('',#351,.T.);
#231=FACE_BOUND('',#352,.T.);
#232=PLANE('',#353);
#233=CURVE_STYLE('',#354,POSITIVE_LENGTH_MEASURE(1.0E-006),#355);
#234=CIRCLE('',#356,30.0);
#235=CURVE_STYLE('',#357,POSITIVE_LENGTH_MEASURE(1.0E-006),#358);
#236=CIRCLE('',#359,51.5);
#237=POINT_STYLE(' ',#360,POSITIVE_LENGTH_MEASURE(1.0E-006),#361);
#238=CARTESIAN_POINT('',(-29.0,5.9929172812983E-015,-2.8421709430404E-014));
#239=SURFACE_STYLE_USAGE(.BOTH.,#362);
#240=FACE_OUTER_BOUND('',#363,.T.);
#241=CYLINDRICAL_SURFACE('',#364,51.5);
#242=CURVE_STYLE('',#365,POSITIVE_LENGTH_MEASURE(1.0E-006),#366);
#243=CIRCLE('',#367,51.5);
#244=POINT_STYLE(' ',#368,POSITIVE_LENGTH_MEASURE(1.0E-006),#369);
#245=CARTESIAN_POINT('',(29.9413916947911,2.13538738307713E-014,-1.4210854715202E-014));
#246=CURVE_STYLE('',#370,POSITIVE_LENGTH_MEASURE(1.0E-006),#371);
#247=CIRCLE('',#372,79.0);
#248=SURFACE_STYLE_USAGE(.BOTH.,#373);
#249=FACE_OUTER_BOUND('',#374,.T.);
#250=FACE_BOUND('',#375,.T.);
#251=PLANE('',#376);
#252=SURFACE_STYLE_USAGE(.BOTH.,#377);
#253=FACE_OUTER_BOUND('',#378,.T.);
#254=CYLINDRICAL_SURFACE('',#379,29.0);
#255=SURFACE_STYLE_USAGE(.BOTH.,#380);
#256=FACE_OUTER_BOUND('',#381,.T.);
#257=CONICAL_SURFACE('',#382,29.5,0.785398163397448);
#258=CURVE_STYLE('',#383,POSITIVE_LENGTH_MEASURE(1.0E-006),#384);
#259=LINE('',#385,#386);
#260=CURVE_STYLE('',#387,POSITIVE_LENGTH_MEASURE(1.0E-006),#388);
#261=LINE('',#389,#390);
#262=POINT_STYLE(' ',#391,POSITIVE_LENGTH_MEASURE(1.0E-006),#392);
#263=CARTESIAN_POINT('',(51.5,2.60640178154322E-014,23.0));
#264=POINT_STYLE(' ',#393,POSITIVE_LENGTH_MEASURE(1.0E-006),#394);
#265=CARTESIAN_POINT('',(30.0,1.97553563935915E-014,23.0));
#266=PRODUCT_CONTEXT('',#53,'mechanical');
#267=PRODUCT_DEFINITION_FORMATION_WITH_SPECIFIED_SOURCE(' ','NONE',#152,.NOT_KNOWN.);
#268=CARTESIAN_POINT('',(0.0,0.0,0.0));
#269=DIRECTION('',(0.0,0.0,1.0));
#270=DIRECTION('',(1.0,0.0,0.0));
#271= (NAMED_UNIT(#160)LENGTH_UNIT()SI_UNIT(.MILLI.,.METRE.));
#272=DRAUGHTING_PRE_DEFINED_CURVE_FONT('continuous');
#273=COLOUR_RGB('',0.509803950786591,0.509803950786591,0.588235318660736);
#274=CARTESIAN_POINT('',(-51.5,-4.15887178687429E-015,18.1));
#275=VECTOR('',#396,1.0);
#276=PRE_DEFINED_MARKER('');
#277=COLOUR_RGB('',0.509803950786591,0.509803950786591,0.588235318660736);
#278=SURFACE_SIDE_STYLE('',(#397));
#279=EDGE_LOOP('',(#398,#399,#400,#401));
#280=AXIS2_PLACEMENT_3D('',#402,#403,#404);
#281=SURFACE_SIDE_STYLE('',(#405));
#282=EDGE_LOOP('',(#406,#407,#408,#409));
#283=AXIS2_PLACEMENT_3D('',#410,#411,#412);
#284=DRAUGHTING_PRE_DEFINED_CURVE_FONT('continuous');
#285=COLOUR_RGB('',0.509803950786591,0.509803950786591,0.588235318660736);
#286=AXIS2_PLACEMENT_3D('',#413,#414,#415);
#287=PRE_DEFINED_MARKER('');
#288=COLOUR_RGB('',0.509803950786591,0.509803950786591,0.588235318660736);
#289=PRE_DEFINED_MARKER('');
#290=COLOUR_RGB('',0.509803950786591,0.509803950786591,0.588235318660736);
#291=PRE_DEFINED_MARKER('');
#292=COLOUR_RGB('',0.509803950786591,0.509803950786591,0.588235318660736);
#293=PRE_DEFINED_MARKER('');
#294=COLOUR_RGB('',0.509803950786591,0.509803950786591,0.588235318660736);
#295=DRAUGHTING_PRE_DEFINED_CURVE_FONT('continuous');
#296=COLOUR_RGB('',0.509803950786591,0.509803950786591,0.588235318660736);
#297=AXIS2_PLACEMENT_3D('',#416,#417,#418);
#298=DRAUGHTING_PRE_DEFINED_CURVE_FONT('continuous');
#299=COLOUR_RGB('',0.509803950786591,0.509803950786591,0.588235318660736);
#300=AXIS2_PLACEMENT_3D('',#419,#420,#421);
#301=DRAUGHTING_PRE_DEFINED_CURVE_FONT('continuous');
#302=COLOUR_RGB('',0.509803950786591,0.509803950786591,0.588235318660736);
#303=CARTESIAN_POINT('',(29.0,1.94619302809477E-014,11.0));
#304=VECTOR('',#422,1.0);
#305=SURFACE_SIDE_STYLE('',(#423));
#306=EDGE_LOOP('',(#424,#425,#426,#427));
#307=AXIS2_PLACEMENT_3D('',#428,#429,#430);
#308=DRAUGHTING_PRE_DEFINED_CURVE_FONT('continuous');
#309=COLOUR_RGB('',0.509803950786591,0.509803950786591,0.588235318660736);
#310=AXIS2_PLACEMENT_3D('',#431,#432,#433);
#311=DRAUGHTING_PRE_DEFINED_CURVE_FONT('continuous');
#312=COLOUR_RGB('',0.509803950786591,0.509803950786591,0.588235318660736);
#313=AXIS2_PLACEMENT_3D('',#434,#435,#436);
#314=SURFACE_SIDE_STYLE('',(#437));
#315=DRAUGHTING_PRE_DEFINED_CURVE_FONT('continuous');
#316=COLOUR_RGB('',0.509803950786591,0.509803950786591,0.588235318660736);
#317=CARTESIAN_POINT('',(-29.5,2.29650269128825E-015,22.5));
#318=VECTOR('',#438,1.0);
#319=PRE_DEFINED_MARKER('');
#320=COLOUR_RGB('',0.509803950786591,0.509803950786591,0.588235318660736);
#321=DRAUGHTING_PRE_DEFINED_CURVE_FONT('continuous');
#322=COLOUR_RGB('',0.509803950786591,0.509803950786591,0.588235318660736);
#323=AXIS2_PLACEMENT_3D('',#439,#440,#441);
#324=SURFACE_SIDE_STYLE('',(#442));
#325=EDGE_LOOP('',(#443,#444,#445,#446));
#326=AXIS2_PLACEMENT_3D('',#447,#448,#449);
#327=DRAUGHTING_PRE_DEFINED_CURVE_FONT('continuous');
#328=COLOUR_RGB('',0.509803950786591,0.509803950786591,0.588235318660736);
#329=CARTESIAN_POINT('',(29.5,1.96086433372696E-014,22.5));
#330=VECTOR('',#450,1.0);
#331=DRAUGHTING_PRE_DEFINED_CURVE_FONT('continuous');
#332=COLOUR_RGB('',0.509803950786591,0.509803950786591,0.588235318660736);
#333=AXIS2_PLACEMENT_3D('',#451,#452,#453);
#334=DRAUGHTING_PRE_DEFINED_CURVE_FONT('continuous');
#335=COLOUR_RGB('',0.509803950786591,0.509803950786591,0.588235318660736);
#336=AXIS2_PLACEMENT_3D('',#454,#455,#456);
#337=SURFACE_SIDE_STYLE('',(#457));
#338=EDGE_LOOP('',(#458,#459,#460,#461));
#339=AXIS2_PLACEMENT_3D('',#462,#463,#464);
#340=PRE_DEFINED_MARKER('');
#341=COLOUR_RGB('',0.509803950786591,0.509803950786591,0.588235318660736);
#342=DRAUGHTING_PRE_DEFINED_CURVE_FONT('continuous');
#343=COLOUR_RGB('',0.509803950786591,0.509803950786591,0.588235318660736);
#344=AXIS2_PLACEMENT_3D('',#465,#466,#467);
#345=PRE_DEFINED_MARKER('');
#346=COLOUR_RGB('',0.509803950786591,0.509803950786591,0.588235318660736);
#347=DRAUGHTING_PRE_DEFINED_CURVE_FONT('continuous');
#348=COLOUR_RGB('',0.509803950786591,0.509803950786591,0.588235318660736);
#349=AXIS2_PLACEMENT_3D('',#468,#469,#470);
#350=SURFACE_SIDE_STYLE('',(#471));
#351=EDGE_LOOP('',(#472,#473));
#352=EDGE_LOOP('',(#474,#475));
#353=AXIS2_PLACEMENT_3D('',#476,#477,#478);
#354=DRAUGHTING_PRE_DEFINED_CURVE_FONT('continuous');
#355=COLOUR_RGB('',0.509803950786591,0.509803950786591,0.588235318660736);
#356=AXIS2_PLACEMENT_3D('',#479,#480,#481);
#357=DRAUGHTING_PRE_DEFINED_CURVE_FONT('continuous');
#358=COLOUR_RGB('',0.509803950786591,0.509803950786591,0.588235318660736);
#359=AXIS2_PLACEMENT_3D('',#482,#483,#484);
#360=PRE_DEFINED_MARKER('');
#361=COLOUR_RGB('',0.509803950786591,0.509803950786591,0.588235318660736);
#362=SURFACE_SIDE_STYLE('',(#485));
#363=EDGE_LOOP('',(#486,#487,#488,#489));
#364=AXIS2_PLACEMENT_3D('',#490,#491,#492);
#365=DRAUGHTING_PRE_DEFINED_CURVE_FONT('continuous');
#366=COLOUR_RGB('',0.509803950786591,0.509803950786591,0.588235318660736);
#367=AXIS2_PLACEMENT_3D('',#493,#494,#495);
#368=PRE_DEFINED_MARKER('');
#369=COLOUR_RGB('',0.509803950786591,0.509803950786591,0.588235318660736);
#370=DRAUGHTING_PRE_DEFINED_CURVE_FONT('continuous');
#371=COLOUR_RGB('',0.509803950786591,0.509803950786591,0.588235318660736);
#372=AXIS2_PLACEMENT_3D('',#496,#497,#498);
#373=SURFACE_SIDE_STYLE('',(#499));
#374=EDGE_LOOP('',(#500,#501));
#375=EDGE_LOOP('',(#502,#503));
#376=AXIS2_PLACEMENT_3D('',#504,#505,#506);
#377=SURFACE_SIDE_STYLE('',(#507));
#378=EDGE_LOOP('',(#508,#509,#510,#511));
#379=AXIS2_PLACEMENT_3D('',#512,#513,#514);
#380=SURFACE_SIDE_STYLE('',(#515));
#381=EDGE_LOOP('',(#516,#517,#518,#519));
#382=AXIS2_PLACEMENT_3D('',#520,#521,#522);
#383=DRAUGHTING_PRE_DEFINED_CURVE_FONT('continuous');
#384=COLOUR_RGB('',0.509803950786591,0.509803950786591,0.588235318660736);
#385=CARTESIAN_POINT('',(-29.0,2.44321574761012E-015,11.0));
#386=VECTOR('',#523,1.0);
#387=DRAUGHTING_PRE_DEFINED_CURVE_FONT('continuous');
#388=COLOUR_RGB('',0.509803950786591,0.509803950786591,0.588235318660736);
#389=CARTESIAN_POINT('',(51.5,2.60640178154322E-014,18.1));
#390=VECTOR('',#524,1.0);
#391=PRE_DEFINED_MARKER('');
#392=COLOUR_RGB('',0.509803950786591,0.509803950786591,0.588235318660736);
#393=PRE_DEFINED_MARKER('');
#394=COLOUR_RGB('',0.509803950786591,0.509803950786591,0.588235318660736);
#396=DIRECTION('',(0.0,0.0,-1.0));
#397=SURFACE_STYLE_FILL_AREA(#525);
#398=ORIENTED_EDGE('',*,*,#145,.F.);
#399=ORIENTED_EDGE('',*,*,#117,.F.);
#400=ORIENTED_EDGE('',*,*,#89,.F.);
#401=ORIENTED_EDGE('',*,*,#103,.T.);
#402=CARTESIAN_POINT('',(0.0,1.09525730142789E-014,11.0));
#403=DIRECTION('',(0.0,-0.0,1.0));
#404=DIRECTION('',(-1.0,-1.70965477261514E-016,0.0));
#405=SURFACE_STYLE_FILL_AREA(#526);
#406=ORIENTED_EDGE('',*,*,#99,.F.);
#407=ORIENTED_EDGE('',*,*,#75,.F.);
#408=ORIENTED_EDGE('',*,*,#107,.F.);
#409=ORIENTED_EDGE('',*,*,#117,.T.);
#410=CARTESIAN_POINT('',(0.0,1.09525730142789E-014,22.5));
#411=DIRECTION('',(0.0,-0.0,1.0));
#412=DIRECTION('',(-1.0,-1.70965477261514E-016,0.0));
#413=CARTESIAN_POINT('',(0.0,1.09525730142789E-014,23.0));
#414=DIRECTION('',(-0.0,0.0,-1.0));
#415=DIRECTION('',(-1.0,-1.70965477261514E-016,0.0));
#416=CARTESIAN_POINT('',(-2.8421709430404E-014,1.40205901284262E-014,-1.4210854715202E-014));
#417=DIRECTION('',(0.0,0.0,-1.0));
#418=DIRECTION('',(0.0,-1.0,0.0));
#419=CARTESIAN_POINT('',(-2.8421709430404E-014,1.40205901284262E-014,73.1061766431476));
#420=DIRECTION('',(2.44921270764475E-016,-1.0,0.0));
#421=DIRECTION('',(-0.0,0.0,1.0));
#422=DIRECTION('',(0.0,0.0,1.0));
#423=SURFACE_STYLE_FILL_AREA(#527);
#424=ORIENTED_EDGE('',*,*,#67,.F.);
#425=ORIENTED_EDGE('',*,*,#109,.T.);
#426=ORIENTED_EDGE('',*,*,#147,.F.);
#427=ORIENTED_EDGE('',*,*,#133,.T.);
#428=CARTESIAN_POINT('',(0.0,1.09525730142789E-014,11.5));
#429=DIRECTION('',(0.0,-0.0,1.0));
#430=DIRECTION('',(-1.0,-1.70965477261514E-016,0.0));
#431=CARTESIAN_POINT('',(0.0,1.09525730142789E-014,-2.8421709430404E-014));
#432=DIRECTION('',(-0.0,0.0,-1.0));
#433=DIRECTION('',(-1.0,-1.70965477261514E-016,0.0));
#434=CARTESIAN_POINT('',(0.0,1.09525730142789E-014,13.2));
#435=DIRECTION('',(0.0,0.0,1.0));
#436=DIRECTION('',(-1.0,-1.70965477261514E-016,0.0));
#437=SURFACE_STYLE_FILL_AREA(#528);
#438=DIRECTION('',(0.707106781186548,2.07483594027605E-016,-0.707106781186547));
#439=CARTESIAN_POINT('',(0.0,1.09525730142789E-014,-2.8421709430404E-014));
#440=DIRECTION('',(-0.0,0.0,-1.0));
#441=DIRECTION('',(-1.0,-1.70965477261514E-016,0.0));
#442=SURFACE_STYLE_FILL_AREA(#529);
#443=ORIENTED_EDGE('',*,*,#137,.F.);
#444=ORIENTED_EDGE('',*,*,#85,.F.);
#445=ORIENTED_EDGE('',*,*,#87,.F.);
#446=ORIENTED_EDGE('',*,*,#133,.F.);
#447=CARTESIAN_POINT('',(-2.8421709430404E-014,1.40205901284262E-014,73.1061766431476));
#448=DIRECTION('',(0.0,0.0,-1.0));
#449=DIRECTION('',(1.0,1.22460635382238E-016,0.0));
#450=DIRECTION('',(0.707106781186548,2.07483594027604E-016,0.707106781186547));
#451=CARTESIAN_POINT('',(0.0,1.09525730142789E-014,23.0));
#452=DIRECTION('',(-0.0,0.0,-1.0));
#453=DIRECTION('',(-1.0,-1.70965477261514E-016,0.0));
#454=CARTESIAN_POINT('',(-2.8421709430404E-014,1.40205901284262E-014,-1.4210854715202E-014));
#455=DIRECTION('',(0.0,0.0,-1.0));
#456=DIRECTION('',(0.0,-1.0,0.0));
#457=SURFACE_STYLE_FILL_AREA(#530);
#458=ORIENTED_EDGE('',*,*,#137,.T.);
#459=ORIENTED_EDGE('',*,*,#95,.F.);
#460=ORIENTED_EDGE('',*,*,#87,.T.);
#461=ORIENTED_EDGE('',*,*,#111,.F.);
#462=CARTESIAN_POINT('',(-2.8421709430404E-014,1.40205901284262E-014,73.1061766431476));
#463=DIRECTION('',(0.0,0.0,-1.0));
#464=DIRECTION('',(1.0,1.22460635382238E-016,0.0));
#465=CARTESIAN_POINT('',(0.0,1.09525730142789E-014,22.0));
#466=DIRECTION('',(-0.0,0.0,-1.0));
#467=DIRECTION('',(-1.0,-1.70965477261514E-016,0.0));
#468=CARTESIAN_POINT('',(0.0,1.09525730142789E-014,22.0));
#469=DIRECTION('',(-0.0,0.0,-1.0));
#470=DIRECTION('',(-1.0,-1.70965477261514E-016,0.0));
#471=SURFACE_STYLE_FILL_AREA(#531);
#472=ORIENTED_EDGE('',*,*,#85,.T.);
#473=ORIENTED_EDGE('',*,*,#111,.T.);
#474=ORIENTED_EDGE('',*,*,#93,.F.);
#475=ORIENTED_EDGE('',*,*,#103,.F.);
#476=CARTESIAN_POINT('',(-40.25,4.61523513324813E-015,-1.4210854715202E-014));
#477=DIRECTION('',(0.0,0.0,-1.0));
#478=DIRECTION('',(1.0,1.22460635382238E-016,0.0));
#479=CARTESIAN_POINT('',(0.0,1.09525730142789E-014,23.0));
#480=DIRECTION('',(-0.0,0.0,-1.0));
#481=DIRECTION('',(-1.0,-1.70965477261514E-016,0.0));
#482=CARTESIAN_POINT('',(0.0,1.09525730142789E-014,23.0));
#483=DIRECTION('',(-0.0,0.0,-1.0));
#484=DIRECTION('',(-1.0,-1.70965477261514E-016,0.0));
#485=SURFACE_STYLE_FILL_AREA(#532);
#486=ORIENTED_EDGE('',*,*,#67,.T.);
#487=ORIENTED_EDGE('',*,*,#95,.T.);
#488=ORIENTED_EDGE('',*,*,#147,.T.);
#489=ORIENTED_EDGE('',*,*,#127,.T.);
#490=CARTESIAN_POINT('',(0.0,1.09525730142789E-014,11.5));
#491=DIRECTION('',(0.0,-0.0,1.0));
#492=DIRECTION('',(-1.0,-1.70965477261514E-016,0.0));
#493=CARTESIAN_POINT('',(0.0,1.09525730142789E-014,13.2));
#494=DIRECTION('',(0.0,0.0,1.0));
#495=DIRECTION('',(-1.0,-1.70965477261514E-016,0.0));
#496=CARTESIAN_POINT('',(-2.8421709430404E-014,1.40205901284262E-014,73.1061766431476));
#497=DIRECTION('',(2.44921270764475E-016,-1.0,0.0));
#498=DIRECTION('',(-0.0,0.0,1.0));
#499=SURFACE_STYLE_FILL_AREA(#533);
#500=ORIENTED_EDGE('',*,*,#109,.F.);
#501=ORIENTED_EDGE('',*,*,#127,.F.);
#502=ORIENTED_EDGE('',*,*,#125,.T.);
#503=ORIENTED_EDGE('',*,*,#75,.T.);
#504=CARTESIAN_POINT('',(-40.75,5.96230212245274E-015,23.0));
#505=DIRECTION('',(0.0,0.0,1.0));
#506=DIRECTION('',(-1.0,-1.22460635382238E-016,0.0));
#507=SURFACE_STYLE_FILL_AREA(#534);
#508=ORIENTED_EDGE('',*,*,#145,.T.);
#509=ORIENTED_EDGE('',*,*,#93,.T.);
#510=ORIENTED_EDGE('',*,*,#89,.T.);
#511=ORIENTED_EDGE('',*,*,#121,.F.);
#512=CARTESIAN_POINT('',(0.0,1.09525730142789E-014,11.0));
#513=DIRECTION('',(0.0,-0.0,1.0));
#514=DIRECTION('',(-1.0,-1.70965477261514E-016,0.0));
#515=SURFACE_STYLE_FILL_AREA(#535);
#516=ORIENTED_EDGE('',*,*,#99,.T.);
#517=ORIENTED_EDGE('',*,*,#121,.T.);
#518=ORIENTED_EDGE('',*,*,#107,.T.);
#519=ORIENTED_EDGE('',*,*,#125,.F.);
#520=CARTESIAN_POINT('',(0.0,1.09525730142789E-014,22.5));
#521=DIRECTION('',(0.0,-0.0,1.0));
#522=DIRECTION('',(-1.0,-1.70965477261514E-016,0.0));
#523=DIRECTION('',(0.0,0.0,-1.0));
#524=DIRECTION('',(-0.0,-0.0,1.0));
#525=FILL_AREA_STYLE('',(#536));
#526=FILL_AREA_STYLE('',(#537));
#527=FILL_AREA_STYLE('',(#538));
#528=FILL_AREA_STYLE('',(#539));
#529=FILL_AREA_STYLE('',(#540));
#530=FILL_AREA_STYLE('',(#541));
#531=FILL_AREA_STYLE('',(#542));
#532=FILL_AREA_STYLE('',(#543));
#533=FILL_AREA_STYLE('',(#544));
#534=FILL_AREA_STYLE('',(#545));
#535=FILL_AREA_STYLE('',(#546));
#536=FILL_AREA_STYLE_COLOUR('',#547);
#537=FILL_AREA_STYLE_COLOUR('',#548);
#538=FILL_AREA_STYLE_COLOUR('',#549);
#539=FILL_AREA_STYLE_COLOUR('',#550);
#540=FILL_AREA_STYLE_COLOUR('',#551);
#541=FILL_AREA_STYLE_COLOUR('',#552);
#542=FILL_AREA_STYLE_COLOUR('',#553);
#543=FILL_AREA_STYLE_COLOUR('',#554);
#544=FILL_AREA_STYLE_COLOUR('',#555);
#545=FILL_AREA_STYLE_COLOUR('',#556);
#546=FILL_AREA_STYLE_COLOUR('',#557);
#547=COLOUR_RGB('',0.509803950786591,0.509803950786591,0.588235318660736);
#548=COLOUR_RGB('',0.509803950786591,0.509803950786591,0.588235318660736);
#549=COLOUR_RGB('',0.509803950786591,0.509803950786591,0.588235318660736);
#550=COLOUR_RGB('',0.509803950786591,0.509803950786591,0.588235318660736);
#551=COLOUR_RGB('',0.509803950786591,0.509803950786591,0.588235318660736);
#552=COLOUR_RGB('',0.509803950786591,0.509803950786591,0.588235318660736);
#553=COLOUR_RGB('',0.509803950786591,0.509803950786591,0.588235318660736);
#554=COLOUR_RGB('',0.509803950786591,0.509803950786591,0.588235318660736);
#555=COLOUR_RGB('',0.509803950786591,0.509803950786591,0.588235318660736);
#556=COLOUR_RGB('',0.509803950786591,0.509803950786591,0.588235318660736);
#557=COLOUR_RGB('',0.509803950786591,0.509803950786591,0.588235318660736);
ENDSEC;
END-ISO-10303-21;
