ISO-10303-21;
HEADER;
FILE_DESCRIPTION(('STEP AP214'),'1');
FILE_NAME(' ','  ',('TraceParts'),('TraceParts S.A.'),'XStep 1.0',' ',' ');
FILE_SCHEMA(('automotive_design'));
ENDSEC;
DATA;
#1=MECHANICAL_DESIGN_GEOMETRIC_PRESENTATION_REPRESENTATION(' ',(#10,#11,#12,#13,#14,#15,#16,#17,#18,#19,#20,#21,#22,#23,#24,#25,#26,#27,#28,#29,#30,#31,#32,#33,#34,#35,#36,#37,#38,#39,#40,#41,#42,#43,#44,#45,#46,#47,#48,#49,#50,#51,#52),#6);
#2=PRODUCT_DEFINITION_CONTEXT('',#53,'design');
#3=APPLICATION_PROTOCOL_DEFINITION('INTERNATIONAL STANDARD','automotive_design',1994,#53);
#4=PRODUCT_CATEGORY_RELATIONSHIP('NONE','NONE',#54,#55);
#5=SHAPE_DEFINITION_REPRESENTATION(#56,#57);
#6= (GEOMETRIC_REPRESENTATION_CONTEXT(3)GLOBAL_UNCERTAINTY_ASSIGNED_CONTEXT((#60))GLOBAL_UNIT_ASSIGNED_CONTEXT((#62,#63,#64))REPRESENTATION_CONTEXT('NONE','WORKSPACE'));
#10=STYLED_ITEM('',(#66),#67);
#11=STYLED_ITEM('',(#68),#69);
#12=STYLED_ITEM('',(#70),#71);
#13=STYLED_ITEM('',(#72),#73);
#14=STYLED_ITEM('',(#74),#75);
#15=STYLED_ITEM('',(#76),#77);
#16=STYLED_ITEM('',(#78),#79);
#17=STYLED_ITEM('',(#80),#81);
#18=STYLED_ITEM('',(#82),#83);
#19=STYLED_ITEM('',(#84),#85);
#20=STYLED_ITEM('',(#86),#87);
#21=STYLED_ITEM('',(#88),#89);
#22=STYLED_ITEM('',(#90),#91);
#23=STYLED_ITEM('',(#92),#93);
#24=STYLED_ITEM('',(#94),#95);
#25=STYLED_ITEM('',(#96),#97);
#26=STYLED_ITEM('',(#98),#99);
#27=STYLED_ITEM('',(#100),#101);
#28=STYLED_ITEM('',(#102),#103);
#29=STYLED_ITEM('',(#104),#105);
#30=STYLED_ITEM('',(#106),#107);
#31=STYLED_ITEM('',(#108),#109);
#32=STYLED_ITEM('',(#110),#111);
#33=STYLED_ITEM('',(#112),#113);
#34=STYLED_ITEM('',(#114),#115);
#35=STYLED_ITEM('',(#116),#117);
#36=STYLED_ITEM('',(#118),#119);
#37=STYLED_ITEM('',(#120),#121);
#38=STYLED_ITEM('',(#122),#123);
#39=STYLED_ITEM('',(#124),#125);
#40=STYLED_ITEM('',(#126),#127);
#41=STYLED_ITEM('',(#128),#129);
#42=STYLED_ITEM('',(#130),#131);
#43=STYLED_ITEM('',(#132),#133);
#44=STYLED_ITEM('',(#134),#135);
#45=STYLED_ITEM('',(#136),#137);
#46=STYLED_ITEM('',(#138),#139);
#47=STYLED_ITEM('',(#140),#141);
#48=STYLED_ITEM('',(#142),#143);
#49=STYLED_ITEM('',(#144),#145);
#50=STYLED_ITEM('',(#146),#147);
#51=STYLED_ITEM('',(#148),#149);
#52=STYLED_ITEM('',(#150),#151);
#53=APPLICATION_CONTEXT(' ');
#54=PRODUCT_CATEGORY('part','NONE');
#55=PRODUCT_RELATED_PRODUCT_CATEGORY('detail',' ',(#152));
#56=PRODUCT_DEFINITION_SHAPE('NONE','NONE',#153);
#57=ADVANCED_BREP_SHAPE_REPRESENTATION('1',(#71,#154),#6);
#60=UNCERTAINTY_MEASURE_WITH_UNIT(LENGTH_MEASURE(1.0E-006),#62,'','');
#62= (CONVERSION_BASED_UNIT('MILLIMETRE',#157)LENGTH_UNIT()NAMED_UNIT(#160));
#63= (NAMED_UNIT(#162)PLANE_ANGLE_UNIT()SI_UNIT($,.RADIAN.));
#64= (NAMED_UNIT(#162)SOLID_ANGLE_UNIT()SI_UNIT($,.STERADIAN.));
#66=PRESENTATION_STYLE_ASSIGNMENT((#168));
#67=ADVANCED_FACE('',(#169,#170),#171,.T.);
#68=PRESENTATION_STYLE_ASSIGNMENT((#172));
#69=VERTEX_POINT('',#173);
#70=PRESENTATION_STYLE_ASSIGNMENT((#174));
#71=MANIFOLD_SOLID_BREP('1',#175);
#72=PRESENTATION_STYLE_ASSIGNMENT((#176));
#73=VERTEX_POINT('',#177);
#74=PRESENTATION_STYLE_ASSIGNMENT((#178));
#75=EDGE_CURVE('',#77,#69,#179,.T.);
#76=PRESENTATION_STYLE_ASSIGNMENT((#180));
#77=VERTEX_POINT('',#181);
#78=PRESENTATION_STYLE_ASSIGNMENT((#182));
#79=EDGE_CURVE('',#109,#131,#183,.T.);
#80=PRESENTATION_STYLE_ASSIGNMENT((#184));
#81=VERTEX_POINT('',#185);
#82=PRESENTATION_STYLE_ASSIGNMENT((#186));
#83=EDGE_CURVE('',#77,#109,#187,.T.);
#84=PRESENTATION_STYLE_ASSIGNMENT((#188));
#85=VERTEX_POINT('',#189);
#86=PRESENTATION_STYLE_ASSIGNMENT((#190));
#87=EDGE_CURVE('',#97,#85,#191,.T.);
#88=PRESENTATION_STYLE_ASSIGNMENT((#192));
#89=EDGE_CURVE('',#85,#69,#193,.T.);
#90=PRESENTATION_STYLE_ASSIGNMENT((#194));
#91=ADVANCED_FACE('',(#195,#196),#197,.T.);
#92=PRESENTATION_STYLE_ASSIGNMENT((#198));
#93=EDGE_CURVE('',#85,#109,#199,.T.);
#94=PRESENTATION_STYLE_ASSIGNMENT((#200));
#95=ADVANCED_FACE('',(#201),#202,.F.);
#96=PRESENTATION_STYLE_ASSIGNMENT((#203));
#97=VERTEX_POINT('',#204);
#98=PRESENTATION_STYLE_ASSIGNMENT((#205));
#99=EDGE_CURVE('',#105,#117,#206,.T.);
#100=PRESENTATION_STYLE_ASSIGNMENT((#207));
#101=ADVANCED_FACE('',(#208),#209,.T.);
#102=PRESENTATION_STYLE_ASSIGNMENT((#210));
#103=EDGE_CURVE('',#81,#125,#211,.T.);
#104=PRESENTATION_STYLE_ASSIGNMENT((#212));
#105=VERTEX_POINT('',#213);
#106=PRESENTATION_STYLE_ASSIGNMENT((#214));
#107=ADVANCED_FACE('',(#215),#216,.T.);
#108=PRESENTATION_STYLE_ASSIGNMENT((#217));
#109=VERTEX_POINT('',#218);
#110=PRESENTATION_STYLE_ASSIGNMENT((#219));
#111=EDGE_CURVE('',#105,#149,#220,.T.);
#112=PRESENTATION_STYLE_ASSIGNMENT((#221));
#113=ADVANCED_FACE('',(#222),#223,.T.);
#114=PRESENTATION_STYLE_ASSIGNMENT((#224));
#115=ADVANCED_FACE('',(#225),#226,.F.);
#116=PRESENTATION_STYLE_ASSIGNMENT((#227));
#117=VERTEX_POINT('',#228);
#118=PRESENTATION_STYLE_ASSIGNMENT((#229));
#119=EDGE_CURVE('',#73,#117,#230,.T.);
#120=PRESENTATION_STYLE_ASSIGNMENT((#231));
#121=EDGE_CURVE('',#117,#105,#232,.T.);
#122=PRESENTATION_STYLE_ASSIGNMENT((#233));
#123=EDGE_CURVE('',#109,#85,#234,.T.);
#124=PRESENTATION_STYLE_ASSIGNMENT((#235));
#125=VERTEX_POINT('',#236);
#126=PRESENTATION_STYLE_ASSIGNMENT((#237));
#127=EDGE_CURVE('',#131,#97,#238,.T.);
#128=PRESENTATION_STYLE_ASSIGNMENT((#239));
#129=EDGE_CURVE('',#125,#73,#240,.T.);
#130=PRESENTATION_STYLE_ASSIGNMENT((#241));
#131=VERTEX_POINT('',#242);
#132=PRESENTATION_STYLE_ASSIGNMENT((#243));
#133=ADVANCED_FACE('',(#244),#245,.F.);
#134=PRESENTATION_STYLE_ASSIGNMENT((#246));
#135=ADVANCED_FACE('',(#247),#248,.T.);
#136=PRESENTATION_STYLE_ASSIGNMENT((#249));
#137=EDGE_CURVE('',#149,#81,#250,.T.);
#138=PRESENTATION_STYLE_ASSIGNMENT((#251));
#139=ADVANCED_FACE('',(#252),#253,.F.);
#140=PRESENTATION_STYLE_ASSIGNMENT((#254));
#141=EDGE_CURVE('',#97,#131,#255,.T.);
#142=PRESENTATION_STYLE_ASSIGNMENT((#256));
#143=EDGE_CURVE('',#73,#149,#257,.T.);
#144=PRESENTATION_STYLE_ASSIGNMENT((#258));
#145=EDGE_CURVE('',#149,#73,#259,.T.);
#146=PRESENTATION_STYLE_ASSIGNMENT((#260));
#147=EDGE_CURVE('',#69,#77,#261,.T.);
#148=PRESENTATION_STYLE_ASSIGNMENT((#262));
#149=VERTEX_POINT('',#263);
#150=PRESENTATION_STYLE_ASSIGNMENT((#264));
#151=EDGE_CURVE('',#125,#81,#265,.T.);
#152=PRODUCT('1','1','PART-1-DESC',(#266));
#153=PRODUCT_DEFINITION('NONE','NONE',#267,#2);
#154=AXIS2_PLACEMENT_3D('',#268,#269,#270);
#157=LENGTH_MEASURE_WITH_UNIT(LENGTH_MEASURE(1.0),#271);
#160=DIMENSIONAL_EXPONENTS(1.0,0.0,0.0,0.0,0.0,0.0,0.0);
#162=DIMENSIONAL_EXPONENTS(0.0,0.0,0.0,0.0,0.0,0.0,0.0);
#168=SURFACE_STYLE_USAGE(.BOTH.,#272);
#169=FACE_OUTER_BOUND('',#273,.T.);
#170=FACE_BOUND('',#274,.T.);
#171=PLANE('',#275);
#172=POINT_STYLE(' ',#276,POSITIVE_LENGTH_MEASURE(1.0E-006),#277);
#173=CARTESIAN_POINT('',(34.0,1.87104752495391E-014,14.0));
#174=SURFACE_STYLE_USAGE(.BOTH.,#278);
#175=CLOSED_SHELL('',(#95,#113,#115,#101,#107,#139,#67,#135,#91,#133));
#176=POINT_STYLE(' ',#279,POSITIVE_LENGTH_MEASURE(1.0E-006),#280);
#177=CARTESIAN_POINT('',(18.5,1.41968007791284E-014,13.0));
#178=CURVE_STYLE('',#281,POSITIVE_LENGTH_MEASURE(1.0E-006),#282);
#179=CIRCLE('',#283,34.0);
#180=POINT_STYLE(' ',#284,POSITIVE_LENGTH_MEASURE(1.0E-006),#285);
#181=CARTESIAN_POINT('',(-34.0,4.64585029209369E-015,14.0));
#182=CURVE_STYLE('',#286,POSITIVE_LENGTH_MEASURE(1.0E-006),#287);
#183=CIRCLE('',#288,50.0000000000002);
#184=POINT_STYLE(' ',#289,POSITIVE_LENGTH_MEASURE(1.0E-006),#290);
#185=CARTESIAN_POINT('',(-18.5,5.68676569284271E-015,-2.8421709430404E-014));
#186=CURVE_STYLE('',#291,POSITIVE_LENGTH_MEASURE(1.0E-006),#292);
#187=LINE('',#293,#294);
#188=POINT_STYLE(' ',#295,POSITIVE_LENGTH_MEASURE(1.0E-006),#296);
#189=CARTESIAN_POINT('',(34.0,1.90999161648688E-014,9.39999999999981));
#190=CURVE_STYLE('',#297,POSITIVE_LENGTH_MEASURE(1.0E-006),#298);
#191=CIRCLE('',#299,50.0000000000002);
#192=CURVE_STYLE('',#300,POSITIVE_LENGTH_MEASURE(1.0E-006),#301);
#193=LINE('',#302,#303);
#194=SURFACE_STYLE_USAGE(.BOTH.,#304);
#195=FACE_OUTER_BOUND('',#305,.T.);
#196=FACE_BOUND('',#306,.T.);
#197=PLANE('',#307);
#198=CURVE_STYLE('',#308,POSITIVE_LENGTH_MEASURE(1.0E-006),#309);
#199=CIRCLE('',#310,34.0);
#200=SURFACE_STYLE_USAGE(.BOTH.,#311);
#201=FACE_OUTER_BOUND('',#312,.T.);
#202=CYLINDRICAL_SURFACE('',#313,18.5);
#203=POINT_STYLE(' ',#314,POSITIVE_LENGTH_MEASURE(1.0E-006),#315);
#204=CARTESIAN_POINT('',(19.4530361506538,1.5537055293122E-014,-1.4210854715202E-014));
#205=CURVE_STYLE('',#316,POSITIVE_LENGTH_MEASURE(1.0E-006),#317);
#206=CIRCLE('',#318,19.5);
#207=SURFACE_STYLE_USAGE(.BOTH.,#319);
#208=FACE_OUTER_BOUND('',#320,.T.);
#209=SPHERICAL_SURFACE('',#321,50.0000000000002);
#210=CURVE_STYLE('',#322,POSITIVE_LENGTH_MEASURE(1.0E-006),#323);
#211=CIRCLE('',#324,18.5);
#212=POINT_STYLE(' ',#325,POSITIVE_LENGTH_MEASURE(1.0E-006),#326);
#213=CARTESIAN_POINT('',(-19.5,6.42152950513613E-015,14.0));
#214=SURFACE_STYLE_USAGE(.BOTH.,#327);
#215=FACE_OUTER_BOUND('',#328,.T.);
#216=SPHERICAL_SURFACE('',#329,50.0000000000002);
#217=POINT_STYLE(' ',#330,POSITIVE_LENGTH_MEASURE(1.0E-006),#331);
#218=CARTESIAN_POINT('',(-34.0,4.36419083071454E-015,9.39999999999993));
#219=CURVE_STYLE('',#332,POSITIVE_LENGTH_MEASURE(1.0E-006),#333);
#220=LINE('',#334,#335);
#221=SURFACE_STYLE_USAGE(.BOTH.,#336);
#222=FACE_OUTER_BOUND('',#337,.T.);
#223=CYLINDRICAL_SURFACE('',#338,34.0);
#224=SURFACE_STYLE_USAGE(.BOTH.,#339);
#225=FACE_OUTER_BOUND('',#340,.T.);
#226=CONICAL_SURFACE('',#341,19.0,0.785398163397448);
#227=POINT_STYLE(' ',#342,POSITIVE_LENGTH_MEASURE(1.0E-006),#343);
#228=CARTESIAN_POINT('',(19.5,1.4488005583671E-014,14.0));
#229=CURVE_STYLE('',#344,POSITIVE_LENGTH_MEASURE(1.0E-006),#345);
#230=LINE('',#346,#347);
#231=CURVE_STYLE('',#348,POSITIVE_LENGTH_MEASURE(1.0E-006),#349);
#232=CIRCLE('',#350,19.5);
#233=CURVE_STYLE('',#351,POSITIVE_LENGTH_MEASURE(1.0E-006),#352);
#234=CIRCLE('',#353,34.0);
#235=POINT_STYLE(' ',#354,POSITIVE_LENGTH_MEASURE(1.0E-006),#355);
#236=CARTESIAN_POINT('',(18.5,1.41968007791284E-014,-2.8421709430404E-014));
#237=CURVE_STYLE('',#356,POSITIVE_LENGTH_MEASURE(1.0E-006),#357);
#238=CIRCLE('',#358,19.4530361506539);
#239=CURVE_STYLE('',#359,POSITIVE_LENGTH_MEASURE(1.0E-006),#360);
#240=LINE('',#361,#362);
#241=POINT_STYLE(' ',#363,POSITIVE_LENGTH_MEASURE(1.0E-006),#364);
#242=CARTESIAN_POINT('',(-19.4530361506537,5.57005628029141E-015,-1.4210854715202E-014));
#243=SURFACE_STYLE_USAGE(.BOTH.,#365);
#244=FACE_OUTER_BOUND('',#366,.T.);
#245=CYLINDRICAL_SURFACE('',#367,18.5);
#246=SURFACE_STYLE_USAGE(.BOTH.,#368);
#247=FACE_OUTER_BOUND('',#369,.T.);
#248=CYLINDRICAL_SURFACE('',#370,34.0);
#249=CURVE_STYLE('',#371,POSITIVE_LENGTH_MEASURE(1.0E-006),#372);
#250=LINE('',#373,#374);
#251=SURFACE_STYLE_USAGE(.BOTH.,#375);
#252=FACE_OUTER_BOUND('',#376,.T.);
#253=CONICAL_SURFACE('',#377,19.0,0.785398163397448);
#254=CURVE_STYLE('',#378,POSITIVE_LENGTH_MEASURE(1.0E-006),#379);
#255=CIRCLE('',#380,19.4530361506539);
#256=CURVE_STYLE('',#381,POSITIVE_LENGTH_MEASURE(1.0E-006),#382);
#257=CIRCLE('',#383,18.5);
#258=CURVE_STYLE('',#384,POSITIVE_LENGTH_MEASURE(1.0E-006),#385);
#259=CIRCLE('',#386,18.5);
#260=CURVE_STYLE('',#387,POSITIVE_LENGTH_MEASURE(1.0E-006),#388);
#261=CIRCLE('',#389,34.0);
#262=POINT_STYLE(' ',#390,POSITIVE_LENGTH_MEASURE(1.0E-006),#391);
#263=CARTESIAN_POINT('',(-18.5,6.48275982282725E-015,13.0));
#264=CURVE_STYLE('',#392,POSITIVE_LENGTH_MEASURE(1.0E-006),#393);
#265=CIRCLE('',#394,18.5);
#266=PRODUCT_CONTEXT('',#53,'mechanical');
#267=PRODUCT_DEFINITION_FORMATION_WITH_SPECIFIED_SOURCE(' ','NONE',#152,.NOT_KNOWN.);
#268=CARTESIAN_POINT('',(0.0,0.0,0.0));
#269=DIRECTION('',(0.0,0.0,1.0));
#270=DIRECTION('',(1.0,0.0,0.0));
#271= (NAMED_UNIT(#160)LENGTH_UNIT()SI_UNIT(.MILLI.,.METRE.));
#272=SURFACE_SIDE_STYLE('',(#396));
#273=EDGE_LOOP('',(#397,#398));
#274=EDGE_LOOP('',(#399,#400));
#275=AXIS2_PLACEMENT_3D('',#401,#402,#403);
#276=PRE_DEFINED_MARKER('');
#277=COLOUR_RGB('',0.509803950786591,0.509803950786591,0.588235318660736);
#278=SURFACE_SIDE_STYLE('',(#404));
#279=PRE_DEFINED_MARKER('');
#280=COLOUR_RGB('',0.509803950786591,0.509803950786591,0.588235318660736);
#281=DRAUGHTING_PRE_DEFINED_CURVE_FONT('continuous');
#282=COLOUR_RGB('',0.509803950786591,0.509803950786591,0.588235318660736);
#283=AXIS2_PLACEMENT_3D('',#405,#406,#407);
#284=PRE_DEFINED_MARKER('');
#285=COLOUR_RGB('',0.509803950786591,0.509803950786591,0.588235318660736);
#286=DRAUGHTING_PRE_DEFINED_CURVE_FONT('continuous');
#287=COLOUR_RGB('',0.509803950786591,0.509803950786591,0.588235318660736);
#288=AXIS2_PLACEMENT_3D('',#408,#409,#410);
#289=PRE_DEFINED_MARKER('');
#290=COLOUR_RGB('',0.509803950786591,0.509803950786591,0.588235318660736);
#291=DRAUGHTING_PRE_DEFINED_CURVE_FONT('continuous');
#292=COLOUR_RGB('',0.509803950786591,0.509803950786591,0.588235318660736);
#293=CARTESIAN_POINT('',(-34.0,-1.09145145935951E-015,11.6999999999999));
#294=VECTOR('',#411,1.0);
#295=PRE_DEFINED_MARKER('');
#296=COLOUR_RGB('',0.509803950786591,0.509803950786591,0.588235318660736);
#297=DRAUGHTING_PRE_DEFINED_CURVE_FONT('continuous');
#298=COLOUR_RGB('',0.509803950786591,0.509803950786591,0.588235318660736);
#299=AXIS2_PLACEMENT_3D('',#412,#413,#414);
#300=DRAUGHTING_PRE_DEFINED_CURVE_FONT('continuous');
#301=COLOUR_RGB('',0.509803950786591,0.509803950786591,0.588235318660736);
#302=CARTESIAN_POINT('',(34.0,1.87104752495391E-014,11.6999999999999));
#303=VECTOR('',#415,1.0);
#304=SURFACE_SIDE_STYLE('',(#416));
#305=EDGE_LOOP('',(#417,#418));
#306=EDGE_LOOP('',(#419,#420));
#307=AXIS2_PLACEMENT_3D('',#421,#422,#423);
#308=DRAUGHTING_PRE_DEFINED_CURVE_FONT('continuous');
#309=COLOUR_RGB('',0.509803950786591,0.509803950786591,0.588235318660736);
#310=AXIS2_PLACEMENT_3D('',#424,#425,#426);
#311=SURFACE_SIDE_STYLE('',(#427));
#312=EDGE_LOOP('',(#428,#429,#430,#431));
#313=AXIS2_PLACEMENT_3D('',#432,#433,#434);
#314=PRE_DEFINED_MARKER('');
#315=COLOUR_RGB('',0.509803950786591,0.509803950786591,0.588235318660736);
#316=DRAUGHTING_PRE_DEFINED_CURVE_FONT('continuous');
#317=COLOUR_RGB('',0.509803950786591,0.509803950786591,0.588235318660736);
#318=AXIS2_PLACEMENT_3D('',#435,#436,#437);
#319=SURFACE_SIDE_STYLE('',(#438));
#320=EDGE_LOOP('',(#439,#440,#441,#442));
#321=AXIS2_PLACEMENT_3D('',#443,#444,#445);
#322=DRAUGHTING_PRE_DEFINED_CURVE_FONT('continuous');
#323=COLOUR_RGB('',0.509803950786591,0.509803950786591,0.588235318660736);
#324=AXIS2_PLACEMENT_3D('',#446,#447,#448);
#325=PRE_DEFINED_MARKER('');
#326=COLOUR_RGB('',0.509803950786591,0.509803950786591,0.588235318660736);
#327=SURFACE_SIDE_STYLE('',(#449));
#328=EDGE_LOOP('',(#450,#451,#452,#453));
#329=AXIS2_PLACEMENT_3D('',#454,#455,#456);
#330=PRE_DEFINED_MARKER('');
#331=COLOUR_RGB('',0.509803950786591,0.509803950786591,0.588235318660736);
#332=DRAUGHTING_PRE_DEFINED_CURVE_FONT('continuous');
#333=COLOUR_RGB('',0.509803950786591,0.509803950786591,0.588235318660736);
#334=CARTESIAN_POINT('',(-19.0,3.27662060877987E-015,13.5));
#335=VECTOR('',#457,1.0);
#336=SURFACE_SIDE_STYLE('',(#458));
#337=EDGE_LOOP('',(#459,#460,#461,#462));
#338=AXIS2_PLACEMENT_3D('',#463,#464,#465);
#339=SURFACE_SIDE_STYLE('',(#466));
#340=EDGE_LOOP('',(#467,#468,#469,#470));
#341=AXIS2_PLACEMENT_3D('',#471,#472,#473);
#342=PRE_DEFINED_MARKER('');
#343=COLOUR_RGB('',0.509803950786591,0.509803950786591,0.588235318660736);
#344=DRAUGHTING_PRE_DEFINED_CURVE_FONT('continuous');
#345=COLOUR_RGB('',0.509803950786591,0.509803950786591,0.588235318660736);
#346=CARTESIAN_POINT('',(19.0,1.43424031813997E-014,13.5));
#347=VECTOR('',#474,1.0);
#348=DRAUGHTING_PRE_DEFINED_CURVE_FONT('continuous');
#349=COLOUR_RGB('',0.509803950786591,0.509803950786591,0.588235318660736);
#350=AXIS2_PLACEMENT_3D('',#475,#476,#477);
#351=DRAUGHTING_PRE_DEFINED_CURVE_FONT('continuous');
#352=COLOUR_RGB('',0.509803950786591,0.509803950786591,0.588235318660736);
#353=AXIS2_PLACEMENT_3D('',#478,#479,#480);
#354=PRE_DEFINED_MARKER('');
#355=COLOUR_RGB('',0.509803950786591,0.509803950786591,0.588235318660736);
#356=DRAUGHTING_PRE_DEFINED_CURVE_FONT('continuous');
#357=COLOUR_RGB('',0.509803950786591,0.509803950786591,0.588235318660736);
#358=AXIS2_PLACEMENT_3D('',#481,#482,#483);
#359=DRAUGHTING_PRE_DEFINED_CURVE_FONT('continuous');
#360=COLOUR_RGB('',0.509803950786591,0.509803950786591,0.588235318660736);
#361=CARTESIAN_POINT('',(18.5,1.41968007791284E-014,6.49999999999999));
#362=VECTOR('',#484,1.0);
#363=PRE_DEFINED_MARKER('');
#364=COLOUR_RGB('',0.509803950786591,0.509803950786591,0.588235318660736);
#365=SURFACE_SIDE_STYLE('',(#485));
#366=EDGE_LOOP('',(#486,#487,#488,#489));
#367=AXIS2_PLACEMENT_3D('',#490,#491,#492);
#368=SURFACE_SIDE_STYLE('',(#493));
#369=EDGE_LOOP('',(#494,#495,#496,#497));
#370=AXIS2_PLACEMENT_3D('',#498,#499,#500);
#371=DRAUGHTING_PRE_DEFINED_CURVE_FONT('continuous');
#372=COLOUR_RGB('',0.509803950786591,0.509803950786591,0.588235318660736);
#373=CARTESIAN_POINT('',(-18.5,3.42222301105119E-015,6.49999999999999));
#374=VECTOR('',#501,1.0);
#375=SURFACE_SIDE_STYLE('',(#502));
#376=EDGE_LOOP('',(#503,#504,#505,#506));
#377=AXIS2_PLACEMENT_3D('',#507,#508,#509);
#378=DRAUGHTING_PRE_DEFINED_CURVE_FONT('continuous');
#379=COLOUR_RGB('',0.509803950786591,0.509803950786591,0.588235318660736);
#380=AXIS2_PLACEMENT_3D('',#510,#511,#512);
#381=DRAUGHTING_PRE_DEFINED_CURVE_FONT('continuous');
#382=COLOUR_RGB('',0.509803950786591,0.509803950786591,0.588235318660736);
#383=AXIS2_PLACEMENT_3D('',#513,#514,#515);
#384=DRAUGHTING_PRE_DEFINED_CURVE_FONT('continuous');
#385=COLOUR_RGB('',0.509803950786591,0.509803950786591,0.588235318660736);
#386=AXIS2_PLACEMENT_3D('',#516,#517,#518);
#387=DRAUGHTING_PRE_DEFINED_CURVE_FONT('continuous');
#388=COLOUR_RGB('',0.509803950786591,0.509803950786591,0.588235318660736);
#389=AXIS2_PLACEMENT_3D('',#519,#520,#521);
#390=PRE_DEFINED_MARKER('');
#391=COLOUR_RGB('',0.509803950786591,0.509803950786591,0.588235318660736);
#392=DRAUGHTING_PRE_DEFINED_CURVE_FONT('continuous');
#393=COLOUR_RGB('',0.509803950786591,0.509803950786591,0.588235318660736);
#394=AXIS2_PLACEMENT_3D('',#522,#523,#524);
#396=SURFACE_STYLE_FILL_AREA(#525);
#397=ORIENTED_EDGE('',*,*,#75,.F.);
#398=ORIENTED_EDGE('',*,*,#147,.F.);
#399=ORIENTED_EDGE('',*,*,#99,.T.);
#400=ORIENTED_EDGE('',*,*,#121,.T.);
#401=CARTESIAN_POINT('',(-26.75,5.53368989861491E-015,14.0));
#402=DIRECTION('',(0.0,0.0,1.0));
#403=DIRECTION('',(-1.0,-1.22460635382238E-016,0.0));
#404=SURFACE_STYLE_FILL_AREA(#526);
#405=CARTESIAN_POINT('',(0.0,8.80951189508977E-015,14.0));
#406=DIRECTION('',(-0.0,0.0,-1.0));
#407=DIRECTION('',(-1.0,-1.68744169160388E-016,0.0));
#408=CARTESIAN_POINT('',(-9.59232693276135E-014,1.07725929588766E-014,46.0606055596469));
#409=DIRECTION('',(2.44921270764476E-016,-1.0,0.0));
#410=DIRECTION('',(-0.0,0.0,1.0));
#411=DIRECTION('',(0.0,0.0,-1.0));
#412=CARTESIAN_POINT('',(-9.59232693276135E-014,1.07725929588766E-014,46.0606055596469));
#413=DIRECTION('',(2.44921270764476E-016,-1.0,0.0));
#414=DIRECTION('',(-0.0,0.0,1.0));
#415=DIRECTION('',(-0.0,-0.0,1.0));
#416=SURFACE_STYLE_FILL_AREA(#527);
#417=ORIENTED_EDGE('',*,*,#127,.T.);
#418=ORIENTED_EDGE('',*,*,#141,.T.);
#419=ORIENTED_EDGE('',*,*,#103,.F.);
#420=ORIENTED_EDGE('',*,*,#151,.F.);
#421=CARTESIAN_POINT('',(-26.25,4.73769576863037E-015,-1.4210854715202E-014));
#422=DIRECTION('',(0.0,0.0,-1.0));
#423=DIRECTION('',(1.0,1.22460635382238E-016,0.0));
#424=CARTESIAN_POINT('',(0.0,8.80951189508977E-015,9.39999999999981));
#425=DIRECTION('',(0.0,0.0,1.0));
#426=DIRECTION('',(-1.0,-1.68744169160388E-016,0.0));
#427=SURFACE_STYLE_FILL_AREA(#528);
#428=ORIENTED_EDGE('',*,*,#137,.F.);
#429=ORIENTED_EDGE('',*,*,#143,.F.);
#430=ORIENTED_EDGE('',*,*,#129,.F.);
#431=ORIENTED_EDGE('',*,*,#151,.T.);
#432=CARTESIAN_POINT('',(0.0,8.80951189508977E-015,6.49999999999999));
#433=DIRECTION('',(0.0,-0.0,1.0));
#434=DIRECTION('',(-1.0,-1.68744169160388E-016,0.0));
#435=CARTESIAN_POINT('',(0.0,8.80951189508977E-015,14.0));
#436=DIRECTION('',(-0.0,0.0,-1.0));
#437=DIRECTION('',(-1.0,-1.68744169160388E-016,0.0));
#438=SURFACE_STYLE_FILL_AREA(#529);
#439=ORIENTED_EDGE('',*,*,#87,.F.);
#440=ORIENTED_EDGE('',*,*,#127,.F.);
#441=ORIENTED_EDGE('',*,*,#79,.F.);
#442=ORIENTED_EDGE('',*,*,#93,.F.);
#443=CARTESIAN_POINT('',(-9.59232693276135E-014,1.07725929588766E-014,46.0606055596469));
#444=DIRECTION('',(0.0,0.0,-1.0));
#445=DIRECTION('',(1.0,1.22460635382238E-016,0.0));
#446=CARTESIAN_POINT('',(0.0,8.80951189508977E-015,-2.8421709430404E-014));
#447=DIRECTION('',(-0.0,0.0,-1.0));
#448=DIRECTION('',(-1.0,-1.68744169160388E-016,0.0));
#449=SURFACE_STYLE_FILL_AREA(#530);
#450=ORIENTED_EDGE('',*,*,#87,.T.);
#451=ORIENTED_EDGE('',*,*,#123,.F.);
#452=ORIENTED_EDGE('',*,*,#79,.T.);
#453=ORIENTED_EDGE('',*,*,#141,.F.);
#454=CARTESIAN_POINT('',(-9.59232693276135E-014,1.07725929588766E-014,46.0606055596469));
#455=DIRECTION('',(0.0,0.0,-1.0));
#456=DIRECTION('',(1.0,1.22460635382238E-016,0.0));
#457=DIRECTION('',(0.707106781186548,2.05912892006194E-016,-0.707106781186547));
#458=SURFACE_STYLE_FILL_AREA(#531);
#459=ORIENTED_EDGE('',*,*,#83,.F.);
#460=ORIENTED_EDGE('',*,*,#75,.T.);
#461=ORIENTED_EDGE('',*,*,#89,.F.);
#462=ORIENTED_EDGE('',*,*,#93,.T.);
#463=CARTESIAN_POINT('',(0.0,8.80951189508977E-015,7.0));
#464=DIRECTION('',(0.0,-0.0,1.0));
#465=DIRECTION('',(-1.0,-1.68744169160388E-016,0.0));
#466=SURFACE_STYLE_FILL_AREA(#532);
#467=ORIENTED_EDGE('',*,*,#111,.F.);
#468=ORIENTED_EDGE('',*,*,#121,.F.);
#469=ORIENTED_EDGE('',*,*,#119,.F.);
#470=ORIENTED_EDGE('',*,*,#143,.T.);
#471=CARTESIAN_POINT('',(0.0,8.80951189508977E-015,13.5));
#472=DIRECTION('',(0.0,-0.0,1.0));
#473=DIRECTION('',(-1.0,-1.68744169160388E-016,0.0));
#474=DIRECTION('',(0.707106781186548,2.05912892006194E-016,0.707106781186547));
#475=CARTESIAN_POINT('',(0.0,8.80951189508977E-015,14.0));
#476=DIRECTION('',(-0.0,0.0,-1.0));
#477=DIRECTION('',(-1.0,-1.68744169160388E-016,0.0));
#478=CARTESIAN_POINT('',(0.0,8.80951189508977E-015,9.39999999999981));
#479=DIRECTION('',(0.0,0.0,1.0));
#480=DIRECTION('',(-1.0,-1.68744169160388E-016,0.0));
#481=CARTESIAN_POINT('',(-9.59232693276135E-014,1.07725929588766E-014,-1.4210854715202E-014));
#482=DIRECTION('',(0.0,0.0,-1.0));
#483=DIRECTION('',(0.0,-1.0,0.0));
#484=DIRECTION('',(0.0,0.0,1.0));
#485=SURFACE_STYLE_FILL_AREA(#533);
#486=ORIENTED_EDGE('',*,*,#137,.T.);
#487=ORIENTED_EDGE('',*,*,#103,.T.);
#488=ORIENTED_EDGE('',*,*,#129,.T.);
#489=ORIENTED_EDGE('',*,*,#145,.F.);
#490=CARTESIAN_POINT('',(0.0,8.80951189508977E-015,6.49999999999999));
#491=DIRECTION('',(0.0,-0.0,1.0));
#492=DIRECTION('',(-1.0,-1.68744169160388E-016,0.0));
#493=SURFACE_STYLE_FILL_AREA(#534);
#494=ORIENTED_EDGE('',*,*,#83,.T.);
#495=ORIENTED_EDGE('',*,*,#123,.T.);
#496=ORIENTED_EDGE('',*,*,#89,.T.);
#497=ORIENTED_EDGE('',*,*,#147,.T.);
#498=CARTESIAN_POINT('',(0.0,8.80951189508977E-015,7.0));
#499=DIRECTION('',(0.0,-0.0,1.0));
#500=DIRECTION('',(-1.0,-1.68744169160388E-016,0.0));
#501=DIRECTION('',(0.0,0.0,-1.0));
#502=SURFACE_STYLE_FILL_AREA(#535);
#503=ORIENTED_EDGE('',*,*,#111,.T.);
#504=ORIENTED_EDGE('',*,*,#145,.T.);
#505=ORIENTED_EDGE('',*,*,#119,.T.);
#506=ORIENTED_EDGE('',*,*,#99,.F.);
#507=CARTESIAN_POINT('',(0.0,8.80951189508977E-015,13.5));
#508=DIRECTION('',(0.0,-0.0,1.0));
#509=DIRECTION('',(-1.0,-1.68744169160388E-016,0.0));
#510=CARTESIAN_POINT('',(-9.59232693276135E-014,1.07725929588766E-014,-1.4210854715202E-014));
#511=DIRECTION('',(0.0,0.0,-1.0));
#512=DIRECTION('',(0.0,-1.0,0.0));
#513=CARTESIAN_POINT('',(0.0,8.80951189508977E-015,13.0));
#514=DIRECTION('',(-0.0,0.0,-1.0));
#515=DIRECTION('',(-1.0,-1.68744169160388E-016,0.0));
#516=CARTESIAN_POINT('',(0.0,8.80951189508977E-015,13.0));
#517=DIRECTION('',(-0.0,0.0,-1.0));
#518=DIRECTION('',(-1.0,-1.68744169160388E-016,0.0));
#519=CARTESIAN_POINT('',(0.0,8.80951189508977E-015,14.0));
#520=DIRECTION('',(-0.0,0.0,-1.0));
#521=DIRECTION('',(-1.0,-1.68744169160388E-016,0.0));
#522=CARTESIAN_POINT('',(0.0,8.80951189508977E-015,-2.8421709430404E-014));
#523=DIRECTION('',(-0.0,0.0,-1.0));
#524=DIRECTION('',(-1.0,-1.68744169160388E-016,0.0));
#525=FILL_AREA_STYLE('',(#536));
#526=FILL_AREA_STYLE('',(#537));
#527=FILL_AREA_STYLE('',(#538));
#528=FILL_AREA_STYLE('',(#539));
#529=FILL_AREA_STYLE('',(#540));
#530=FILL_AREA_STYLE('',(#541));
#531=FILL_AREA_STYLE('',(#542));
#532=FILL_AREA_STYLE('',(#543));
#533=FILL_AREA_STYLE('',(#544));
#534=FILL_AREA_STYLE('',(#545));
#535=FILL_AREA_STYLE('',(#546));
#536=FILL_AREA_STYLE_COLOUR('',#547);
#537=FILL_AREA_STYLE_COLOUR('',#548);
#538=FILL_AREA_STYLE_COLOUR('',#549);
#539=FILL_AREA_STYLE_COLOUR('',#550);
#540=FILL_AREA_STYLE_COLOUR('',#551);
#541=FILL_AREA_STYLE_COLOUR('',#552);
#542=FILL_AREA_STYLE_COLOUR('',#553);
#543=FILL_AREA_STYLE_COLOUR('',#554);
#544=FILL_AREA_STYLE_COLOUR('',#555);
#545=FILL_AREA_STYLE_COLOUR('',#556);
#546=FILL_AREA_STYLE_COLOUR('',#557);
#547=COLOUR_RGB('',0.509803950786591,0.509803950786591,0.588235318660736);
#548=COLOUR_RGB('',0.509803950786591,0.509803950786591,0.588235318660736);
#549=COLOUR_RGB('',0.509803950786591,0.509803950786591,0.588235318660736);
#550=COLOUR_RGB('',0.509803950786591,0.509803950786591,0.588235318660736);
#551=COLOUR_RGB('',0.509803950786591,0.509803950786591,0.588235318660736);
#552=COLOUR_RGB('',0.509803950786591,0.509803950786591,0.588235318660736);
#553=COLOUR_RGB('',0.509803950786591,0.509803950786591,0.588235318660736);
#554=COLOUR_RGB('',0.509803950786591,0.509803950786591,0.588235318660736);
#555=COLOUR_RGB('',0.509803950786591,0.509803950786591,0.588235318660736);
#556=COLOUR_RGB('',0.509803950786591,0.509803950786591,0.588235318660736);
#557=COLOUR_RGB('',0.509803950786591,0.509803950786591,0.588235318660736);
ENDSEC;
END-ISO-10303-21;
