ISO-10303-21;
HEADER;
FILE_DESCRIPTION(('STEP AP214'),'1');
FILE_NAME(' ','  ',('TraceParts'),('TraceParts S.A.'),'XStep 1.0',' ',' ');
FILE_SCHEMA(('automotive_design'));
ENDSEC;
DATA;
#1=MECHANICAL_DESIGN_GEOMETRIC_PRESENTATION_REPRESENTATION(' ',(#10,#11,#12,#13,#14,#15,#16,#17,#18,#19,#20,#21,#22,#23,#24,#25,#26,#27,#28,#29,#30,#31,#32,#33,#34,#35,#36,#37,#38,#39,#40,#41,#42,#43,#44,#45,#46,#47,#48,#49,#50,#51,#52),#6);
#2=PRODUCT_DEFINITION_CONTEXT('',#53,'design');
#3=APPLICATION_PROTOCOL_DEFINITION('INTERNATIONAL STANDARD','automotive_design',1994,#53);
#4=PRODUCT_CATEGORY_RELATIONSHIP('NONE','NONE',#54,#55);
#5=SHAPE_DEFINITION_REPRESENTATION(#56,#57);
#6= (GEOMETRIC_REPRESENTATION_CONTEXT(3)GLOBAL_UNCERTAINTY_ASSIGNED_CONTEXT((#60))GLOBAL_UNIT_ASSIGNED_CONTEXT((#62,#63,#64))REPRESENTATION_CONTEXT('NONE','WORKSPACE'));
#10=STYLED_ITEM('',(#66),#67);
#11=STYLED_ITEM('',(#68),#69);
#12=STYLED_ITEM('',(#70),#71);
#13=STYLED_ITEM('',(#72),#73);
#14=STYLED_ITEM('',(#74),#75);
#15=STYLED_ITEM('',(#76),#77);
#16=STYLED_ITEM('',(#78),#79);
#17=STYLED_ITEM('',(#80),#81);
#18=STYLED_ITEM('',(#82),#83);
#19=STYLED_ITEM('',(#84),#85);
#20=STYLED_ITEM('',(#86),#87);
#21=STYLED_ITEM('',(#88),#89);
#22=STYLED_ITEM('',(#90),#91);
#23=STYLED_ITEM('',(#92),#93);
#24=STYLED_ITEM('',(#94),#95);
#25=STYLED_ITEM('',(#96),#97);
#26=STYLED_ITEM('',(#98),#99);
#27=STYLED_ITEM('',(#100),#101);
#28=STYLED_ITEM('',(#102),#103);
#29=STYLED_ITEM('',(#104),#105);
#30=STYLED_ITEM('',(#106),#107);
#31=STYLED_ITEM('',(#108),#109);
#32=STYLED_ITEM('',(#110),#111);
#33=STYLED_ITEM('',(#112),#113);
#34=STYLED_ITEM('',(#114),#115);
#35=STYLED_ITEM('',(#116),#117);
#36=STYLED_ITEM('',(#118),#119);
#37=STYLED_ITEM('',(#120),#121);
#38=STYLED_ITEM('',(#122),#123);
#39=STYLED_ITEM('',(#124),#125);
#40=STYLED_ITEM('',(#126),#127);
#41=STYLED_ITEM('',(#128),#129);
#42=STYLED_ITEM('',(#130),#131);
#43=STYLED_ITEM('',(#132),#133);
#44=STYLED_ITEM('',(#134),#135);
#45=STYLED_ITEM('',(#136),#137);
#46=STYLED_ITEM('',(#138),#139);
#47=STYLED_ITEM('',(#140),#141);
#48=STYLED_ITEM('',(#142),#143);
#49=STYLED_ITEM('',(#144),#145);
#50=STYLED_ITEM('',(#146),#147);
#51=STYLED_ITEM('',(#148),#149);
#52=STYLED_ITEM('',(#150),#151);
#53=APPLICATION_CONTEXT(' ');
#54=PRODUCT_CATEGORY('part','NONE');
#55=PRODUCT_RELATED_PRODUCT_CATEGORY('detail',' ',(#152));
#56=PRODUCT_DEFINITION_SHAPE('NONE','NONE',#153);
#57=ADVANCED_BREP_SHAPE_REPRESENTATION('1',(#113,#154),#6);
#60=UNCERTAINTY_MEASURE_WITH_UNIT(LENGTH_MEASURE(1.0E-006),#62,'','');
#62= (CONVERSION_BASED_UNIT('MILLIMETRE',#157)LENGTH_UNIT()NAMED_UNIT(#160));
#63= (NAMED_UNIT(#162)PLANE_ANGLE_UNIT()SI_UNIT($,.RADIAN.));
#64= (NAMED_UNIT(#162)SOLID_ANGLE_UNIT()SI_UNIT($,.STERADIAN.));
#66=PRESENTATION_STYLE_ASSIGNMENT((#168));
#67=VERTEX_POINT('',#169);
#68=PRESENTATION_STYLE_ASSIGNMENT((#170));
#69=ADVANCED_FACE('',(#171),#172,.T.);
#70=PRESENTATION_STYLE_ASSIGNMENT((#173));
#71=EDGE_CURVE('',#107,#105,#174,.T.);
#72=PRESENTATION_STYLE_ASSIGNMENT((#175));
#73=VERTEX_POINT('',#176);
#74=PRESENTATION_STYLE_ASSIGNMENT((#177));
#75=VERTEX_POINT('',#178);
#76=PRESENTATION_STYLE_ASSIGNMENT((#179));
#77=VERTEX_POINT('',#180);
#78=PRESENTATION_STYLE_ASSIGNMENT((#181));
#79=EDGE_CURVE('',#125,#147,#182,.T.);
#80=PRESENTATION_STYLE_ASSIGNMENT((#183));
#81=EDGE_CURVE('',#75,#67,#184,.T.);
#82=PRESENTATION_STYLE_ASSIGNMENT((#185));
#83=ADVANCED_FACE('',(#186,#187),#188,.T.);
#84=PRESENTATION_STYLE_ASSIGNMENT((#189));
#85=VERTEX_POINT('',#190);
#86=PRESENTATION_STYLE_ASSIGNMENT((#191));
#87=ADVANCED_FACE('',(#192),#193,.T.);
#88=PRESENTATION_STYLE_ASSIGNMENT((#194));
#89=EDGE_CURVE('',#77,#85,#195,.T.);
#90=PRESENTATION_STYLE_ASSIGNMENT((#196));
#91=EDGE_CURVE('',#85,#77,#197,.T.);
#92=PRESENTATION_STYLE_ASSIGNMENT((#198));
#93=EDGE_CURVE('',#105,#77,#199,.T.);
#94=PRESENTATION_STYLE_ASSIGNMENT((#200));
#95=ADVANCED_FACE('',(#201),#202,.F.);
#96=PRESENTATION_STYLE_ASSIGNMENT((#203));
#97=VERTEX_POINT('',#204);
#98=PRESENTATION_STYLE_ASSIGNMENT((#205));
#99=EDGE_CURVE('',#151,#131,#206,.T.);
#100=PRESENTATION_STYLE_ASSIGNMENT((#207));
#101=ADVANCED_FACE('',(#208),#209,.T.);
#102=PRESENTATION_STYLE_ASSIGNMENT((#210));
#103=EDGE_CURVE('',#67,#73,#211,.T.);
#104=PRESENTATION_STYLE_ASSIGNMENT((#212));
#105=VERTEX_POINT('',#213);
#106=PRESENTATION_STYLE_ASSIGNMENT((#214));
#107=VERTEX_POINT('',#215);
#108=PRESENTATION_STYLE_ASSIGNMENT((#216));
#109=ADVANCED_FACE('',(#217),#218,.F.);
#110=PRESENTATION_STYLE_ASSIGNMENT((#219));
#111=EDGE_CURVE('',#73,#97,#220,.T.);
#112=PRESENTATION_STYLE_ASSIGNMENT((#221));
#113=MANIFOLD_SOLID_BREP('1',#222);
#114=PRESENTATION_STYLE_ASSIGNMENT((#223));
#115=EDGE_CURVE('',#67,#75,#224,.T.);
#116=PRESENTATION_STYLE_ASSIGNMENT((#225));
#117=EDGE_CURVE('',#73,#131,#226,.T.);
#118=PRESENTATION_STYLE_ASSIGNMENT((#227));
#119=ADVANCED_FACE('',(#228,#229),#230,.T.);
#120=PRESENTATION_STYLE_ASSIGNMENT((#231));
#121=EDGE_CURVE('',#131,#151,#232,.T.);
#122=PRESENTATION_STYLE_ASSIGNMENT((#233));
#123=EDGE_CURVE('',#77,#147,#234,.T.);
#124=PRESENTATION_STYLE_ASSIGNMENT((#235));
#125=VERTEX_POINT('',#236);
#126=PRESENTATION_STYLE_ASSIGNMENT((#237));
#127=EDGE_CURVE('',#97,#75,#238,.T.);
#128=PRESENTATION_STYLE_ASSIGNMENT((#239));
#129=EDGE_CURVE('',#125,#85,#240,.T.);
#130=PRESENTATION_STYLE_ASSIGNMENT((#241));
#131=VERTEX_POINT('',#242);
#132=PRESENTATION_STYLE_ASSIGNMENT((#243));
#133=EDGE_CURVE('',#97,#73,#244,.T.);
#134=PRESENTATION_STYLE_ASSIGNMENT((#245));
#135=EDGE_CURVE('',#105,#107,#246,.T.);
#136=PRESENTATION_STYLE_ASSIGNMENT((#247));
#137=EDGE_CURVE('',#151,#97,#248,.T.);
#138=PRESENTATION_STYLE_ASSIGNMENT((#249));
#139=ADVANCED_FACE('',(#250),#251,.T.);
#140=PRESENTATION_STYLE_ASSIGNMENT((#252));
#141=ADVANCED_FACE('',(#253),#254,.F.);
#142=PRESENTATION_STYLE_ASSIGNMENT((#255));
#143=ADVANCED_FACE('',(#256),#257,.F.);
#144=PRESENTATION_STYLE_ASSIGNMENT((#258));
#145=EDGE_CURVE('',#85,#107,#259,.T.);
#146=PRESENTATION_STYLE_ASSIGNMENT((#260));
#147=VERTEX_POINT('',#261);
#148=PRESENTATION_STYLE_ASSIGNMENT((#262));
#149=EDGE_CURVE('',#147,#125,#263,.T.);
#150=PRESENTATION_STYLE_ASSIGNMENT((#264));
#151=VERTEX_POINT('',#265);
#152=PRODUCT('1','1','PART-1-DESC',(#266));
#153=PRODUCT_DEFINITION('NONE','NONE',#267,#2);
#154=AXIS2_PLACEMENT_3D('',#268,#269,#270);
#157=LENGTH_MEASURE_WITH_UNIT(LENGTH_MEASURE(1.0),#271);
#160=DIMENSIONAL_EXPONENTS(1.0,0.0,0.0,0.0,0.0,0.0,0.0);
#162=DIMENSIONAL_EXPONENTS(0.0,0.0,0.0,0.0,0.0,0.0,0.0);
#168=POINT_STYLE(' ',#272,POSITIVE_LENGTH_MEASURE(1.0E-006),#273);
#169=CARTESIAN_POINT('',(-15.0,4.64585029209369E-015,5.30000000000001));
#170=SURFACE_STYLE_USAGE(.BOTH.,#274);
#171=FACE_OUTER_BOUND('',#275,.T.);
#172=SPHERICAL_SURFACE('',#276,21.9999999999999);
#173=CURVE_STYLE('',#277,POSITIVE_LENGTH_MEASURE(1.0E-006),#278);
#174=CIRCLE('',#279,8.50000000000003);
#175=POINT_STYLE(' ',#280,POSITIVE_LENGTH_MEASURE(1.0E-006),#281);
#176=CARTESIAN_POINT('',(-14.9999999999999,4.56625087909524E-015,4.00000000000001));
#177=POINT_STYLE(' ',#282,POSITIVE_LENGTH_MEASURE(1.0E-006),#283);
#178=CARTESIAN_POINT('',(15.0000000000001,1.07286244960014E-014,5.30000000000001));
#179=POINT_STYLE(' ',#284,POSITIVE_LENGTH_MEASURE(1.0E-006),#285);
#180=CARTESIAN_POINT('',(8.50000000000006,8.88874980429259E-015,4.80000000000001));
#181=CURVE_STYLE('',#286,POSITIVE_LENGTH_MEASURE(1.0E-006),#287);
#182=CIRCLE('',#288,9.00000000000003);
#183=CURVE_STYLE('',#289,POSITIVE_LENGTH_MEASURE(1.0E-006),#290);
#184=CIRCLE('',#291,15.0);
#185=SURFACE_STYLE_USAGE(.BOTH.,#292);
#186=FACE_OUTER_BOUND('',#293,.T.);
#187=FACE_BOUND('',#294,.T.);
#188=PLANE('',#295);
#189=POINT_STYLE(' ',#296,POSITIVE_LENGTH_MEASURE(1.0E-006),#297);
#190=CARTESIAN_POINT('',(-8.5,5.41122926323267E-015,4.80000000000001));
#191=SURFACE_STYLE_USAGE(.BOTH.,#298);
#192=FACE_OUTER_BOUND('',#299,.T.);
#193=CYLINDRICAL_SURFACE('',#300,15.0);
#194=CURVE_STYLE('',#301,POSITIVE_LENGTH_MEASURE(1.0E-006),#302);
#195=CIRCLE('',#303,8.50000000000003);
#196=CURVE_STYLE('',#304,POSITIVE_LENGTH_MEASURE(1.0E-006),#305);
#197=CIRCLE('',#306,8.50000000000003);
#198=CURVE_STYLE('',#307,POSITIVE_LENGTH_MEASURE(1.0E-006),#308);
#199=LINE('',#309,#310);
#200=SURFACE_STYLE_USAGE(.BOTH.,#311);
#201=FACE_OUTER_BOUND('',#312,.T.);
#202=CONICAL_SURFACE('',#313,8.75000000000003,0.785398163397448);
#203=POINT_STYLE(' ',#314,POSITIVE_LENGTH_MEASURE(1.0E-006),#315);
#204=CARTESIAN_POINT('',(15.0000000000001,1.1062388177052E-014,4.00000000000001));
#205=CURVE_STYLE('',#316,POSITIVE_LENGTH_MEASURE(1.0E-006),#317);
#206=CIRCLE('',#318,8.9583583587927);
#207=SURFACE_STYLE_USAGE(.BOTH.,#319);
#208=FACE_OUTER_BOUND('',#320,.T.);
#209=SPHERICAL_SURFACE('',#321,21.9999999999999);
#210=CURVE_STYLE('',#322,POSITIVE_LENGTH_MEASURE(1.0E-006),#323);
#211=LINE('',#324,#325);
#212=POINT_STYLE(' ',#326,POSITIVE_LENGTH_MEASURE(1.0E-006),#327);
#213=CARTESIAN_POINT('',(8.50000000000006,8.88874980429259E-015,-2.8421709430404E-014));
#214=POINT_STYLE(' ',#328,POSITIVE_LENGTH_MEASURE(1.0E-006),#329);
#215=CARTESIAN_POINT('',(-8.5,5.1173237383153E-015,-2.8421709430404E-014));
#216=SURFACE_STYLE_USAGE(.BOTH.,#330);
#217=FACE_OUTER_BOUND('',#331,.T.);
#218=CONICAL_SURFACE('',#332,8.75000000000003,0.785398163397448);
#219=CURVE_STYLE('',#333,POSITIVE_LENGTH_MEASURE(1.0E-006),#334);
#220=CIRCLE('',#335,15.0);
#221=SURFACE_STYLE_USAGE(.BOTH.,#336);
#222=CLOSED_SHELL('',(#143,#139,#109,#101,#69,#95,#83,#87,#119,#141));
#223=CURVE_STYLE('',#337,POSITIVE_LENGTH_MEASURE(1.0E-006),#338);
#224=CIRCLE('',#339,15.0);
#225=CURVE_STYLE('',#340,POSITIVE_LENGTH_MEASURE(1.0E-006),#341);
#226=CIRCLE('',#342,21.9999999999999);
#227=SURFACE_STYLE_USAGE(.BOTH.,#343);
#228=FACE_OUTER_BOUND('',#344,.T.);
#229=FACE_BOUND('',#345,.T.);
#230=PLANE('',#346);
#231=CURVE_STYLE('',#347,POSITIVE_LENGTH_MEASURE(1.0E-006),#348);
#232=CIRCLE('',#349,8.9583583587927);
#233=CURVE_STYLE('',#350,POSITIVE_LENGTH_MEASURE(1.0E-006),#351);
#234=LINE('',#352,#353);
#235=POINT_STYLE(' ',#354,POSITIVE_LENGTH_MEASURE(1.0E-006),#355);
#236=CARTESIAN_POINT('',(-9.0,5.38061410438711E-015,5.30000000000001));
#237=CURVE_STYLE('',#356,POSITIVE_LENGTH_MEASURE(1.0E-006),#357);
#238=LINE('',#358,#359);
#239=CURVE_STYLE('',#360,POSITIVE_LENGTH_MEASURE(1.0E-006),#361);
#240=LINE('',#362,#363);
#241=POINT_STYLE(' ',#364,POSITIVE_LENGTH_MEASURE(1.0E-006),#365);
#242=CARTESIAN_POINT('',(-8.95835835879261,5.0611928824648E-015,-1.77635683940025E-014));
#243=CURVE_STYLE('',#366,POSITIVE_LENGTH_MEASURE(1.0E-006),#367);
#244=CIRCLE('',#368,15.0);
#245=CURVE_STYLE('',#369,POSITIVE_LENGTH_MEASURE(1.0E-006),#370);
#246=CIRCLE('',#371,8.50000000000003);
#247=CURVE_STYLE('',#372,POSITIVE_LENGTH_MEASURE(1.0E-006),#373);
#248=CIRCLE('',#374,21.9999999999999);
#249=SURFACE_STYLE_USAGE(.BOTH.,#375);
#250=FACE_OUTER_BOUND('',#376,.T.);
#251=CYLINDRICAL_SURFACE('',#377,15.0);
#252=SURFACE_STYLE_USAGE(.BOTH.,#378);
#253=FACE_OUTER_BOUND('',#379,.T.);
#254=CYLINDRICAL_SURFACE('',#380,8.50000000000003);
#255=SURFACE_STYLE_USAGE(.BOTH.,#381);
#256=FACE_OUTER_BOUND('',#382,.T.);
#257=CYLINDRICAL_SURFACE('',#383,8.50000000000003);
#258=CURVE_STYLE('',#384,POSITIVE_LENGTH_MEASURE(1.0E-006),#385);
#259=LINE('',#386,#387);
#260=POINT_STYLE(' ',#388,POSITIVE_LENGTH_MEASURE(1.0E-006),#389);
#261=CARTESIAN_POINT('',(9.00000000000006,9.03027862673172E-015,5.30000000000001));
#262=CURVE_STYLE('',#390,POSITIVE_LENGTH_MEASURE(1.0E-006),#391);
#263=CIRCLE('',#392,9.00000000000003);
#264=POINT_STYLE(' ',#393,POSITIVE_LENGTH_MEASURE(1.0E-006),#394);
#265=CARTESIAN_POINT('',(8.95835835879269,9.58266162878392E-015,-1.4210854715202E-014));
#266=PRODUCT_CONTEXT('',#53,'mechanical');
#267=PRODUCT_DEFINITION_FORMATION_WITH_SPECIFIED_SOURCE(' ','NONE',#152,.NOT_KNOWN.);
#268=CARTESIAN_POINT('',(0.0,0.0,0.0));
#269=DIRECTION('',(0.0,0.0,1.0));
#270=DIRECTION('',(1.0,0.0,0.0));
#271= (NAMED_UNIT(#160)LENGTH_UNIT()SI_UNIT(.MILLI.,.METRE.));
#272=PRE_DEFINED_MARKER('');
#273=COLOUR_RGB('',0.509803950786591,0.509803950786591,0.588235318660736);
#274=SURFACE_SIDE_STYLE('',(#396));
#275=EDGE_LOOP('',(#397,#398,#399,#400));
#276=AXIS2_PLACEMENT_3D('',#401,#402,#403);
#277=DRAUGHTING_PRE_DEFINED_CURVE_FONT('continuous');
#278=COLOUR_RGB('',0.509803950786591,0.509803950786591,0.588235318660736);
#279=AXIS2_PLACEMENT_3D('',#404,#405,#406);
#280=PRE_DEFINED_MARKER('');
#281=COLOUR_RGB('',0.509803950786591,0.509803950786591,0.588235318660736);
#282=PRE_DEFINED_MARKER('');
#283=COLOUR_RGB('',0.509803950786591,0.509803950786591,0.588235318660736);
#284=PRE_DEFINED_MARKER('');
#285=COLOUR_RGB('',0.509803950786591,0.509803950786591,0.588235318660736);
#286=DRAUGHTING_PRE_DEFINED_CURVE_FONT('continuous');
#287=COLOUR_RGB('',0.509803950786591,0.509803950786591,0.588235318660736);
#288=AXIS2_PLACEMENT_3D('',#407,#408,#409);
#289=DRAUGHTING_PRE_DEFINED_CURVE_FONT('continuous');
#290=COLOUR_RGB('',0.509803950786591,0.509803950786591,0.588235318660736);
#291=AXIS2_PLACEMENT_3D('',#410,#411,#412);
#292=SURFACE_SIDE_STYLE('',(#413));
#293=EDGE_LOOP('',(#414,#415));
#294=EDGE_LOOP('',(#416,#417));
#295=AXIS2_PLACEMENT_3D('',#418,#419,#420);
#296=PRE_DEFINED_MARKER('');
#297=COLOUR_RGB('',0.509803950786591,0.509803950786591,0.588235318660736);
#298=SURFACE_SIDE_STYLE('',(#421));
#299=EDGE_LOOP('',(#422,#423,#424,#425));
#300=AXIS2_PLACEMENT_3D('',#426,#427,#428);
#301=DRAUGHTING_PRE_DEFINED_CURVE_FONT('continuous');
#302=COLOUR_RGB('',0.509803950786591,0.509803950786591,0.588235318660736);
#303=AXIS2_PLACEMENT_3D('',#429,#430,#431);
#304=DRAUGHTING_PRE_DEFINED_CURVE_FONT('continuous');
#305=COLOUR_RGB('',0.509803950786591,0.509803950786591,0.588235318660736);
#306=AXIS2_PLACEMENT_3D('',#432,#433,#434);
#307=DRAUGHTING_PRE_DEFINED_CURVE_FONT('continuous');
#308=COLOUR_RGB('',0.509803950786591,0.509803950786591,0.588235318660736);
#309=CARTESIAN_POINT('',(8.50000000000006,8.88874980429259E-015,2.39999999999999));
#310=VECTOR('',#435,1.0);
#311=SURFACE_SIDE_STYLE('',(#436));
#312=EDGE_LOOP('',(#437,#438,#439,#440));
#313=AXIS2_PLACEMENT_3D('',#441,#442,#443);
#314=PRE_DEFINED_MARKER('');
#315=COLOUR_RGB('',0.509803950786591,0.509803950786591,0.588235318660736);
#316=DRAUGHTING_PRE_DEFINED_CURVE_FONT('continuous');
#317=COLOUR_RGB('',0.509803950786591,0.509803950786591,0.588235318660736);
#318=AXIS2_PLACEMENT_3D('',#444,#445,#446);
#319=SURFACE_SIDE_STYLE('',(#447));
#320=EDGE_LOOP('',(#448,#449,#450,#451));
#321=AXIS2_PLACEMENT_3D('',#452,#453,#454);
#322=DRAUGHTING_PRE_DEFINED_CURVE_FONT('continuous');
#323=COLOUR_RGB('',0.509803950786591,0.509803950786591,0.588235318660736);
#324=CARTESIAN_POINT('',(-15.0,2.23689514965315E-015,4.65000000000001));
#325=VECTOR('',#455,1.0);
#326=PRE_DEFINED_MARKER('');
#327=COLOUR_RGB('',0.509803950786591,0.509803950786591,0.588235318660736);
#328=PRE_DEFINED_MARKER('');
#329=COLOUR_RGB('',0.509803950786591,0.509803950786591,0.588235318660736);
#330=SURFACE_SIDE_STYLE('',(#456));
#331=EDGE_LOOP('',(#457,#458,#459,#460));
#332=AXIS2_PLACEMENT_3D('',#461,#462,#463);
#333=DRAUGHTING_PRE_DEFINED_CURVE_FONT('continuous');
#334=COLOUR_RGB('',0.509803950786591,0.509803950786591,0.588235318660736);
#335=AXIS2_PLACEMENT_3D('',#464,#465,#466);
#336=SURFACE_SIDE_STYLE('',(#467));
#337=DRAUGHTING_PRE_DEFINED_CURVE_FONT('continuous');
#338=COLOUR_RGB('',0.509803950786591,0.509803950786591,0.588235318660736);
#339=AXIS2_PLACEMENT_3D('',#468,#469,#470);
#340=DRAUGHTING_PRE_DEFINED_CURVE_FONT('continuous');
#341=COLOUR_RGB('',0.509803950786591,0.509803950786591,0.588235318660736);
#342=AXIS2_PLACEMENT_3D('',#471,#472,#473);
#343=SURFACE_SIDE_STYLE('',(#474));
#344=EDGE_LOOP('',(#475,#476));
#345=EDGE_LOOP('',(#477,#478));
#346=AXIS2_PLACEMENT_3D('',#479,#480,#481);
#347=DRAUGHTING_PRE_DEFINED_CURVE_FONT('continuous');
#348=COLOUR_RGB('',0.509803950786591,0.509803950786591,0.588235318660736);
#349=AXIS2_PLACEMENT_3D('',#482,#483,#484);
#350=DRAUGHTING_PRE_DEFINED_CURVE_FONT('continuous');
#351=COLOUR_RGB('',0.509803950786591,0.509803950786591,0.588235318660736);
#352=CARTESIAN_POINT('',(8.75000000000006,8.95951421551215E-015,5.05000000000001));
#353=VECTOR('',#485,1.0);
#354=PRE_DEFINED_MARKER('');
#355=COLOUR_RGB('',0.509803950786591,0.509803950786591,0.588235318660736);
#356=DRAUGHTING_PRE_DEFINED_CURVE_FONT('continuous');
#357=COLOUR_RGB('',0.509803950786591,0.509803950786591,0.588235318660736);
#358=CARTESIAN_POINT('',(15.0000000000001,1.07286244960014E-014,4.65000000000001));
#359=VECTOR('',#486,1.0);
#360=DRAUGHTING_PRE_DEFINED_CURVE_FONT('continuous');
#361=COLOUR_RGB('',0.509803950786591,0.509803950786591,0.588235318660736);
#362=CARTESIAN_POINT('',(-8.75,4.00600543014236E-015,5.05000000000001));
#363=VECTOR('',#487,1.0);
#364=PRE_DEFINED_MARKER('');
#365=COLOUR_RGB('',0.509803950786591,0.509803950786591,0.588235318660736);
#366=DRAUGHTING_PRE_DEFINED_CURVE_FONT('continuous');
#367=COLOUR_RGB('',0.509803950786591,0.509803950786591,0.588235318660736);
#368=AXIS2_PLACEMENT_3D('',#488,#489,#490);
#369=DRAUGHTING_PRE_DEFINED_CURVE_FONT('continuous');
#370=COLOUR_RGB('',0.509803950786591,0.509803950786591,0.588235318660736);
#371=AXIS2_PLACEMENT_3D('',#491,#492,#493);
#372=DRAUGHTING_PRE_DEFINED_CURVE_FONT('continuous');
#373=COLOUR_RGB('',0.509803950786591,0.509803950786591,0.588235318660736);
#374=AXIS2_PLACEMENT_3D('',#494,#495,#496);
#375=SURFACE_SIDE_STYLE('',(#497));
#376=EDGE_LOOP('',(#498,#499,#500,#501));
#377=AXIS2_PLACEMENT_3D('',#502,#503,#504);
#378=SURFACE_SIDE_STYLE('',(#505));
#379=EDGE_LOOP('',(#506,#507,#508,#509));
#380=AXIS2_PLACEMENT_3D('',#510,#511,#512);
#381=SURFACE_SIDE_STYLE('',(#513));
#382=EDGE_LOOP('',(#514,#515,#516,#517));
#383=AXIS2_PLACEMENT_3D('',#518,#519,#520);
#384=DRAUGHTING_PRE_DEFINED_CURVE_FONT('continuous');
#385=COLOUR_RGB('',0.509803950786591,0.509803950786591,0.588235318660736);
#386=CARTESIAN_POINT('',(-8.5,4.07676984136193E-015,2.39999999999999));
#387=VECTOR('',#521,1.0);
#388=PRE_DEFINED_MARKER('');
#389=COLOUR_RGB('',0.509803950786591,0.509803950786591,0.588235318660736);
#390=DRAUGHTING_PRE_DEFINED_CURVE_FONT('continuous');
#391=COLOUR_RGB('',0.509803950786591,0.509803950786591,0.588235318660736);
#392=AXIS2_PLACEMENT_3D('',#522,#523,#524);
#393=PRE_DEFINED_MARKER('');
#394=COLOUR_RGB('',0.509803950786591,0.509803950786591,0.588235318660736);
#396=SURFACE_STYLE_FILL_AREA(#525);
#397=ORIENTED_EDGE('',*,*,#137,.T.);
#398=ORIENTED_EDGE('',*,*,#111,.F.);
#399=ORIENTED_EDGE('',*,*,#117,.T.);
#400=ORIENTED_EDGE('',*,*,#99,.F.);
#401=CARTESIAN_POINT('',(-1.06581410364015E-014,7.38856911558485E-015,20.093476939431));
#402=DIRECTION('',(0.0,0.0,-1.0));
#403=DIRECTION('',(1.0,1.22460635382238E-016,0.0));
#404=CARTESIAN_POINT('',(2.8421709430404E-014,6.48275982282726E-015,-2.8421709430404E-014));
#405=DIRECTION('',(-0.0,0.0,-1.0));
#406=DIRECTION('',(-1.0,-1.60597009496036E-016,0.0));
#407=CARTESIAN_POINT('',(2.8421709430404E-014,6.48275982282726E-015,5.30000000000001));
#408=DIRECTION('',(-0.0,0.0,-1.0));
#409=DIRECTION('',(-1.0,-1.60597009496036E-016,0.0));
#410=CARTESIAN_POINT('',(2.8421709430404E-014,6.48275982282726E-015,5.30000000000001));
#411=DIRECTION('',(-0.0,0.0,-1.0));
#412=DIRECTION('',(-1.0,-1.60597009496036E-016,0.0));
#413=SURFACE_STYLE_FILL_AREA(#526);
#414=ORIENTED_EDGE('',*,*,#115,.F.);
#415=ORIENTED_EDGE('',*,*,#81,.F.);
#416=ORIENTED_EDGE('',*,*,#79,.T.);
#417=ORIENTED_EDGE('',*,*,#149,.T.);
#418=CARTESIAN_POINT('',(-12.0,5.0132321982404E-015,5.30000000000001));
#419=DIRECTION('',(0.0,0.0,1.0));
#420=DIRECTION('',(-1.0,-1.22460635382238E-016,0.0));
#421=SURFACE_STYLE_FILL_AREA(#527);
#422=ORIENTED_EDGE('',*,*,#103,.T.);
#423=ORIENTED_EDGE('',*,*,#111,.T.);
#424=ORIENTED_EDGE('',*,*,#127,.T.);
#425=ORIENTED_EDGE('',*,*,#81,.T.);
#426=CARTESIAN_POINT('',(2.8421709430404E-014,6.48275982282726E-015,2.65000000000001));
#427=DIRECTION('',(0.0,-0.0,1.0));
#428=DIRECTION('',(-1.0,-1.60597009496036E-016,0.0));
#429=CARTESIAN_POINT('',(2.8421709430404E-014,6.48275982282726E-015,4.80000000000001));
#430=DIRECTION('',(-0.0,0.0,-1.0));
#431=DIRECTION('',(-1.0,-1.60597009496036E-016,0.0));
#432=CARTESIAN_POINT('',(2.8421709430404E-014,6.48275982282726E-015,4.80000000000001));
#433=DIRECTION('',(-0.0,0.0,-1.0));
#434=DIRECTION('',(-1.0,-1.60597009496036E-016,0.0));
#435=DIRECTION('',(0.0,0.0,1.0));
#436=SURFACE_STYLE_FILL_AREA(#528);
#437=ORIENTED_EDGE('',*,*,#129,.T.);
#438=ORIENTED_EDGE('',*,*,#91,.T.);
#439=ORIENTED_EDGE('',*,*,#123,.T.);
#440=ORIENTED_EDGE('',*,*,#79,.F.);
#441=CARTESIAN_POINT('',(2.8421709430404E-014,6.48275982282726E-015,5.05000000000001));
#442=DIRECTION('',(0.0,-0.0,1.0));
#443=DIRECTION('',(-1.0,-1.60597009496036E-016,0.0));
#444=CARTESIAN_POINT('',(-1.06581410364015E-014,7.38856911558485E-015,-1.4210854715202E-014));
#445=DIRECTION('',(0.0,0.0,-1.0));
#446=DIRECTION('',(0.0,-1.0,0.0));
#447=SURFACE_STYLE_FILL_AREA(#529);
#448=ORIENTED_EDGE('',*,*,#137,.F.);
#449=ORIENTED_EDGE('',*,*,#121,.F.);
#450=ORIENTED_EDGE('',*,*,#117,.F.);
#451=ORIENTED_EDGE('',*,*,#133,.F.);
#452=CARTESIAN_POINT('',(-1.06581410364015E-014,7.38856911558485E-015,20.093476939431));
#453=DIRECTION('',(0.0,0.0,-1.0));
#454=DIRECTION('',(1.0,1.22460635382238E-016,0.0));
#455=DIRECTION('',(0.0,0.0,-1.0));
#456=SURFACE_STYLE_FILL_AREA(#530);
#457=ORIENTED_EDGE('',*,*,#129,.F.);
#458=ORIENTED_EDGE('',*,*,#149,.F.);
#459=ORIENTED_EDGE('',*,*,#123,.F.);
#460=ORIENTED_EDGE('',*,*,#89,.T.);
#461=CARTESIAN_POINT('',(2.8421709430404E-014,6.48275982282726E-015,5.05000000000001));
#462=DIRECTION('',(0.0,-0.0,1.0));
#463=DIRECTION('',(-1.0,-1.60597009496036E-016,0.0));
#464=CARTESIAN_POINT('',(2.8421709430404E-014,6.48275982282726E-015,4.00000000000001));
#465=DIRECTION('',(0.0,0.0,1.0));
#466=DIRECTION('',(-1.0,-1.60597009496036E-016,0.0));
#467=SURFACE_STYLE_FILL_AREA(#531);
#468=CARTESIAN_POINT('',(2.8421709430404E-014,6.48275982282726E-015,5.30000000000001));
#469=DIRECTION('',(-0.0,0.0,-1.0));
#470=DIRECTION('',(-1.0,-1.60597009496036E-016,0.0));
#471=CARTESIAN_POINT('',(-1.06581410364015E-014,7.38856911558485E-015,20.093476939431));
#472=DIRECTION('',(2.44921270764475E-016,-1.0,0.0));
#473=DIRECTION('',(-0.0,0.0,1.0));
#474=SURFACE_STYLE_FILL_AREA(#532);
#475=ORIENTED_EDGE('',*,*,#121,.T.);
#476=ORIENTED_EDGE('',*,*,#99,.T.);
#477=ORIENTED_EDGE('',*,*,#71,.F.);
#478=ORIENTED_EDGE('',*,*,#135,.F.);
#479=CARTESIAN_POINT('',(-11.75,4.71932667332303E-015,-1.4210854715202E-014));
#480=DIRECTION('',(0.0,0.0,-1.0));
#481=DIRECTION('',(1.0,1.22460635382238E-016,0.0));
#482=CARTESIAN_POINT('',(-1.06581410364015E-014,7.38856911558485E-015,-1.4210854715202E-014));
#483=DIRECTION('',(0.0,0.0,-1.0));
#484=DIRECTION('',(0.0,-1.0,0.0));
#485=DIRECTION('',(0.707106781186548,2.00151980160121E-016,0.707106781186547));
#486=DIRECTION('',(-0.0,-0.0,1.0));
#487=DIRECTION('',(0.707106781186548,2.00151980160121E-016,-0.707106781186547));
#488=CARTESIAN_POINT('',(2.8421709430404E-014,6.48275982282726E-015,4.00000000000001));
#489=DIRECTION('',(0.0,0.0,1.0));
#490=DIRECTION('',(-1.0,-1.60597009496036E-016,0.0));
#491=CARTESIAN_POINT('',(2.8421709430404E-014,6.48275982282726E-015,-2.8421709430404E-014));
#492=DIRECTION('',(-0.0,0.0,-1.0));
#493=DIRECTION('',(-1.0,-1.60597009496036E-016,0.0));
#494=CARTESIAN_POINT('',(-1.06581410364015E-014,7.38856911558485E-015,20.093476939431));
#495=DIRECTION('',(2.44921270764475E-016,-1.0,0.0));
#496=DIRECTION('',(-0.0,0.0,1.0));
#497=SURFACE_STYLE_FILL_AREA(#533);
#498=ORIENTED_EDGE('',*,*,#103,.F.);
#499=ORIENTED_EDGE('',*,*,#115,.T.);
#500=ORIENTED_EDGE('',*,*,#127,.F.);
#501=ORIENTED_EDGE('',*,*,#133,.T.);
#502=CARTESIAN_POINT('',(2.8421709430404E-014,6.48275982282726E-015,2.65000000000001));
#503=DIRECTION('',(0.0,-0.0,1.0));
#504=DIRECTION('',(-1.0,-1.60597009496036E-016,0.0));
#505=SURFACE_STYLE_FILL_AREA(#534);
#506=ORIENTED_EDGE('',*,*,#145,.T.);
#507=ORIENTED_EDGE('',*,*,#71,.T.);
#508=ORIENTED_EDGE('',*,*,#93,.T.);
#509=ORIENTED_EDGE('',*,*,#91,.F.);
#510=CARTESIAN_POINT('',(2.8421709430404E-014,6.48275982282726E-015,2.39999999999999));
#511=DIRECTION('',(0.0,-0.0,1.0));
#512=DIRECTION('',(-1.0,-1.60597009496036E-016,0.0));
#513=SURFACE_STYLE_FILL_AREA(#535);
#514=ORIENTED_EDGE('',*,*,#145,.F.);
#515=ORIENTED_EDGE('',*,*,#89,.F.);
#516=ORIENTED_EDGE('',*,*,#93,.F.);
#517=ORIENTED_EDGE('',*,*,#135,.T.);
#518=CARTESIAN_POINT('',(2.8421709430404E-014,6.48275982282726E-015,2.39999999999999));
#519=DIRECTION('',(0.0,-0.0,1.0));
#520=DIRECTION('',(-1.0,-1.60597009496036E-016,0.0));
#521=DIRECTION('',(0.0,0.0,-1.0));
#522=CARTESIAN_POINT('',(2.8421709430404E-014,6.48275982282726E-015,5.30000000000001));
#523=DIRECTION('',(-0.0,0.0,-1.0));
#524=DIRECTION('',(-1.0,-1.60597009496036E-016,0.0));
#525=FILL_AREA_STYLE('',(#536));
#526=FILL_AREA_STYLE('',(#537));
#527=FILL_AREA_STYLE('',(#538));
#528=FILL_AREA_STYLE('',(#539));
#529=FILL_AREA_STYLE('',(#540));
#530=FILL_AREA_STYLE('',(#541));
#531=FILL_AREA_STYLE('',(#542));
#532=FILL_AREA_STYLE('',(#543));
#533=FILL_AREA_STYLE('',(#544));
#534=FILL_AREA_STYLE('',(#545));
#535=FILL_AREA_STYLE('',(#546));
#536=FILL_AREA_STYLE_COLOUR('',#547);
#537=FILL_AREA_STYLE_COLOUR('',#548);
#538=FILL_AREA_STYLE_COLOUR('',#549);
#539=FILL_AREA_STYLE_COLOUR('',#550);
#540=FILL_AREA_STYLE_COLOUR('',#551);
#541=FILL_AREA_STYLE_COLOUR('',#552);
#542=FILL_AREA_STYLE_COLOUR('',#553);
#543=FILL_AREA_STYLE_COLOUR('',#554);
#544=FILL_AREA_STYLE_COLOUR('',#555);
#545=FILL_AREA_STYLE_COLOUR('',#556);
#546=FILL_AREA_STYLE_COLOUR('',#557);
#547=COLOUR_RGB('',0.509803950786591,0.509803950786591,0.588235318660736);
#548=COLOUR_RGB('',0.509803950786591,0.509803950786591,0.588235318660736);
#549=COLOUR_RGB('',0.509803950786591,0.509803950786591,0.588235318660736);
#550=COLOUR_RGB('',0.509803950786591,0.509803950786591,0.588235318660736);
#551=COLOUR_RGB('',0.509803950786591,0.509803950786591,0.588235318660736);
#552=COLOUR_RGB('',0.509803950786591,0.509803950786591,0.588235318660736);
#553=COLOUR_RGB('',0.509803950786591,0.509803950786591,0.588235318660736);
#554=COLOUR_RGB('',0.509803950786591,0.509803950786591,0.588235318660736);
#555=COLOUR_RGB('',0.509803950786591,0.509803950786591,0.588235318660736);
#556=COLOUR_RGB('',0.509803950786591,0.509803950786591,0.588235318660736);
#557=COLOUR_RGB('',0.509803950786591,0.509803950786591,0.588235318660736);
ENDSEC;
END-ISO-10303-21;
